ISO-10303-21;
HEADER;
FILE_DESCRIPTION (( 'STEP AP203' ),
    '1' );
FILE_NAME ('3D_GR1392_DN15x1_18380040.STEP',
    '2024-09-21T10:09:33',
    ( '' ),
    ( '' ),
    'SwSTEP 2.0',
    'SolidWorks 2024',
    '' );
FILE_SCHEMA (( 'CONFIG_CONTROL_DESIGN' ));
ENDSEC;

DATA;
#1 = CARTESIAN_POINT ( 'NONE',  ( 0.000000000000000000, 9.184850993605173582E-16, -7.500000000000018652 ) ) ;
#2 = COORDINATED_UNIVERSAL_TIME_OFFSET ( 1, 0, .AHEAD. ) ;
#3 = DIRECTION ( 'NONE',  ( -0.000000000000000000, 0.000000000000000000, -1.000000000000000000 ) ) ;
#4 = VECTOR ( 'NONE', #144, 1000.000000000000000 ) ;
#5 = APPROVAL_DATE_TIME ( #58, #338 ) ;
#6 = PERSON_AND_ORGANIZATION_ROLE ( 'creator' ) ;
#7 = EDGE_LOOP ( 'NONE', ( #92, #70 ) ) ;
#8 = CARTESIAN_POINT ( 'NONE',  ( -154.8395502972293230, 9.184850993605173582E-16, -7.500000000000018652 ) ) ;
#9 = VERTEX_POINT ( 'NONE', #230 ) ;
#10 = CC_DESIGN_PERSON_AND_ORGANIZATION_ASSIGNMENT ( #121, #254, ( #269 ) ) ;
#11 = VECTOR ( 'NONE', #206, 1000.000000000000000 ) ;
#12 = DIRECTION ( 'NONE',  ( 0.000000000000000000, 0.000000000000000000, 1.000000000000000000 ) ) ;
#13 = ORIENTED_EDGE ( 'NONE', *, *, #165, .T. ) ;
#14 = ORIENTED_EDGE ( 'NONE', *, *, #153, .F. ) ;
#15 = AXIS2_PLACEMENT_3D ( 'NONE', #215, #327, #145 ) ;
#16 = ORIENTED_EDGE ( 'NONE', *, *, #127, .F. ) ;
#17 = FACE_OUTER_BOUND ( 'NONE', #304, .T. ) ;
#18 = DIRECTION ( 'NONE',  ( 0.000000000000000000, 0.000000000000000000, 1.000000000000000000 ) ) ;
#19 = DIRECTION ( 'NONE',  ( 0.000000000000000000, 0.000000000000000000, 1.000000000000000000 ) ) ;
#20 = CARTESIAN_POINT ( 'NONE',  ( -2.775557561562891351E-14, 0.000000000000000000, 0.000000000000000000 ) ) ;
#21 = CC_DESIGN_DATE_AND_TIME_ASSIGNMENT ( #229, #296, ( #135 ) ) ;
#22 = DIRECTION ( 'NONE',  ( 0.000000000000000000, 0.000000000000000000, 1.000000000000000000 ) ) ;
#23 = AXIS2_PLACEMENT_3D ( 'NONE', #197, #313, #224 ) ;
#24 = CARTESIAN_POINT ( 'NONE',  ( -154.8395502972293230, 0.000000000000000000, 6.500000000000018652 ) ) ;
#25 = CARTESIAN_POINT ( 'NONE',  ( 6.000000000000587974, 0.000000000000000000, 6.500000000000018652 ) ) ;
#26 = CARTESIAN_POINT ( 'NONE',  ( 0.000000000000000000, 0.000000000000000000, 0.000000000000000000 ) ) ;
#27 = CONICAL_SURFACE ( 'NONE', #330, 5.500000000000019540, 0.7853981633974473908 ) ;
#28 = DIRECTION ( 'NONE',  ( -1.000000000000000000, -0.000000000000000000, -0.000000000000000000 ) ) ;
#29 = CALENDAR_DATE ( 2024, 21, 9 ) ;
#30 = DIRECTION ( 'NONE',  ( 0.000000000000000000, 1.000000000000000000, 0.000000000000000000 ) ) ;
#31 = LOCAL_TIME ( 12, 9, 33.00000000000000000, #201 ) ;
#32 = CONICAL_SURFACE ( 'NONE', #15, 5.500000000000019540, 0.7853981633974473908 ) ;
#33 = APPROVAL_DATE_TIME ( #273, #76 ) ;
#34 = PERSON_AND_ORGANIZATION_ROLE ( 'creator' ) ;
#35 = CARTESIAN_POINT ( 'NONE',  ( 0.000000000000000000, 0.000000000000000000, 0.000000000000000000 ) ) ;
#36 = VERTEX_POINT ( 'NONE', #46 ) ;
#37 = PERSON_AND_ORGANIZATION ( #262, #71 ) ;
#38 = CARTESIAN_POINT ( 'NONE',  ( -154.8395502972293230, 0.000000000000000000, 0.000000000000000000 ) ) ;
#39 = VERTEX_POINT ( 'NONE', #308 ) ;
#40 = ADVANCED_FACE ( 'NONE', ( #154 ), #179, .T. ) ;
#41 = VERTEX_POINT ( 'NONE', #290 ) ;
#42 = ORIENTED_EDGE ( 'NONE', *, *, #349, .F. ) ;
#43 = ORIENTED_EDGE ( 'NONE', *, *, #186, .T. ) ;
#44 = ADVANCED_FACE ( 'NONE', ( #203 ), #199, .F. ) ;
#45 = COORDINATED_UNIVERSAL_TIME_OFFSET ( 1, 0, .AHEAD. ) ;
#46 = CARTESIAN_POINT ( 'NONE',  ( -2.775557561562891351E-14, 0.000000000000000000, 6.500000000000018652 ) ) ;
#47 = PLANE ( 'NONE',  #119 ) ;
#48 = ADVANCED_FACE ( 'NONE', ( #182 ), #344, .T. ) ;
#49 = CARTESIAN_POINT ( 'NONE',  ( -9.325251573958019201E-15, 6.500000000000018652, 0.000000000000000000 ) ) ;
#50 = DIRECTION ( 'NONE',  ( 0.000000000000000000, 0.000000000000000000, 1.000000000000000000 ) ) ;
#51 = VECTOR ( 'NONE', #297, 1000.000000000000000 ) ;
#52 = CARTESIAN_POINT ( 'NONE',  ( -2.000000000000001776, 0.000000000000000000, 0.000000000000000000 ) ) ;
#53 = EDGE_CURVE ( 'NONE', #180, #171, #173, .T. ) ;
#54 = DIRECTION ( 'NONE',  ( 0.000000000000000000, 0.000000000000000000, 1.000000000000000000 ) ) ;
#55 = AXIS2_PLACEMENT_3D ( 'NONE', #263, #28, #129 ) ;
#56 = CARTESIAN_POINT ( 'NONE',  ( 6.000000000000587974, 7.960204194457819143E-16, -6.500000000000018652 ) ) ;
#57 = MECHANICAL_CONTEXT ( 'NONE', #278, 'mechanical' ) ;
#58 = DATE_AND_TIME ( #29, #221 ) ;
#59 = CIRCLE ( 'NONE', #166, 7.500000000000018652 ) ;
#60 = ORIENTED_EDGE ( 'NONE', *, *, #220, .T. ) ;
#61 = DIRECTION ( 'NONE',  ( 0.000000000000000000, 0.000000000000000000, 1.000000000000000000 ) ) ;
#62 = CC_DESIGN_APPROVAL ( #338, ( #346 ) ) ;
#63 = ADVANCED_FACE ( 'NONE', ( #73, #122 ), #47, .F. ) ;
#64 = ORIENTED_EDGE ( 'NONE', *, *, #301, .T. ) ;
#65 = ORIENTED_EDGE ( 'NONE', *, *, #207, .F. ) ;
#66 = DIRECTION ( 'NONE',  ( 1.000000000000000000, 0.000000000000000000, 0.000000000000000000 ) ) ;
#67 = VERTEX_POINT ( 'NONE', #152 ) ;
#68 = APPLICATION_PROTOCOL_DEFINITION ( 'international standard', 'config_control_design', 1994, #234 ) ;
#69 = CIRCLE ( 'NONE', #300, 5.500000000000019540 ) ;
#70 = ORIENTED_EDGE ( 'NONE', *, *, #80, .T. ) ;
#71 = ORGANIZATION ( 'UNSPECIFIED', 'UNSPECIFIED', '' ) ;
#72 = DIRECTION ( 'NONE',  ( -1.000000000000000000, -0.000000000000000000, -0.000000000000000000 ) ) ;
#73 = FACE_OUTER_BOUND ( 'NONE', #306, .T. ) ;
#74 = ORIENTED_EDGE ( 'NONE', *, *, #261, .T. ) ;
#75 = AXIS2_PLACEMENT_3D ( 'NONE', #83, #110, #54 ) ;
#76 = APPROVAL ( #283, 'UNSPECIFIED' ) ;
#77 = DIRECTION ( 'NONE',  ( -0.000000000000000000, 0.000000000000000000, 1.000000000000000000 ) ) ;
#78 = FACE_OUTER_BOUND ( 'NONE', #242, .T. ) ;
#79 = LINE ( 'NONE', #271, #11 ) ;
#80 = EDGE_CURVE ( 'NONE', #39, #36, #178, .T. ) ;
#81 = CARTESIAN_POINT ( 'NONE',  ( 7.000000000000588862, 0.000000000000000000, 5.500000000000019540 ) ) ;
#82 = APPROVAL_DATE_TIME ( #138, #281 ) ;
#83 = CARTESIAN_POINT ( 'NONE',  ( 0.000000000000000000, 0.000000000000000000, 0.000000000000000000 ) ) ;
#84 = APPROVAL_ROLE ( '' ) ;
#85 = DIRECTION ( 'NONE',  ( -1.000000000000000000, -0.000000000000000000, -0.000000000000000000 ) ) ;
#86 = VERTEX_POINT ( 'NONE', #257 ) ;
#87 = AXIS2_PLACEMENT_3D ( 'NONE', #209, #185, #294 ) ;
#88 = APPLICATION_PROTOCOL_DEFINITION ( 'international standard', 'config_control_design', 1994, #278 ) ;
#89 = EDGE_CURVE ( 'NONE', #36, #39, #305, .T. ) ;
#90 = ORIENTED_EDGE ( 'NONE', *, *, #99, .T. ) ;
#91 = EDGE_LOOP ( 'NONE', ( #137, #134, #174, #247, #336 ) ) ;
#92 = ORIENTED_EDGE ( 'NONE', *, *, #89, .T. ) ;
#93 = AXIS2_PLACEMENT_3D ( 'NONE', #131, #236, #319 ) ;
#94 = DIRECTION ( 'NONE',  ( -1.000000000000000000, -0.000000000000000000, -0.000000000000000000 ) ) ;
#95 = LINE ( 'NONE', #238, #51 ) ;
#96 = CARTESIAN_POINT ( 'NONE',  ( -154.8395502972293230, 0.000000000000000000, 0.000000000000000000 ) ) ;
#97 = CIRCLE ( 'NONE', #312, 7.500000000000019540 ) ;
#98 = DIRECTION ( 'NONE',  ( -1.000000000000000000, -0.000000000000000000, -0.000000000000000000 ) ) ;
#99 = EDGE_CURVE ( 'NONE', #180, #36, #258, .T. ) ;
#100 = VERTEX_POINT ( 'NONE', #250 ) ;
#101 = ORIENTED_EDGE ( 'NONE', *, *, #288, .T. ) ;
#102 = ADVANCED_FACE ( 'NONE', ( #223 ), #195, .T. ) ;
#103 = DIRECTION ( 'NONE',  ( -1.000000000000000000, -0.000000000000000000, -0.000000000000000000 ) ) ;
#104 = APPROVAL_PERSON_ORGANIZATION ( #266, #338, #329 ) ;
#105 = AXIS2_PLACEMENT_3D ( 'NONE', #337, #85, #61 ) ;
#106 = LINE ( 'NONE', #128, #285 ) ;
#107 = DIRECTION ( 'NONE',  ( -1.000000000000000000, -0.000000000000000000, -0.000000000000000000 ) ) ;
#108 = CC_DESIGN_DATE_AND_TIME_ASSIGNMENT ( #303, #298, ( #268 ) ) ;
#109 = CALENDAR_DATE ( 2024, 21, 9 ) ;
#110 = DIRECTION ( 'NONE',  ( -1.000000000000000000, -0.000000000000000000, -0.000000000000000000 ) ) ;
#111 = AXIS2_PLACEMENT_3D ( 'NONE', #20, #72, #22 ) ;
#112 = DIRECTION ( 'NONE',  ( 0.000000000000000000, 0.000000000000000000, 1.000000000000000000 ) ) ;
#113 = ORIENTED_EDGE ( 'NONE', *, *, #200, .F. ) ;
#114 = CARTESIAN_POINT ( 'NONE',  ( -2.000000000000001776, 0.000000000000000000, 0.000000000000000000 ) ) ;
#115 = ORIENTED_EDGE ( 'NONE', *, *, #153, .T. ) ;
#116 = ORIENTED_EDGE ( 'NONE', *, *, #53, .F. ) ;
#117 = LINE ( 'NONE', #8, #335 ) ;
#118 = DIRECTION ( 'NONE',  ( -1.000000000000000000, 0.000000000000000000, -0.000000000000000000 ) ) ;
#119 = AXIS2_PLACEMENT_3D ( 'NONE', #49, #118, #151 ) ;
#120 = ORIENTED_EDGE ( 'NONE', *, *, #207, .T. ) ;
#121 = PERSON_AND_ORGANIZATION ( #262, #71 ) ;
#122 = FACE_BOUND ( 'NONE', #7, .T. ) ;
#123 = CARTESIAN_POINT ( 'NONE',  ( -2.775557561562891351E-14, 0.000000000000000000, 0.000000000000000000 ) ) ;
#124 = AXIS2_PLACEMENT_3D ( 'NONE', #316, #287, #255 ) ;
#125 = CALENDAR_DATE ( 2024, 21, 9 ) ;
#126 = ORIENTED_EDGE ( 'NONE', *, *, #186, .F. ) ;
#127 = EDGE_CURVE ( 'NONE', #171, #39, #95, .T. ) ;
#128 = CARTESIAN_POINT ( 'NONE',  ( 7.000000000000588862, 6.735557395310466675E-16, -5.500000000000019540 ) ) ;
#129 = DIRECTION ( 'NONE',  ( 0.000000000000000000, 0.000000000000000000, 1.000000000000000000 ) ) ;
#130 = CIRCLE ( 'NONE', #177, 15.06249999999993427 ) ;
#131 = CARTESIAN_POINT ( 'NONE',  ( 7.000000000000588862, 0.000000000000000000, 0.000000000000000000 ) ) ;
#132 = COORDINATED_UNIVERSAL_TIME_OFFSET ( 1, 0, .AHEAD. ) ;
#133 = PERSON_AND_ORGANIZATION ( #262, #71 ) ;
#134 = ORIENTED_EDGE ( 'NONE', *, *, #315, .T. ) ;
#135 = PRODUCT_DEFINITION ( 'UNKNOWN', '', #346, #172 ) ;
#136 =( NAMED_UNIT ( * ) PLANE_ANGLE_UNIT ( ) SI_UNIT ( $, .RADIAN. ) );
#137 = ORIENTED_EDGE ( 'NONE', *, *, #194, .T. ) ;
#138 = DATE_AND_TIME ( #109, #184 ) ;
#139 = FACE_OUTER_BOUND ( 'NONE', #192, .T. ) ;
#140 = ORIENTED_EDGE ( 'NONE', *, *, #315, .F. ) ;
#141 = EDGE_CURVE ( 'NONE', #9, #188, #239, .T. ) ;
#142 = VERTEX_POINT ( 'NONE', #1 ) ;
#143 = EDGE_LOOP ( 'NONE', ( #74, #120, #167, #113 ) ) ;
#144 = DIRECTION ( 'NONE',  ( -1.000000000000000000, -0.000000000000000000, -0.000000000000000000 ) ) ;
#145 = DIRECTION ( 'NONE',  ( 0.000000000000000000, 0.000000000000000000, 1.000000000000000000 ) ) ;
#146 = AXIS2_PLACEMENT_3D ( 'NONE', #114, #94, #196 ) ;
#147 = CARTESIAN_POINT ( 'NONE',  ( -154.8395502972293230, 0.000000000000000000, 0.000000000000000000 ) ) ;
#148 = APPROVAL_PERSON_ORGANIZATION ( #237, #281, #84 ) ;
#149 = CC_DESIGN_PERSON_AND_ORGANIZATION_ASSIGNMENT ( #183, #34, ( #346 ) ) ;
#150 =( NAMED_UNIT ( * ) SI_UNIT ( $, .STERADIAN. ) SOLID_ANGLE_UNIT ( ) );
#151 = DIRECTION ( 'NONE',  ( -0.000000000000000000, 0.000000000000000000, 1.000000000000000000 ) ) ;
#152 = CARTESIAN_POINT ( 'NONE',  ( -2.000000000000001776, -7.500000000000016875, -9.184850993605169638E-16 ) ) ;
#153 = EDGE_CURVE ( 'NONE', #142, #86, #317, .T. ) ;
#154 = FACE_OUTER_BOUND ( 'NONE', #91, .T. ) ;
#155 = CARTESIAN_POINT ( 'NONE',  ( 11.06249999999991296, -4.336808689942017736E-16, 0.000000000000000000 ) ) ;
#156 = FACE_OUTER_BOUND ( 'NONE', #276, .T. ) ;
#157 = DIRECTION ( 'NONE',  ( 0.000000000000000000, 0.000000000000000000, 1.000000000000000000 ) ) ;
#158 = VECTOR ( 'NONE', #320, 1000.000000000000000 ) ;
#159 = APPROVAL_PERSON_ORGANIZATION ( #168, #76, #176 ) ;
#160 = APPROVAL_STATUS ( 'not_yet_approved' ) ;
#161 = EDGE_CURVE ( 'NONE', #67, #41, #347, .T. ) ;
#162 = CARTESIAN_POINT ( 'NONE',  ( 11.06249999999991296, -4.336808689942017736E-16, 0.000000000000000000 ) ) ;
#163 = PERSON_AND_ORGANIZATION ( #262, #71 ) ;
#164 = FACE_OUTER_BOUND ( 'NONE', #245, .T. ) ;
#165 = EDGE_CURVE ( 'NONE', #86, #100, #79, .T. ) ;
#166 = AXIS2_PLACEMENT_3D ( 'NONE', #26, #103, #208 ) ;
#167 = ORIENTED_EDGE ( 'NONE', *, *, #161, .T. ) ;
#168 = PERSON_AND_ORGANIZATION ( #262, #71 ) ;
#169 = PRODUCT_RELATED_PRODUCT_CATEGORY ( 'detail', '', ( #269 ) ) ;
#170 = AXIS2_PLACEMENT_3D ( 'NONE', #35, #19, #66 ) ;
#171 = VERTEX_POINT ( 'NONE', #56 ) ;
#172 = DESIGN_CONTEXT ( 'detailed design', #234, 'design' ) ;
#173 = CIRCLE ( 'NONE', #23, 6.500000000000018652 ) ;
#174 = ORIENTED_EDGE ( 'NONE', *, *, #261, .F. ) ;
#175 = ORIENTED_EDGE ( 'NONE', *, *, #89, .F. ) ;
#176 = APPROVAL_ROLE ( '' ) ;
#177 = AXIS2_PLACEMENT_3D ( 'NONE', #211, #77, #291 ) ;
#178 = CIRCLE ( 'NONE', #111, 6.500000000000018652 ) ;
#179 = CYLINDRICAL_SURFACE ( 'NONE', #295, 7.500000000000018652 ) ;
#180 = VERTEX_POINT ( 'NONE', #25 ) ;
#181 = ORIENTED_EDGE ( 'NONE', *, *, #161, .F. ) ;
#182 = FACE_OUTER_BOUND ( 'NONE', #282, .T. ) ;
#183 = PERSON_AND_ORGANIZATION ( #262, #71 ) ;
#184 = LOCAL_TIME ( 12, 9, 33.00000000000000000, #351 ) ;
#185 = DIRECTION ( 'NONE',  ( -0.000000000000000000, 0.000000000000000000, -1.000000000000000000 ) ) ;
#186 = EDGE_CURVE ( 'NONE', #188, #171, #106, .T. ) ;
#187 = SHAPE_DEFINITION_REPRESENTATION ( #212, #280 ) ;
#188 = VERTEX_POINT ( 'NONE', #345 ) ;
#189 = LOCAL_TIME ( 12, 9, 33.00000000000000000, #45 ) ;
#190 = CARTESIAN_POINT ( 'NONE',  ( -2.000000000000001776, 9.184850993605175555E-16, -7.500000000000020428 ) ) ;
#191 = ORIENTED_EDGE ( 'NONE', *, *, #141, .F. ) ;
#192 = EDGE_LOOP ( 'NONE', ( #16, #60, #90, #334 ) ) ;
#193 = AXIS2_PLACEMENT_3D ( 'NONE', #123, #228, #50 ) ;
#194 = EDGE_CURVE ( 'NONE', #86, #142, #59, .T. ) ;
#195 = SPHERICAL_SURFACE ( 'NONE', #318, 15.06249999999993427 ) ;
#196 = DIRECTION ( 'NONE',  ( 0.000000000000000000, 0.000000000000000000, 1.000000000000000000 ) ) ;
#197 = CARTESIAN_POINT ( 'NONE',  ( 6.000000000000587974, 0.000000000000000000, 0.000000000000000000 ) ) ;
#198 = AXIS2_PLACEMENT_3D ( 'NONE', #52, #107, #324 ) ;
#199 = PLANE ( 'NONE',  #124 ) ;
#200 = EDGE_CURVE ( 'NONE', #284, #41, #130, .T. ) ;
#201 = COORDINATED_UNIVERSAL_TIME_OFFSET ( 1, 0, .AHEAD. ) ;
#202 = DIRECTION ( 'NONE',  ( -1.000000000000000000, -0.000000000000000000, -0.000000000000000000 ) ) ;
#203 = FACE_OUTER_BOUND ( 'NONE', #314, .T. ) ;
#204 = MANIFOLD_SOLID_BREP ( 'Rotation1', #219 ) ;
#205 = CIRCLE ( 'NONE', #218, 7.500000000000019540 ) ;
#206 = DIRECTION ( 'NONE',  ( -1.000000000000000000, -0.000000000000000000, -0.000000000000000000 ) ) ;
#207 = EDGE_CURVE ( 'NONE', #341, #67, #264, .T. ) ;
#208 = DIRECTION ( 'NONE',  ( 0.000000000000000000, 0.000000000000000000, 1.000000000000000000 ) ) ;
#209 = CARTESIAN_POINT ( 'NONE',  ( 11.06249999999991296, -4.336808689942017736E-16, 0.000000000000000000 ) ) ;
#210 = PERSON_AND_ORGANIZATION_ROLE ( 'design_supplier' ) ;
#211 = CARTESIAN_POINT ( 'NONE',  ( 11.06249999999991296, -4.336808689942017736E-16, 0.000000000000000000 ) ) ;
#212 = PRODUCT_DEFINITION_SHAPE ( 'NONE', 'NONE',  #135 ) ;
#213 = ADVANCED_FACE ( 'NONE', ( #156 ), #27, .T. ) ;
#214 = APPROVAL_STATUS ( 'not_yet_approved' ) ;
#215 = CARTESIAN_POINT ( 'NONE',  ( 7.000000000000588862, 0.000000000000000000, 0.000000000000000000 ) ) ;
#216 =( GEOMETRIC_REPRESENTATION_CONTEXT ( 3 ) GLOBAL_UNCERTAINTY_ASSIGNED_CONTEXT ( ( #243 ) ) GLOBAL_UNIT_ASSIGNED_CONTEXT ( ( #309, #136, #150 ) ) REPRESENTATION_CONTEXT ( 'NONE', 'WORKASPACE' ) );
#217 = ORIENTED_EDGE ( 'NONE', *, *, #349, .T. ) ;
#218 = AXIS2_PLACEMENT_3D ( 'NONE', #292, #267, #340 ) ;
#219 = CLOSED_SHELL ( 'NONE', ( #322, #326, #40, #102, #256, #48, #63, #277, #213, #44 ) ) ;
#220 = EDGE_CURVE ( 'NONE', #171, #180, #272, .T. ) ;
#221 = LOCAL_TIME ( 12, 9, 33.00000000000000000, #132 ) ;
#222 = DIRECTION ( 'NONE',  ( -1.000000000000000000, -0.000000000000000000, -0.000000000000000000 ) ) ;
#223 = FACE_OUTER_BOUND ( 'NONE', #143, .T. ) ;
#224 = DIRECTION ( 'NONE',  ( 0.000000000000000000, 0.000000000000000000, 1.000000000000000000 ) ) ;
#225 = CALENDAR_DATE ( 2024, 21, 9 ) ;
#226 = CC_DESIGN_PERSON_AND_ORGANIZATION_ASSIGNMENT ( #37, #274, ( #268 ) ) ;
#227 = ORIENTED_EDGE ( 'NONE', *, *, #288, .F. ) ;
#228 = DIRECTION ( 'NONE',  ( -1.000000000000000000, -0.000000000000000000, -0.000000000000000000 ) ) ;
#229 = DATE_AND_TIME ( #125, #31 ) ;
#230 = CARTESIAN_POINT ( 'NONE',  ( 7.000000000000588862, 0.000000000000000000, 5.500000000000019540 ) ) ;
#231 = DIRECTION ( 'NONE',  ( -0.7071067811865482389, 8.659560562354925463E-17, -0.7071067811865469066 ) ) ;
#232 = AXIS2_PLACEMENT_3D ( 'NONE', #155, #260, #350 ) ;
#233 = CARTESIAN_POINT ( 'NONE',  ( 7.000000000000588862, 0.000000000000000000, 0.000000000000000000 ) ) ;
#234 = APPLICATION_CONTEXT ( 'configuration controlled 3d designs of mechanical parts and assemblies' ) ;
#235 = CC_DESIGN_APPROVAL ( #76, ( #135 ) ) ;
#236 = DIRECTION ( 'NONE',  ( -1.000000000000000000, -0.000000000000000000, -0.000000000000000000 ) ) ;
#237 = PERSON_AND_ORGANIZATION ( #262, #71 ) ;
#238 = CARTESIAN_POINT ( 'NONE',  ( -154.8395502972293230, 7.960204194457819143E-16, -6.500000000000018652 ) ) ;
#239 = CIRCLE ( 'NONE', #93, 5.500000000000019540 ) ;
#240 = CARTESIAN_POINT ( 'NONE',  ( -2.000000000000001776, 0.000000000000000000, 0.000000000000000000 ) ) ;
#241 = ORIENTED_EDGE ( 'NONE', *, *, #141, .T. ) ;
#242 = EDGE_LOOP ( 'NONE', ( #181, #217, #64, #289 ) ) ;
#243 = UNCERTAINTY_MEASURE_WITH_UNIT (LENGTH_MEASURE( 1.000000000000000082E-05 ), #309, 'distance_accuracy_value', 'NONE');
#244 = DIRECTION ( 'NONE',  ( -1.000000000000000000, -0.000000000000000000, -0.000000000000000000 ) ) ;
#245 = EDGE_LOOP ( 'NONE', ( #342, #328, #175, #311 ) ) ;
#246 = AXIS2_PLACEMENT_3D ( 'NONE', #38, #244, #252 ) ;
#247 = ORIENTED_EDGE ( 'NONE', *, *, #301, .F. ) ;
#248 = ORIENTED_EDGE ( 'NONE', *, *, #194, .F. ) ;
#249 = EDGE_CURVE ( 'NONE', #9, #180, #348, .T. ) ;
#250 = CARTESIAN_POINT ( 'NONE',  ( -2.000000000000001776, 0.000000000000000000, 7.500000000000020428 ) ) ;
#251 = CIRCLE ( 'NONE', #146, 7.500000000000019540 ) ;
#252 = DIRECTION ( 'NONE',  ( 0.000000000000000000, 0.000000000000000000, 1.000000000000000000 ) ) ;
#253 = DIRECTION ( 'NONE',  ( 0.000000000000000000, 0.000000000000000000, 1.000000000000000000 ) ) ;
#254 = PERSON_AND_ORGANIZATION_ROLE ( 'design_owner' ) ;
#255 = DIRECTION ( 'NONE',  ( -0.000000000000000000, 0.000000000000000000, 1.000000000000000000 ) ) ;
#256 = ADVANCED_FACE ( 'NONE', ( #78 ), #265, .T. ) ;
#257 = CARTESIAN_POINT ( 'NONE',  ( 0.000000000000000000, 0.000000000000000000, 7.500000000000018652 ) ) ;
#258 = LINE ( 'NONE', #24, #4 ) ;
#259 = LOCAL_TIME ( 12, 9, 33.00000000000000000, #2 ) ;
#260 = DIRECTION ( 'NONE',  ( 0.000000000000000000, 1.224646799147353207E-16, -1.000000000000000000 ) ) ;
#261 = EDGE_CURVE ( 'NONE', #284, #341, #205, .T. ) ;
#262 = PERSON ( 'UNSPECIFIED', 'UNSPECIFIED', 'UNSPECIFIED', ('UNSPECIFIED'), ('UNSPECIFIED'), ('UNSPECIFIED') ) ;
#263 = CARTESIAN_POINT ( 'NONE',  ( 6.000000000000587974, 0.000000000000000000, 0.000000000000000000 ) ) ;
#264 = CIRCLE ( 'NONE', #198, 7.500000000000019540 ) ;
#265 = SPHERICAL_SURFACE ( 'NONE', #87, 15.06249999999993427 ) ;
#266 = PERSON_AND_ORGANIZATION ( #262, #71 ) ;
#267 = DIRECTION ( 'NONE',  ( -1.000000000000000000, -0.000000000000000000, -0.000000000000000000 ) ) ;
#268 = SECURITY_CLASSIFICATION ( '', '', #270 ) ;
#269 = PRODUCT ( '3D_GR1392_DN15x1_18380040', '3D_GR1392_DN15x1_18380040', '', ( #57 ) ) ;
#270 = SECURITY_CLASSIFICATION_LEVEL ( 'unclassified' ) ;
#271 = CARTESIAN_POINT ( 'NONE',  ( -154.8395502972293230, 0.000000000000000000, 7.500000000000018652 ) ) ;
#272 = CIRCLE ( 'NONE', #55, 6.500000000000018652 ) ;
#273 = DATE_AND_TIME ( #225, #189 ) ;
#274 = PERSON_AND_ORGANIZATION_ROLE ( 'classification_officer' ) ;
#275 = CARTESIAN_POINT ( 'NONE',  ( -2.000000000000001776, 7.500000000000016875, 0.000000000000000000 ) ) ;
#276 = EDGE_LOOP ( 'NONE', ( #126, #101, #339, #302 ) ) ;
#277 = ADVANCED_FACE ( 'NONE', ( #139 ), #279, .T. ) ;
#278 = APPLICATION_CONTEXT ( 'configuration controlled 3d designs of mechanical parts and assemblies' ) ;
#279 = CYLINDRICAL_SURFACE ( 'NONE', #246, 6.500000000000018652 ) ;
#280 = ADVANCED_BREP_SHAPE_REPRESENTATION ( '3D_GR1392_DN15x1_18380040', ( #204, #170 ), #216 ) ;
#281 = APPROVAL ( #214, 'UNSPECIFIED' ) ;
#282 = EDGE_LOOP ( 'NONE', ( #140, #115, #13, #42, #65 ) ) ;
#283 = APPROVAL_STATUS ( 'not_yet_approved' ) ;
#284 = VERTEX_POINT ( 'NONE', #275 ) ;
#285 = VECTOR ( 'NONE', #231, 1000.000000000000000 ) ;
#286 = CYLINDRICAL_SURFACE ( 'NONE', #105, 6.500000000000018652 ) ;
#287 = DIRECTION ( 'NONE',  ( -1.000000000000000000, 0.000000000000000000, -0.000000000000000000 ) ) ;
#288 = EDGE_CURVE ( 'NONE', #188, #9, #69, .T. ) ;
#289 = ORIENTED_EDGE ( 'NONE', *, *, #200, .T. ) ;
#290 = CARTESIAN_POINT ( 'NONE',  ( -4.000000000000021316, 4.886312516136444513E-16, 0.000000000000000000 ) ) ;
#291 = DIRECTION ( 'NONE',  ( 1.000000000000000000, 0.000000000000000000, 0.000000000000000000 ) ) ;
#292 = CARTESIAN_POINT ( 'NONE',  ( -2.000000000000001776, 0.000000000000000000, 0.000000000000000000 ) ) ;
#293 = CC_DESIGN_PERSON_AND_ORGANIZATION_ASSIGNMENT ( #133, #6, ( #135 ) ) ;
#294 = DIRECTION ( 'NONE',  ( 0.000000000000000000, 1.000000000000000000, 0.000000000000000000 ) ) ;
#295 = AXIS2_PLACEMENT_3D ( 'NONE', #96, #98, #18 ) ;
#296 = DATE_TIME_ROLE ( 'creation_date' ) ;
#297 = DIRECTION ( 'NONE',  ( -1.000000000000000000, -0.000000000000000000, -0.000000000000000000 ) ) ;
#298 = DATE_TIME_ROLE ( 'classification_date' ) ;
#299 = DIRECTION ( 'NONE',  ( -1.000000000000000000, -0.000000000000000000, -0.000000000000000000 ) ) ;
#300 = AXIS2_PLACEMENT_3D ( 'NONE', #331, #307, #12 ) ;
#301 = EDGE_CURVE ( 'NONE', #100, #284, #97, .T. ) ;
#302 = ORIENTED_EDGE ( 'NONE', *, *, #220, .F. ) ;
#303 = DATE_AND_TIME ( #325, #259 ) ;
#304 = EDGE_LOOP ( 'NONE', ( #241, #43, #116, #333 ) ) ;
#305 = CIRCLE ( 'NONE', #193, 6.500000000000018652 ) ;
#306 = EDGE_LOOP ( 'NONE', ( #248, #14 ) ) ;
#307 = DIRECTION ( 'NONE',  ( -1.000000000000000000, -0.000000000000000000, -0.000000000000000000 ) ) ;
#308 = CARTESIAN_POINT ( 'NONE',  ( -2.775557561562891351E-14, 7.960204194457819143E-16, -6.500000000000018652 ) ) ;
#309 =( LENGTH_UNIT ( ) NAMED_UNIT ( * ) SI_UNIT ( .MILLI., .METRE. ) );
#310 = CC_DESIGN_SECURITY_CLASSIFICATION ( #268, ( #346 ) ) ;
#311 = ORIENTED_EDGE ( 'NONE', *, *, #99, .F. ) ;
#312 = AXIS2_PLACEMENT_3D ( 'NONE', #240, #299, #112 ) ;
#313 = DIRECTION ( 'NONE',  ( -1.000000000000000000, -0.000000000000000000, -0.000000000000000000 ) ) ;
#314 = EDGE_LOOP ( 'NONE', ( #191, #227 ) ) ;
#315 = EDGE_CURVE ( 'NONE', #142, #341, #117, .T. ) ;
#316 = CARTESIAN_POINT ( 'NONE',  ( 7.000000000000299316, 0.000000000000000000, 0.000000000000000000 ) ) ;
#317 = CIRCLE ( 'NONE', #75, 7.500000000000018652 ) ;
#318 = AXIS2_PLACEMENT_3D ( 'NONE', #162, #3, #30 ) ;
#319 = DIRECTION ( 'NONE',  ( 0.000000000000000000, 0.000000000000000000, 1.000000000000000000 ) ) ;
#320 = DIRECTION ( 'NONE',  ( -0.7071067811865482389, 0.000000000000000000, 0.7071067811865469066 ) ) ;
#321 = DIRECTION ( 'NONE',  ( -1.000000000000000000, -0.000000000000000000, -0.000000000000000000 ) ) ;
#322 = ADVANCED_FACE ( 'NONE', ( #17 ), #32, .T. ) ;
#323 = CC_DESIGN_APPROVAL ( #281, ( #268 ) ) ;
#324 = DIRECTION ( 'NONE',  ( 0.000000000000000000, 0.000000000000000000, 1.000000000000000000 ) ) ;
#325 = CALENDAR_DATE ( 2024, 21, 9 ) ;
#326 = ADVANCED_FACE ( 'NONE', ( #164 ), #286, .T. ) ;
#327 = DIRECTION ( 'NONE',  ( -1.000000000000000000, -0.000000000000000000, -0.000000000000000000 ) ) ;
#328 = ORIENTED_EDGE ( 'NONE', *, *, #127, .T. ) ;
#329 = APPROVAL_ROLE ( '' ) ;
#330 = AXIS2_PLACEMENT_3D ( 'NONE', #233, #321, #157 ) ;
#331 = CARTESIAN_POINT ( 'NONE',  ( 7.000000000000588862, 0.000000000000000000, 0.000000000000000000 ) ) ;
#332 = AXIS2_PLACEMENT_3D ( 'NONE', #147, #202, #253 ) ;
#333 = ORIENTED_EDGE ( 'NONE', *, *, #249, .F. ) ;
#334 = ORIENTED_EDGE ( 'NONE', *, *, #80, .F. ) ;
#335 = VECTOR ( 'NONE', #222, 1000.000000000000000 ) ;
#336 = ORIENTED_EDGE ( 'NONE', *, *, #165, .F. ) ;
#337 = CARTESIAN_POINT ( 'NONE',  ( -154.8395502972293230, 0.000000000000000000, 0.000000000000000000 ) ) ;
#338 = APPROVAL ( #160, 'UNSPECIFIED' ) ;
#339 = ORIENTED_EDGE ( 'NONE', *, *, #249, .T. ) ;
#340 = DIRECTION ( 'NONE',  ( 0.000000000000000000, 0.000000000000000000, 1.000000000000000000 ) ) ;
#341 = VERTEX_POINT ( 'NONE', #190 ) ;
#342 = ORIENTED_EDGE ( 'NONE', *, *, #53, .T. ) ;
#343 = CC_DESIGN_PERSON_AND_ORGANIZATION_ASSIGNMENT ( #163, #210, ( #346 ) ) ;
#344 = CYLINDRICAL_SURFACE ( 'NONE', #332, 7.500000000000018652 ) ;
#345 = CARTESIAN_POINT ( 'NONE',  ( 7.000000000000588862, 7.347880794884142416E-16, -5.500000000000019540 ) ) ;
#346 = PRODUCT_DEFINITION_FORMATION_WITH_SPECIFIED_SOURCE ( 'ANY', '', #269, .NOT_KNOWN. ) ;
#347 = CIRCLE ( 'NONE', #232, 15.06249999999993427 ) ;
#348 = LINE ( 'NONE', #81, #158 ) ;
#349 = EDGE_CURVE ( 'NONE', #67, #100, #251, .T. ) ;
#350 = DIRECTION ( 'NONE',  ( 0.000000000000000000, 1.000000000000000000, 1.224646799147352961E-16 ) ) ;
#351 = COORDINATED_UNIVERSAL_TIME_OFFSET ( 1, 0, .AHEAD. ) ;
ENDSEC;
END-ISO-10303-21;
