ISO-10303-21;
HEADER;
FILE_DESCRIPTION (( 'STEP AP203' ),
    '1' );
FILE_NAME ('OT214-600-606x3_OSTP.step',
    '2021-02-10T13:11:59',
    ( '' ),
    ( '' ),
    'SwSTEP 2.0',
    'SolidWorks 2014',
    '' );
FILE_SCHEMA (( 'CONFIG_CONTROL_DESIGN' ));
ENDSEC;

DATA;
#1 = VERTEX_POINT ( 'NONE', #44 ) ;
#2 = PERSON_AND_ORGANIZATION ( #182, #245 ) ;
#3 = AXIS2_PLACEMENT_3D ( 'NONE', #144, #24, #237 ) ;
#4 = CALENDAR_DATE ( 2021, 10, 2 ) ;
#5 = VERTEX_POINT ( 'NONE', #166 ) ;
#6 = CARTESIAN_POINT ( 'NONE',  ( 700.0000000000000000, 700.0000000000000000, 0.0000000000000000000 ) ) ;
#7 = EDGE_CURVE ( 'NONE', #63, #232, #120, .T. ) ;
#8 = APPROVAL_DATE_TIME ( #196, #43 ) ;
#9 = CARTESIAN_POINT ( 'NONE',  ( 700.0000000000000000, 0.0000000000000000000, -3.673940397442060100E-014 ) ) ;
#10 = CARTESIAN_POINT ( 'NONE',  ( 0.0000000000000000000, 0.0000000000000000000, 0.0000000000000000000 ) ) ;
#11 = DIRECTION ( 'NONE',  ( 0.0000000000000000000, 0.0000000000000000000, 1.000000000000000000 ) ) ;
#12 = PERSON_AND_ORGANIZATION ( #182, #245 ) ;
#13 = CLOSED_SHELL ( 'NONE', ( #64, #143, #103, #201, #220, #216 ) ) ;
#14 = EDGE_CURVE ( 'NONE', #5, #101, #236, .T. ) ;
#15 =( NAMED_UNIT ( * ) PLANE_ANGLE_UNIT ( ) SI_UNIT ( $, .RADIAN. ) );
#16 = APPROVAL_STATUS ( 'not_yet_approved' ) ;
#17 = ORIENTED_EDGE ( 'NONE', *, *, #164, .T. ) ;
#18 = AXIS2_PLACEMENT_3D ( 'NONE', #207, #52, #149 ) ;
#19 = CC_DESIGN_PERSON_AND_ORGANIZATION_ASSIGNMENT ( #130, #214, ( #116 ) ) ;
#20 = DATE_AND_TIME ( #74, #123 ) ;
#21 = ORIENTED_EDGE ( 'NONE', *, *, #47, .F. ) ;
#22 = EDGE_CURVE ( 'NONE', #249, #125, #178, .T. ) ;
#23 = ORIENTED_EDGE ( 'NONE', *, *, #7, .T. ) ;
#24 = DIRECTION ( 'NONE',  ( 0.0000000000000000000, 0.0000000000000000000, 1.000000000000000000 ) ) ;
#25 = EDGE_CURVE ( 'NONE', #232, #63, #160, .T. ) ;
#26 = ORIENTED_EDGE ( 'NONE', *, *, #204, .F. ) ;
#27 = CARTESIAN_POINT ( 'NONE',  ( 700.0000000000000000, 700.0000000000000000, 0.0000000000000000000 ) ) ;
#28 = CARTESIAN_POINT ( 'NONE',  ( 700.0000000000000000, 0.0000000000000000000, 0.0000000000000000000 ) ) ;
#29 = CC_DESIGN_PERSON_AND_ORGANIZATION_ASSIGNMENT ( #12, #135, ( #172 ) ) ;
#30 = CALENDAR_DATE ( 2021, 10, 2 ) ;
#31 = DIRECTION ( 'NONE',  ( 0.0000000000000000000, 0.0000000000000000000, 1.000000000000000000 ) ) ;
#32 = CARTESIAN_POINT ( 'NONE',  ( 700.0000000000000000, 0.0000000000000000000, -3.710679801416480700E-014 ) ) ;
#33 = APPLICATION_CONTEXT ( 'configuration controlled 3d designs of mechanical parts and assemblies' ) ;
#34 = ORIENTED_EDGE ( 'NONE', *, *, #47, .T. ) ;
#35 = AXIS2_PLACEMENT_3D ( 'NONE', #246, #206, #31 ) ;
#36 = CARTESIAN_POINT ( 'NONE',  ( 700.0000000000000000, 399.9999999999998900, -3.673940397442060100E-014 ) ) ;
#37 = FACE_OUTER_BOUND ( 'NONE', #75, .T. ) ;
#38 = ORIENTED_EDGE ( 'NONE', *, *, #253, .T. ) ;
#39 = AXIS2_PLACEMENT_3D ( 'NONE', #131, #73, #11 ) ;
#40 = FACE_OUTER_BOUND ( 'NONE', #203, .T. ) ;
#41 = EDGE_CURVE ( 'NONE', #125, #249, #155, .T. ) ;
#42 = CIRCLE ( 'NONE', #65, 303.0000000000000600 ) ;
#43 = APPROVAL ( #16, 'UNSPECIFIED' ) ;
#44 = CARTESIAN_POINT ( 'NONE',  ( 303.0000000000000600, 0.0000000000000000000, -3.710679801416480700E-014 ) ) ;
#45 = CALENDAR_DATE ( 2021, 10, 2 ) ;
#46 = ORIENTED_EDGE ( 'NONE', *, *, #177, .T. ) ;
#47 = EDGE_CURVE ( 'NONE', #117, #1, #69, .T. ) ;
#48 = CARTESIAN_POINT ( 'NONE',  ( 700.0000000000000000, 0.0000000000000000000, 0.0000000000000000000 ) ) ;
#49 = DIRECTION ( 'NONE',  ( 1.000000000000000000, 0.0000000000000000000, 0.0000000000000000000 ) ) ;
#50 = CIRCLE ( 'NONE', #215, 303.0000000000000600 ) ;
#51 = DIRECTION ( 'NONE',  ( 0.0000000000000000000, 0.0000000000000000000, 1.000000000000000000 ) ) ;
#52 = DIRECTION ( 'NONE',  ( 0.0000000000000000000, 0.0000000000000000000, 1.000000000000000000 ) ) ;
#53 = AXIS2_PLACEMENT_3D ( 'NONE', #28, #208, #148 ) ;
#54 = COORDINATED_UNIVERSAL_TIME_OFFSET ( 1, 0, .AHEAD. ) ;
#55 = CARTESIAN_POINT ( 'NONE',  ( 0.0000000000000000000, 0.0000000000000000000, 0.0000000000000000000 ) ) ;
#56 = EDGE_LOOP ( 'NONE', ( #174, #23 ) ) ;
#57 = PLANE ( 'NONE',  #89 ) ;
#58 = DATE_TIME_ROLE ( 'classification_date' ) ;
#59 = APPROVAL_STATUS ( 'not_yet_approved' ) ;
#60 = TOROIDAL_SURFACE ( 'NONE', #112, 700.0000000000000000, 300.0000000000000600 ) ;
#61 = CC_DESIGN_PERSON_AND_ORGANIZATION_ASSIGNMENT ( #180, #250, ( #172 ) ) ;
#62 = AXIS2_PLACEMENT_3D ( 'NONE', #32, #51, #76 ) ;
#63 = VERTEX_POINT ( 'NONE', #152 ) ;
#64 = ADVANCED_FACE ( 'NONE', ( #222 ), #252, .F. ) ;
#65 = AXIS2_PLACEMENT_3D ( 'NONE', #213, #80, #156 ) ;
#66 = PRODUCT_DEFINITION_SHAPE ( 'NONE', 'NONE',  #133 ) ;
#67 = FACE_OUTER_BOUND ( 'NONE', #137, .T. ) ;
#68 = APPROVAL_PERSON_ORGANIZATION ( #105, #43, #210 ) ;
#69 = CIRCLE ( 'NONE', #62, 397.0000000000000000 ) ;
#70 = ORIENTED_EDGE ( 'NONE', *, *, #14, .T. ) ;
#71 = DIRECTION ( 'NONE',  ( 1.000000000000000000, 6.123233995736766000E-017, 0.0000000000000000000 ) ) ;
#72 = DIRECTION ( 'NONE',  ( 1.000000000000000000, 0.0000000000000000000, 0.0000000000000000000 ) ) ;
#73 = DIRECTION ( 'NONE',  ( 1.000000000000000000, 6.123233995736766000E-017, -0.0000000000000000000 ) ) ;
#74 = CALENDAR_DATE ( 2021, 10, 2 ) ;
#75 = EDGE_LOOP ( 'NONE', ( #82, #88, #46, #106 ) ) ;
#76 = DIRECTION ( 'NONE',  ( 1.000000000000000000, 0.0000000000000000000, 0.0000000000000000000 ) ) ;
#77 = MECHANICAL_CONTEXT ( 'NONE', #33, 'mechanical' ) ;
#78 =( NAMED_UNIT ( * ) SI_UNIT ( $, .STERADIAN. ) SOLID_ANGLE_UNIT ( ) );
#79 = DIRECTION ( 'NONE',  ( 0.0000000000000000000, -0.0000000000000000000, 1.000000000000000000 ) ) ;
#80 = DIRECTION ( 'NONE',  ( 0.0000000000000000000, 1.000000000000000000, 0.0000000000000000000 ) ) ;
#81 =( GEOMETRIC_REPRESENTATION_CONTEXT ( 3 ) GLOBAL_UNCERTAINTY_ASSIGNED_CONTEXT ( ( #162 ) ) GLOBAL_UNIT_ASSIGNED_CONTEXT ( ( #115, #15, #78 ) ) REPRESENTATION_CONTEXT ( 'NONE', 'WORKASPACE' ) );
#82 = ORIENTED_EDGE ( 'NONE', *, *, #211, .F. ) ;
#83 = LOCAL_TIME ( 14, 11, 59.00000000000000000, #119 ) ;
#84 = EDGE_LOOP ( 'NONE', ( #140, #176, #188, #124 ) ) ;
#85 = AXIS2_PLACEMENT_3D ( 'NONE', #27, #71, #93 ) ;
#86 = PRODUCT ( 'OT214-600-606x3_OSTP', 'OT214-600-606x3_OSTP', '', ( #77 ) ) ;
#87 = CIRCLE ( 'NONE', #107, 399.9999999999998900 ) ;
#88 = ORIENTED_EDGE ( 'NONE', *, *, #41, .T. ) ;
#89 = AXIS2_PLACEMENT_3D ( 'NONE', #171, #132, #79 ) ;
#90 = DIRECTION ( 'NONE',  ( 0.0000000000000000000, 0.0000000000000000000, 1.000000000000000000 ) ) ;
#91 = DIRECTION ( 'NONE',  ( 1.000000000000000000, 0.0000000000000000000, 0.0000000000000000000 ) ) ;
#92 = CIRCLE ( 'NONE', #233, 303.0000000000000600 ) ;
#93 = DIRECTION ( 'NONE',  ( 0.0000000000000000000, 1.000000000000000000, 0.0000000000000000000 ) ) ;
#94 = ORIENTED_EDGE ( 'NONE', *, *, #14, .F. ) ;
#95 = CC_DESIGN_PERSON_AND_ORGANIZATION_ASSIGNMENT ( #165, #192, ( #86 ) ) ;
#96 = SHAPE_DEFINITION_REPRESENTATION ( #66, #225 ) ;
#97 = APPROVAL_ROLE ( '' ) ;
#98 = CIRCLE ( 'NONE', #18, 1000.000000000000000 ) ;
#99 = APPROVAL ( #59, 'UNSPECIFIED' ) ;
#100 = LOCAL_TIME ( 14, 11, 59.00000000000000000, #142 ) ;
#101 = VERTEX_POINT ( 'NONE', #169 ) ;
#102 = CC_DESIGN_APPROVAL ( #99, ( #172 ) ) ;
#103 = ADVANCED_FACE ( 'NONE', ( #146 ), #199, .T. ) ;
#104 = FACE_BOUND ( 'NONE', #56, .T. ) ;
#105 = PERSON_AND_ORGANIZATION ( #182, #245 ) ;
#106 = ORIENTED_EDGE ( 'NONE', *, *, #7, .F. ) ;
#107 = AXIS2_PLACEMENT_3D ( 'NONE', #9, #227, #91 ) ;
#108 = CARTESIAN_POINT ( 'NONE',  ( 699.9999999999998900, 700.0000000000000000, 0.0000000000000000000 ) ) ;
#109 = APPROVAL_DATE_TIME ( #230, #219 ) ;
#110 = DIRECTION ( 'NONE',  ( 1.000000000000000000, 0.0000000000000000000, 0.0000000000000000000 ) ) ;
#111 = DIRECTION ( 'NONE',  ( 0.0000000000000000000, 0.0000000000000000000, 1.000000000000000000 ) ) ;
#112 = AXIS2_PLACEMENT_3D ( 'NONE', #48, #111, #72 ) ;
#113 = DIRECTION ( 'NONE',  ( 0.0000000000000000000, 0.0000000000000000000, 1.000000000000000000 ) ) ;
#114 = EDGE_LOOP ( 'NONE', ( #17, #147 ) ) ;
#115 =( LENGTH_UNIT ( ) NAMED_UNIT ( * ) SI_UNIT ( .MILLI., .METRE. ) );
#116 = SECURITY_CLASSIFICATION ( '', '', #118 ) ;
#117 = VERTEX_POINT ( 'NONE', #153 ) ;
#118 = SECURITY_CLASSIFICATION_LEVEL ( 'unclassified' ) ;
#119 = COORDINATED_UNIVERSAL_TIME_OFFSET ( 1, 0, .AHEAD. ) ;
#120 = CIRCLE ( 'NONE', #190, 300.0000000000000600 ) ;
#121 = AXIS2_PLACEMENT_3D ( 'NONE', #108, #242, #228 ) ;
#122 = EDGE_LOOP ( 'NONE', ( #94, #193, #34, #239 ) ) ;
#123 = LOCAL_TIME ( 14, 11, 59.00000000000000000, #175 ) ;
#124 = ORIENTED_EDGE ( 'NONE', *, *, #177, .F. ) ;
#125 = VERTEX_POINT ( 'NONE', #189 ) ;
#126 = CARTESIAN_POINT ( 'NONE',  ( 300.0000000000000600, 0.0000000000000000000, -3.673940397442060100E-014 ) ) ;
#127 = CC_DESIGN_SECURITY_CLASSIFICATION ( #116, ( #172 ) ) ;
#128 = DIRECTION ( 'NONE',  ( 0.0000000000000000000, 0.0000000000000000000, 1.000000000000000000 ) ) ;
#129 = DIRECTION ( 'NONE',  ( 0.0000000000000000000, 0.0000000000000000000, 1.000000000000000000 ) ) ;
#130 = PERSON_AND_ORGANIZATION ( #182, #245 ) ;
#131 = CARTESIAN_POINT ( 'NONE',  ( 699.9999999999998900, 700.0000000000000000, 0.0000000000000000000 ) ) ;
#132 = DIRECTION ( 'NONE',  ( 0.0000000000000000000, 1.000000000000000000, 0.0000000000000000000 ) ) ;
#133 = PRODUCT_DEFINITION ( 'UNKNOWN', '', #172, #217 ) ;
#134 = DIRECTION ( 'NONE',  ( 1.000000000000000000, 0.0000000000000000000, 0.0000000000000000000 ) ) ;
#135 = PERSON_AND_ORGANIZATION_ROLE ( 'creator' ) ;
#136 = APPROVAL_PERSON_ORGANIZATION ( #163, #219, #97 ) ;
#137 = EDGE_LOOP ( 'NONE', ( #218, #197 ) ) ;
#138 = EDGE_CURVE ( 'NONE', #1, #101, #50, .T. ) ;
#139 = FACE_OUTER_BOUND ( 'NONE', #114, .T. ) ;
#140 = ORIENTED_EDGE ( 'NONE', *, *, #22, .T. ) ;
#141 = PRODUCT_RELATED_PRODUCT_CATEGORY ( 'detail', '', ( #86 ) ) ;
#142 = COORDINATED_UNIVERSAL_TIME_OFFSET ( 1, 0, .AHEAD. ) ;
#143 = ADVANCED_FACE ( 'NONE', ( #40 ), #221, .T. ) ;
#144 = CARTESIAN_POINT ( 'NONE',  ( 700.0000000000000000, 0.0000000000000000000, 0.0000000000000000000 ) ) ;
#145 = CC_DESIGN_PERSON_AND_ORGANIZATION_ASSIGNMENT ( #2, #251, ( #133 ) ) ;
#146 = FACE_OUTER_BOUND ( 'NONE', #122, .T. ) ;
#147 = ORIENTED_EDGE ( 'NONE', *, *, #204, .T. ) ;
#148 = DIRECTION ( 'NONE',  ( 1.000000000000000000, 0.0000000000000000000, 0.0000000000000000000 ) ) ;
#149 = DIRECTION ( 'NONE',  ( 1.000000000000000000, 0.0000000000000000000, 0.0000000000000000000 ) ) ;
#150 = CIRCLE ( 'NONE', #121, 303.0000000000000600 ) ;
#151 = PLANE ( 'NONE',  #39 ) ;
#152 = CARTESIAN_POINT ( 'NONE',  ( -300.0000000000000600, 0.0000000000000000000, 0.0000000000000000000 ) ) ;
#153 = CARTESIAN_POINT ( 'NONE',  ( 699.9999999999998900, 396.9999999999998900, -3.710679801416480700E-014 ) ) ;
#154 = APPLICATION_PROTOCOL_DEFINITION ( 'international standard', 'config_control_design', 1994, #33 ) ;
#155 = CIRCLE ( 'NONE', #85, 300.0000000000000600 ) ;
#156 = DIRECTION ( 'NONE',  ( 0.0000000000000000000, 0.0000000000000000000, 1.000000000000000000 ) ) ;
#157 = DATE_TIME_ROLE ( 'creation_date' ) ;
#158 = CALENDAR_DATE ( 2021, 10, 2 ) ;
#159 = APPROVAL_DATE_TIME ( #235, #99 ) ;
#160 = CIRCLE ( 'NONE', #35, 300.0000000000000600 ) ;
#161 = CC_DESIGN_DATE_AND_TIME_ASSIGNMENT ( #168, #157, ( #133 ) ) ;
#162 = UNCERTAINTY_MEASURE_WITH_UNIT (LENGTH_MEASURE( 1.000000000000000100E-005 ), #115, 'distance_accuracy_value', 'NONE');
#163 = PERSON_AND_ORGANIZATION ( #182, #245 ) ;
#164 = EDGE_CURVE ( 'NONE', #117, #5, #92, .T. ) ;
#165 = PERSON_AND_ORGANIZATION ( #182, #245 ) ;
#166 = CARTESIAN_POINT ( 'NONE',  ( 699.9999999999997700, 1003.000000000000100, 0.0000000000000000000 ) ) ;
#167 = DIRECTION ( 'NONE',  ( 0.0000000000000000000, 1.000000000000000000, 0.0000000000000000000 ) ) ;
#168 = DATE_AND_TIME ( #158, #205 ) ;
#169 = CARTESIAN_POINT ( 'NONE',  ( -303.0000000000001100, 0.0000000000000000000, 0.0000000000000000000 ) ) ;
#170 = ORIENTED_EDGE ( 'NONE', *, *, #41, .F. ) ;
#171 = CARTESIAN_POINT ( 'NONE',  ( 0.0000000000000000000, 0.0000000000000000000, 0.0000000000000000000 ) ) ;
#172 = PRODUCT_DEFINITION_FORMATION_WITH_SPECIFIED_SOURCE ( 'ANY', '', #86, .NOT_KNOWN. ) ;
#173 = APPROVAL_ROLE ( '' ) ;
#174 = ORIENTED_EDGE ( 'NONE', *, *, #25, .T. ) ;
#175 = COORDINATED_UNIVERSAL_TIME_OFFSET ( 1, 0, .AHEAD. ) ;
#176 = ORIENTED_EDGE ( 'NONE', *, *, #211, .T. ) ;
#177 = EDGE_CURVE ( 'NONE', #249, #232, #87, .T. ) ;
#178 = CIRCLE ( 'NONE', #183, 300.0000000000000600 ) ;
#179 = AXIS2_PLACEMENT_3D ( 'NONE', #231, #129, #110 ) ;
#180 = PERSON_AND_ORGANIZATION ( #182, #245 ) ;
#181 = EDGE_LOOP ( 'NONE', ( #184, #170 ) ) ;
#182 = PERSON ( 'UNSPECIFIED', 'UNSPECIFIED', 'UNSPECIFIED', ('UNSPECIFIED'), ('UNSPECIFIED'), ('UNSPECIFIED') ) ;
#183 = AXIS2_PLACEMENT_3D ( 'NONE', #6, #185, #244 ) ;
#184 = ORIENTED_EDGE ( 'NONE', *, *, #22, .F. ) ;
#185 = DIRECTION ( 'NONE',  ( 1.000000000000000000, 6.123233995736766000E-017, 0.0000000000000000000 ) ) ;
#186 = DIRECTION ( 'NONE',  ( 1.000000000000000000, 6.123233995736766000E-017, 0.0000000000000000000 ) ) ;
#187 = APPROVAL_PERSON_ORGANIZATION ( #195, #99, #173 ) ;
#188 = ORIENTED_EDGE ( 'NONE', *, *, #25, .F. ) ;
#189 = CARTESIAN_POINT ( 'NONE',  ( 700.0000000000000000, 1000.000000000000000, 0.0000000000000000000 ) ) ;
#190 = AXIS2_PLACEMENT_3D ( 'NONE', #224, #223, #240 ) ;
#191 = DIRECTION ( 'NONE',  ( 0.0000000000000000000, 0.0000000000000000000, 1.000000000000000000 ) ) ;
#192 = PERSON_AND_ORGANIZATION_ROLE ( 'design_owner' ) ;
#193 = ORIENTED_EDGE ( 'NONE', *, *, #164, .F. ) ;
#194 = AXIS2_PLACEMENT_3D ( 'NONE', #55, #191, #134 ) ;
#195 = PERSON_AND_ORGANIZATION ( #182, #245 ) ;
#196 = DATE_AND_TIME ( #45, #247 ) ;
#197 = ORIENTED_EDGE ( 'NONE', *, *, #253, .F. ) ;
#198 = CC_DESIGN_DATE_AND_TIME_ASSIGNMENT ( #20, #58, ( #116 ) ) ;
#199 = TOROIDAL_SURFACE ( 'NONE', #200, 700.0000000000000000, 303.0000000000000600 ) ;
#200 = AXIS2_PLACEMENT_3D ( 'NONE', #241, #128, #49 ) ;
#201 = ADVANCED_FACE ( 'NONE', ( #202, #139 ), #151, .T. ) ;
#202 = FACE_BOUND ( 'NONE', #181, .T. ) ;
#203 = EDGE_LOOP ( 'NONE', ( #26, #70, #38, #21 ) ) ;
#204 = EDGE_CURVE ( 'NONE', #5, #117, #150, .T. ) ;
#205 = LOCAL_TIME ( 14, 11, 59.00000000000000000, #209 ) ;
#206 = DIRECTION ( 'NONE',  ( 0.0000000000000000000, 1.000000000000000000, 0.0000000000000000000 ) ) ;
#207 = CARTESIAN_POINT ( 'NONE',  ( 700.0000000000000000, 0.0000000000000000000, 0.0000000000000000000 ) ) ;
#208 = DIRECTION ( 'NONE',  ( 0.0000000000000000000, 0.0000000000000000000, 1.000000000000000000 ) ) ;
#209 = COORDINATED_UNIVERSAL_TIME_OFFSET ( 1, 0, .AHEAD. ) ;
#210 = APPROVAL_ROLE ( '' ) ;
#211 = EDGE_CURVE ( 'NONE', #125, #63, #98, .T. ) ;
#212 = APPLICATION_CONTEXT ( 'configuration controlled 3d designs of mechanical parts and assemblies' ) ;
#213 = CARTESIAN_POINT ( 'NONE',  ( 0.0000000000000000000, 0.0000000000000000000, 0.0000000000000000000 ) ) ;
#214 = PERSON_AND_ORGANIZATION_ROLE ( 'classification_officer' ) ;
#215 = AXIS2_PLACEMENT_3D ( 'NONE', #10, #167, #90 ) ;
#216 = ADVANCED_FACE ( 'NONE', ( #37 ), #60, .F. ) ;
#217 = DESIGN_CONTEXT ( 'detailed design', #212, 'design' ) ;
#218 = ORIENTED_EDGE ( 'NONE', *, *, #138, .F. ) ;
#219 = APPROVAL ( #248, 'UNSPECIFIED' ) ;
#220 = ADVANCED_FACE ( 'NONE', ( #104, #67 ), #57, .F. ) ;
#221 = TOROIDAL_SURFACE ( 'NONE', #53, 700.0000000000000000, 303.0000000000000600 ) ;
#222 = FACE_OUTER_BOUND ( 'NONE', #84, .T. ) ;
#223 = DIRECTION ( 'NONE',  ( 0.0000000000000000000, 1.000000000000000000, 0.0000000000000000000 ) ) ;
#224 = CARTESIAN_POINT ( 'NONE',  ( 0.0000000000000000000, 0.0000000000000000000, 0.0000000000000000000 ) ) ;
#225 = ADVANCED_BREP_SHAPE_REPRESENTATION ( 'OT214-600-606x3_OSTP', ( #238, #194 ), #81 ) ;
#226 = CC_DESIGN_APPROVAL ( #43, ( #116 ) ) ;
#227 = DIRECTION ( 'NONE',  ( 0.0000000000000000000, 0.0000000000000000000, 1.000000000000000000 ) ) ;
#228 = DIRECTION ( 'NONE',  ( 0.0000000000000000000, 0.0000000000000000000, 1.000000000000000000 ) ) ;
#229 = CARTESIAN_POINT ( 'NONE',  ( 699.9999999999998900, 700.0000000000000000, 0.0000000000000000000 ) ) ;
#230 = DATE_AND_TIME ( #4, #100 ) ;
#231 = CARTESIAN_POINT ( 'NONE',  ( 700.0000000000000000, 0.0000000000000000000, 0.0000000000000000000 ) ) ;
#232 = VERTEX_POINT ( 'NONE', #126 ) ;
#233 = AXIS2_PLACEMENT_3D ( 'NONE', #229, #186, #113 ) ;
#234 = APPLICATION_PROTOCOL_DEFINITION ( 'international standard', 'config_control_design', 1994, #212 ) ;
#235 = DATE_AND_TIME ( #30, #83 ) ;
#236 = CIRCLE ( 'NONE', #3, 1003.000000000000100 ) ;
#237 = DIRECTION ( 'NONE',  ( 1.000000000000000000, 0.0000000000000000000, 0.0000000000000000000 ) ) ;
#238 = MANIFOLD_SOLID_BREP ( 'cut-body', #13 ) ;
#239 = ORIENTED_EDGE ( 'NONE', *, *, #138, .T. ) ;
#240 = DIRECTION ( 'NONE',  ( 0.0000000000000000000, 0.0000000000000000000, 1.000000000000000000 ) ) ;
#241 = CARTESIAN_POINT ( 'NONE',  ( 700.0000000000000000, 0.0000000000000000000, 0.0000000000000000000 ) ) ;
#242 = DIRECTION ( 'NONE',  ( 1.000000000000000000, 6.123233995736766000E-017, 0.0000000000000000000 ) ) ;
#243 = CC_DESIGN_APPROVAL ( #219, ( #133 ) ) ;
#244 = DIRECTION ( 'NONE',  ( 0.0000000000000000000, 1.000000000000000000, 0.0000000000000000000 ) ) ;
#245 = ORGANIZATION ( 'UNSPECIFIED', 'UNSPECIFIED', '' ) ;
#246 = CARTESIAN_POINT ( 'NONE',  ( 0.0000000000000000000, 0.0000000000000000000, 0.0000000000000000000 ) ) ;
#247 = LOCAL_TIME ( 14, 11, 59.00000000000000000, #54 ) ;
#248 = APPROVAL_STATUS ( 'not_yet_approved' ) ;
#249 = VERTEX_POINT ( 'NONE', #36 ) ;
#250 = PERSON_AND_ORGANIZATION_ROLE ( 'design_supplier' ) ;
#251 = PERSON_AND_ORGANIZATION_ROLE ( 'creator' ) ;
#252 = TOROIDAL_SURFACE ( 'NONE', #179, 700.0000000000000000, 300.0000000000000600 ) ;
#253 = EDGE_CURVE ( 'NONE', #101, #1, #42, .T. ) ;
ENDSEC;
END-ISO-10303-21;
