ISO-10303-21;
HEADER;
FILE_DESCRIPTION (( 'STEP AP203' ),
    '1' );
FILE_NAME ('3D_R169_ DN38-30_17323188.STEP',
    '2024-07-17T12:14:11',
    ( '' ),
    ( '' ),
    'SwSTEP 2.0',
    'SolidWorks 2024',
    '' );
FILE_SCHEMA (( 'CONFIG_CONTROL_DESIGN' ));
ENDSEC;

DATA;
#1 = CARTESIAN_POINT ( 'NONE',  ( 23.67120202538928808, 0.000000000000000000, 0.000000000000000000 ) ) ;
#2 = DIRECTION ( 'NONE',  ( 0.000000000000000000, 0.000000000000000000, -1.000000000000000000 ) ) ;
#3 = CONICAL_SURFACE ( 'NONE', #149, 13.02721215233571073, 0.1651486774146267988 ) ;
#4 = LINE ( 'NONE', #136, #247 ) ;
#5 = AXIS2_PLACEMENT_3D ( 'NONE', #14, #89, #167 ) ;
#6 = ADVANCED_FACE ( 'NONE', ( #13 ), #29, .T. ) ;
#7 = COORDINATED_UNIVERSAL_TIME_OFFSET ( 1, 0, .AHEAD. ) ;
#8 = APPLICATION_CONTEXT ( 'configuration controlled 3d designs of mechanical parts and assemblies' ) ;
#9 = DATE_TIME_ROLE ( 'classification_date' ) ;
#10 = APPROVAL_ROLE ( '' ) ;
#11 = AXIS2_PLACEMENT_3D ( 'NONE', #18, #188, #190 ) ;
#12 = LOCAL_TIME ( 14, 14, 11.00000000000000000, #25 ) ;
#13 = FACE_OUTER_BOUND ( 'NONE', #102, .T. ) ;
#14 = CARTESIAN_POINT ( 'NONE',  ( 24.00000000000000000, 0.000000000000000000, 0.000000000000000000 ) ) ;
#15 = EDGE_CURVE ( 'NONE', #186, #82, #70, .T. ) ;
#16 = DIRECTION ( 'NONE',  ( 1.000000000000000000, 0.000000000000000000, 0.000000000000000000 ) ) ;
#17 = EDGE_LOOP ( 'NONE', ( #53, #34, #47, #242 ) ) ;
#18 = CARTESIAN_POINT ( 'NONE',  ( 24.00000000000000000, 0.000000000000000000, 0.000000000000000000 ) ) ;
#19 = APPLICATION_CONTEXT ( 'configuration controlled 3d designs of mechanical parts and assemblies' ) ;
#20 = FACE_OUTER_BOUND ( 'NONE', #163, .T. ) ;
#21 = LINE ( 'NONE', #171, #115 ) ;
#22 = AXIS2_PLACEMENT_3D ( 'NONE', #43, #65, #123 ) ;
#23 = CARTESIAN_POINT ( 'NONE',  ( 23.67120202538928808, 0.000000000000000000, 0.000000000000000000 ) ) ;
#24 = ADVANCED_FACE ( 'NONE', ( #148, #152 ), #221, .F. ) ;
#25 = COORDINATED_UNIVERSAL_TIME_OFFSET ( 1, 0, .AHEAD. ) ;
#26 = ADVANCED_FACE ( 'NONE', ( #126, #72 ), #91, .T. ) ;
#27 = CC_DESIGN_APPROVAL ( #118, ( #35 ) ) ;
#28 = PERSON_AND_ORGANIZATION ( #226, #116 ) ;
#29 = CONICAL_SURFACE ( 'NONE', #207, 15.00000000000000000, 0.1651486774146267988 ) ;
#30 = DIRECTION ( 'NONE',  ( 1.000000000000000000, 0.000000000000000000, 0.000000000000000000 ) ) ;
#31 = DATE_TIME_ROLE ( 'creation_date' ) ;
#32 = ORIENTED_EDGE ( 'NONE', *, *, #217, .F. ) ;
#33 = VECTOR ( 'NONE', #157, 1000.000000000000000 ) ;
#34 = ORIENTED_EDGE ( 'NONE', *, *, #122, .T. ) ;
#35 = PRODUCT_DEFINITION ( 'UNKNOWN', '', #172, #38 ) ;
#36 = DIRECTION ( 'NONE',  ( 0.000000000000000000, 0.000000000000000000, -1.000000000000000000 ) ) ;
#37 = CARTESIAN_POINT ( 'NONE',  ( 0.000000000000000000, 0.000000000000000000, 0.000000000000000000 ) ) ;
#38 = DESIGN_CONTEXT ( 'detailed design', #19, 'design' ) ;
#39 = DIRECTION ( 'NONE',  ( -1.000000000000000000, -0.000000000000000000, -0.000000000000000000 ) ) ;
#40 = CONICAL_SURFACE ( 'NONE', #179, 13.02721215233571073, 0.1651486774146267988 ) ;
#41 = EDGE_CURVE ( 'NONE', #198, #243, #187, .T. ) ;
#42 = EDGE_CURVE ( 'NONE', #99, #237, #222, .T. ) ;
#43 = CARTESIAN_POINT ( 'NONE',  ( 24.00000000000000000, 0.000000000000000000, 0.000000000000000000 ) ) ;
#44 = PERSON_AND_ORGANIZATION ( #226, #116 ) ;
#45 =( GEOMETRIC_REPRESENTATION_CONTEXT ( 3 ) GLOBAL_UNCERTAINTY_ASSIGNED_CONTEXT ( ( #76 ) ) GLOBAL_UNIT_ASSIGNED_CONTEXT ( ( #46, #215, #214 ) ) REPRESENTATION_CONTEXT ( 'NONE', 'WORKASPACE' ) );
#46 =( LENGTH_UNIT ( ) NAMED_UNIT ( * ) SI_UNIT ( .MILLI., .METRE. ) );
#47 = ORIENTED_EDGE ( 'NONE', *, *, #59, .F. ) ;
#48 = PERSON_AND_ORGANIZATION ( #226, #116 ) ;
#49 = SECURITY_CLASSIFICATION_LEVEL ( 'unclassified' ) ;
#50 = APPROVAL ( #178, 'UNSPECIFIED' ) ;
#51 = ORIENTED_EDGE ( 'NONE', *, *, #41, .F. ) ;
#52 = CIRCLE ( 'NONE', #83, 15.00000000000000000 ) ;
#53 = ORIENTED_EDGE ( 'NONE', *, *, #41, .T. ) ;
#54 = ORIENTED_EDGE ( 'NONE', *, *, #132, .F. ) ;
#55 = DIRECTION ( 'NONE',  ( 0.000000000000000000, 0.000000000000000000, 1.000000000000000000 ) ) ;
#56 = DIRECTION ( 'NONE',  ( 1.000000000000000000, 0.000000000000000000, 0.000000000000000000 ) ) ;
#57 = CARTESIAN_POINT ( 'NONE',  ( 23.67120202538928808, 1.595373366417143171E-15, -13.02721215233571073 ) ) ;
#58 = DIRECTION ( 'NONE',  ( 0.000000000000000000, 0.000000000000000000, -1.000000000000000000 ) ) ;
#59 = EDGE_CURVE ( 'NONE', #237, #99, #238, .T. ) ;
#60 = CARTESIAN_POINT ( 'NONE',  ( 0.000000000000000000, 2.078521062956531856E-15, -16.97241248990059148 ) ) ;
#61 = DATE_AND_TIME ( #175, #12 ) ;
#62 = CALENDAR_DATE ( 2024, 17, 7 ) ;
#63 = ORIENTED_EDGE ( 'NONE', *, *, #249, .F. ) ;
#64 = APPROVAL_PERSON_ORGANIZATION ( #28, #196, #176 ) ;
#65 = DIRECTION ( 'NONE',  ( 1.000000000000000000, 0.000000000000000000, 0.000000000000000000 ) ) ;
#66 = CALENDAR_DATE ( 2024, 17, 7 ) ;
#67 = APPROVAL_STATUS ( 'not_yet_approved' ) ;
#68 = CC_DESIGN_PERSON_AND_ORGANIZATION_ASSIGNMENT ( #44, #193, ( #35 ) ) ;
#69 = ORIENTED_EDGE ( 'NONE', *, *, #249, .T. ) ;
#70 = CIRCLE ( 'NONE', #231, 15.00000000000000000 ) ;
#71 = AXIS2_PLACEMENT_3D ( 'NONE', #37, #90, #209 ) ;
#72 = FACE_OUTER_BOUND ( 'NONE', #181, .T. ) ;
#73 = ORIENTED_EDGE ( 'NONE', *, *, #77, .T. ) ;
#74 = LOCAL_TIME ( 14, 14, 11.00000000000000000, #81 ) ;
#75 = CARTESIAN_POINT ( 'NONE',  ( 0.000000000000000000, 3.490243377569956456E-15, -19.00000000000000000 ) ) ;
#76 = UNCERTAINTY_MEASURE_WITH_UNIT (LENGTH_MEASURE( 1.000000000000000082E-05 ), #46, 'distance_accuracy_value', 'NONE');
#77 = EDGE_CURVE ( 'NONE', #133, #223, #211, .T. ) ;
#78 = LINE ( 'NONE', #174, #33 ) ;
#79 = DIRECTION ( 'NONE',  ( 0.000000000000000000, 0.000000000000000000, 1.000000000000000000 ) ) ;
#80 = ORIENTED_EDGE ( 'NONE', *, *, #165, .F. ) ;
#81 = COORDINATED_UNIVERSAL_TIME_OFFSET ( 1, 0, .AHEAD. ) ;
#82 = VERTEX_POINT ( 'NONE', #114 ) ;
#83 = AXIS2_PLACEMENT_3D ( 'NONE', #169, #56, #58 ) ;
#84 = MECHANICAL_CONTEXT ( 'NONE', #8, 'mechanical' ) ;
#85 = EDGE_CURVE ( 'NONE', #82, #186, #52, .T. ) ;
#86 = ORIENTED_EDGE ( 'NONE', *, *, #197, .T. ) ;
#87 = CLOSED_SHELL ( 'NONE', ( #166, #6, #26, #24, #112, #158 ) ) ;
#88 = DIRECTION ( 'NONE',  ( 0.000000000000000000, 0.000000000000000000, 1.000000000000000000 ) ) ;
#89 = DIRECTION ( 'NONE',  ( 1.000000000000000000, 0.000000000000000000, 0.000000000000000000 ) ) ;
#90 = DIRECTION ( 'NONE',  ( 1.000000000000000000, 0.000000000000000000, 0.000000000000000000 ) ) ;
#91 = PLANE ( 'NONE',  #155 ) ;
#92 = CC_DESIGN_PERSON_AND_ORGANIZATION_ASSIGNMENT ( #159, #100, ( #172 ) ) ;
#93 = DIRECTION ( 'NONE',  ( 0.000000000000000000, 0.000000000000000000, 1.000000000000000000 ) ) ;
#94 = CC_DESIGN_APPROVAL ( #50, ( #172 ) ) ;
#95 = DIRECTION ( 'NONE',  ( 1.000000000000000000, 0.000000000000000000, 0.000000000000000000 ) ) ;
#96 = CIRCLE ( 'NONE', #22, 12.97241248990059148 ) ;
#97 = DIRECTION ( 'NONE',  ( -0.9863939238321437486, 0.000000000000000000, 0.1643989873053572914 ) ) ;
#98 = PERSON_AND_ORGANIZATION ( #226, #116 ) ;
#99 = VERTEX_POINT ( 'NONE', #60 ) ;
#100 = PERSON_AND_ORGANIZATION_ROLE ( 'creator' ) ;
#101 = PERSON_AND_ORGANIZATION ( #226, #116 ) ;
#102 = EDGE_LOOP ( 'NONE', ( #108, #177, #146, #54 ) ) ;
#103 = SHAPE_DEFINITION_REPRESENTATION ( #147, #138 ) ;
#104 = ORIENTED_EDGE ( 'NONE', *, *, #42, .F. ) ;
#105 = AXIS2_PLACEMENT_3D ( 'NONE', #239, #79, #30 ) ;
#106 = ORIENTED_EDGE ( 'NONE', *, *, #132, .T. ) ;
#107 = VECTOR ( 'NONE', #227, 1000.000000000000000 ) ;
#108 = ORIENTED_EDGE ( 'NONE', *, *, #15, .F. ) ;
#109 = APPROVAL_DATE_TIME ( #244, #196 ) ;
#110 = DIRECTION ( 'NONE',  ( 0.000000000000000000, 0.000000000000000000, -1.000000000000000000 ) ) ;
#111 = CC_DESIGN_PERSON_AND_ORGANIZATION_ASSIGNMENT ( #48, #216, ( #128 ) ) ;
#112 = ADVANCED_FACE ( 'NONE', ( #20 ), #130, .T. ) ;
#113 = CARTESIAN_POINT ( 'NONE',  ( 24.00000000000000000, 0.000000000000000000, 0.000000000000000000 ) ) ;
#114 = CARTESIAN_POINT ( 'NONE',  ( 24.00000000000000000, 9.184850993605147944E-16, 15.00000000000000000 ) ) ;
#115 = VECTOR ( 'NONE', #97, 1000.000000000000000 ) ;
#116 = ORGANIZATION ( 'UNSPECIFIED', 'UNSPECIFIED', '' ) ;
#117 = DATE_AND_TIME ( #218, #199 ) ;
#118 = APPROVAL ( #67, 'UNSPECIFIED' ) ;
#119 = APPROVAL_DATE_TIME ( #143, #118 ) ;
#120 = AXIS2_PLACEMENT_3D ( 'NONE', #135, #16, #245 ) ;
#121 = COORDINATED_UNIVERSAL_TIME_OFFSET ( 1, 0, .AHEAD. ) ;
#122 = EDGE_CURVE ( 'NONE', #243, #99, #233, .T. ) ;
#123 = DIRECTION ( 'NONE',  ( 0.000000000000000000, 0.000000000000000000, -1.000000000000000000 ) ) ;
#124 = PERSON_AND_ORGANIZATION_ROLE ( 'classification_officer' ) ;
#125 = ORIENTED_EDGE ( 'NONE', *, *, #59, .T. ) ;
#126 = FACE_BOUND ( 'NONE', #170, .T. ) ;
#127 = CC_DESIGN_APPROVAL ( #196, ( #236 ) ) ;
#128 = PRODUCT ( '3D_R169_ DN38-30_17323188', '3D_R169_ DN38-30_17323188', '', ( #84 ) ) ;
#129 = CARTESIAN_POINT ( 'NONE',  ( 24.00000000000000000, 0.000000000000000000, 0.000000000000000000 ) ) ;
#130 = CONICAL_SURFACE ( 'NONE', #11, 15.00000000000000000, 0.1651486774146267988 ) ;
#131 = CARTESIAN_POINT ( 'NONE',  ( 24.00000000000000000, 0.000000000000000000, 0.000000000000000000 ) ) ;
#132 = EDGE_CURVE ( 'NONE', #82, #133, #21, .T. ) ;
#133 = VERTEX_POINT ( 'NONE', #154 ) ;
#134 = CARTESIAN_POINT ( 'NONE',  ( 0.000000000000000000, 0.000000000000000000, 0.000000000000000000 ) ) ;
#135 = CARTESIAN_POINT ( 'NONE',  ( 0.000000000000000000, 0.000000000000000000, 0.000000000000000000 ) ) ;
#136 = CARTESIAN_POINT ( 'NONE',  ( 24.00000000000000000, 1.836970198721029589E-15, -15.00000000000000000 ) ) ;
#137 = FACE_OUTER_BOUND ( 'NONE', #235, .T. ) ;
#138 = ADVANCED_BREP_SHAPE_REPRESENTATION ( '3D_R169_ DN38-30_17323188', ( #203, #105 ), #45 ) ;
#139 = APPROVAL_STATUS ( 'not_yet_approved' ) ;
#140 = APPROVAL_PERSON_ORGANIZATION ( #141, #118, #144 ) ;
#141 = PERSON_AND_ORGANIZATION ( #226, #116 ) ;
#142 = ORIENTED_EDGE ( 'NONE', *, *, #42, .T. ) ;
#143 = DATE_AND_TIME ( #66, #229 ) ;
#144 = APPROVAL_ROLE ( '' ) ;
#145 = ORIENTED_EDGE ( 'NONE', *, *, #85, .F. ) ;
#146 = ORIENTED_EDGE ( 'NONE', *, *, #217, .T. ) ;
#147 = PRODUCT_DEFINITION_SHAPE ( 'NONE', 'NONE',  #35 ) ;
#148 = FACE_BOUND ( 'NONE', #194, .T. ) ;
#149 = AXIS2_PLACEMENT_3D ( 'NONE', #23, #208, #93 ) ;
#150 = CC_DESIGN_DATE_AND_TIME_ASSIGNMENT ( #117, #31, ( #35 ) ) ;
#151 = CARTESIAN_POINT ( 'NONE',  ( 0.000000000000000000, 0.000000000000000000, 0.000000000000000000 ) ) ;
#152 = FACE_OUTER_BOUND ( 'NONE', #246, .T. ) ;
#153 = LOCAL_TIME ( 14, 14, 11.00000000000000000, #7 ) ;
#154 = CARTESIAN_POINT ( 'NONE',  ( 0.000000000000000000, -1.163414459189985485E-15, 19.00000000000000000 ) ) ;
#155 = AXIS2_PLACEMENT_3D ( 'NONE', #129, #200, #185 ) ;
#156 = DIRECTION ( 'NONE',  ( -0.9863939238321437486, 2.013306935865721687E-17, -0.1643989873053572914 ) ) ;
#157 = DIRECTION ( 'NONE',  ( -0.9863939238321437486, 0.000000000000000000, 0.1643989873053572914 ) ) ;
#158 = ADVANCED_FACE ( 'NONE', ( #137 ), #3, .F. ) ;
#159 = PERSON_AND_ORGANIZATION ( #226, #116 ) ;
#160 = COORDINATED_UNIVERSAL_TIME_OFFSET ( 1, 0, .AHEAD. ) ;
#161 = AXIS2_PLACEMENT_3D ( 'NONE', #168, #224, #205 ) ;
#162 = PERSON_AND_ORGANIZATION ( #226, #116 ) ;
#163 = EDGE_LOOP ( 'NONE', ( #80, #145, #106, #73 ) ) ;
#164 = APPROVAL_PERSON_ORGANIZATION ( #101, #50, #10 ) ;
#165 = EDGE_CURVE ( 'NONE', #186, #223, #4, .T. ) ;
#166 = ADVANCED_FACE ( 'NONE', ( #210 ), #40, .F. ) ;
#167 = DIRECTION ( 'NONE',  ( 0.000000000000000000, 0.000000000000000000, -1.000000000000000000 ) ) ;
#168 = CARTESIAN_POINT ( 'NONE',  ( 0.000000000000000000, 0.000000000000000000, 0.000000000000000000 ) ) ;
#169 = CARTESIAN_POINT ( 'NONE',  ( 24.00000000000000000, 0.000000000000000000, 0.000000000000000000 ) ) ;
#170 = EDGE_LOOP ( 'NONE', ( #51, #63 ) ) ;
#171 = CARTESIAN_POINT ( 'NONE',  ( 24.00000000000000000, 0.000000000000000000, 15.00000000000000000 ) ) ;
#172 = PRODUCT_DEFINITION_FORMATION_WITH_SPECIFIED_SOURCE ( 'ANY', '', #128, .NOT_KNOWN. ) ;
#173 = CIRCLE ( 'NONE', #201, 19.00000000000000000 ) ;
#174 = CARTESIAN_POINT ( 'NONE',  ( 23.67120202538928808, 0.000000000000000000, 13.02721215233571073 ) ) ;
#175 = CALENDAR_DATE ( 2024, 17, 7 ) ;
#176 = APPROVAL_ROLE ( '' ) ;
#177 = ORIENTED_EDGE ( 'NONE', *, *, #165, .T. ) ;
#178 = APPROVAL_STATUS ( 'not_yet_approved' ) ;
#179 = AXIS2_PLACEMENT_3D ( 'NONE', #1, #39, #55 ) ;
#180 = APPROVAL_DATE_TIME ( #195, #50 ) ;
#181 = EDGE_LOOP ( 'NONE', ( #248, #184 ) ) ;
#182 = PRODUCT_RELATED_PRODUCT_CATEGORY ( 'detail', '', ( #128 ) ) ;
#183 = CC_DESIGN_SECURITY_CLASSIFICATION ( #236, ( #172 ) ) ;
#184 = ORIENTED_EDGE ( 'NONE', *, *, #15, .T. ) ;
#185 = DIRECTION ( 'NONE',  ( 0.000000000000000000, 0.000000000000000000, -1.000000000000000000 ) ) ;
#186 = VERTEX_POINT ( 'NONE', #232 ) ;
#187 = CIRCLE ( 'NONE', #5, 12.97241248990059148 ) ;
#188 = DIRECTION ( 'NONE',  ( -1.000000000000000000, -0.000000000000000000, -0.000000000000000000 ) ) ;
#189 = AXIS2_PLACEMENT_3D ( 'NONE', #151, #204, #36 ) ;
#190 = DIRECTION ( 'NONE',  ( 0.000000000000000000, 0.000000000000000000, 1.000000000000000000 ) ) ;
#191 = APPLICATION_PROTOCOL_DEFINITION ( 'international standard', 'config_control_design', 1994, #19 ) ;
#192 = CALENDAR_DATE ( 2024, 17, 7 ) ;
#193 = PERSON_AND_ORGANIZATION_ROLE ( 'creator' ) ;
#194 = EDGE_LOOP ( 'NONE', ( #125, #142 ) ) ;
#195 = DATE_AND_TIME ( #192, #74 ) ;
#196 = APPROVAL ( #139, 'UNSPECIFIED' ) ;
#197 = EDGE_CURVE ( 'NONE', #198, #237, #78, .T. ) ;
#198 = VERTEX_POINT ( 'NONE', #230 ) ;
#199 = LOCAL_TIME ( 14, 14, 11.00000000000000000, #121 ) ;
#200 = DIRECTION ( 'NONE',  ( 1.000000000000000000, 0.000000000000000000, 0.000000000000000000 ) ) ;
#201 = AXIS2_PLACEMENT_3D ( 'NONE', #134, #95, #2 ) ;
#202 = DIRECTION ( 'NONE',  ( -1.000000000000000000, -0.000000000000000000, -0.000000000000000000 ) ) ;
#203 = MANIFOLD_SOLID_BREP ( 'Wandung2', #87 ) ;
#204 = DIRECTION ( 'NONE',  ( 1.000000000000000000, 0.000000000000000000, 0.000000000000000000 ) ) ;
#205 = DIRECTION ( 'NONE',  ( 0.000000000000000000, 0.000000000000000000, -1.000000000000000000 ) ) ;
#206 = CC_DESIGN_PERSON_AND_ORGANIZATION_ASSIGNMENT ( #162, #241, ( #172 ) ) ;
#207 = AXIS2_PLACEMENT_3D ( 'NONE', #113, #202, #88 ) ;
#208 = DIRECTION ( 'NONE',  ( -1.000000000000000000, -0.000000000000000000, -0.000000000000000000 ) ) ;
#209 = DIRECTION ( 'NONE',  ( 0.000000000000000000, 0.000000000000000000, -1.000000000000000000 ) ) ;
#210 = FACE_OUTER_BOUND ( 'NONE', #17, .T. ) ;
#211 = CIRCLE ( 'NONE', #71, 19.00000000000000000 ) ;
#212 = CARTESIAN_POINT ( 'NONE',  ( 24.00000000000000000, 1.833591703127061560E-15, -12.97241248990059148 ) ) ;
#213 = APPLICATION_PROTOCOL_DEFINITION ( 'international standard', 'config_control_design', 1994, #8 ) ;
#214 =( NAMED_UNIT ( * ) SI_UNIT ( $, .STERADIAN. ) SOLID_ANGLE_UNIT ( ) );
#215 =( NAMED_UNIT ( * ) PLANE_ANGLE_UNIT ( ) SI_UNIT ( $, .RADIAN. ) );
#216 = PERSON_AND_ORGANIZATION_ROLE ( 'design_owner' ) ;
#217 = EDGE_CURVE ( 'NONE', #223, #133, #173, .T. ) ;
#218 = CALENDAR_DATE ( 2024, 17, 7 ) ;
#219 = ORIENTED_EDGE ( 'NONE', *, *, #77, .F. ) ;
#220 = ORIENTED_EDGE ( 'NONE', *, *, #122, .F. ) ;
#221 = PLANE ( 'NONE',  #120 ) ;
#222 = CIRCLE ( 'NONE', #189, 16.97241248990059148 ) ;
#223 = VERTEX_POINT ( 'NONE', #75 ) ;
#224 = DIRECTION ( 'NONE',  ( 1.000000000000000000, 0.000000000000000000, 0.000000000000000000 ) ) ;
#225 = CC_DESIGN_DATE_AND_TIME_ASSIGNMENT ( #61, #9, ( #236 ) ) ;
#226 = PERSON ( 'UNSPECIFIED', 'UNSPECIFIED', 'UNSPECIFIED', ('UNSPECIFIED'), ('UNSPECIFIED'), ('UNSPECIFIED') ) ;
#227 = DIRECTION ( 'NONE',  ( -0.9863939238321437486, 2.013306935865721687E-17, -0.1643989873053572914 ) ) ;
#228 = DIRECTION ( 'NONE',  ( 1.000000000000000000, 0.000000000000000000, 0.000000000000000000 ) ) ;
#229 = LOCAL_TIME ( 14, 14, 11.00000000000000000, #160 ) ;
#230 = CARTESIAN_POINT ( 'NONE',  ( 24.00000000000000000, 0.000000000000000000, 12.97241248990059148 ) ) ;
#231 = AXIS2_PLACEMENT_3D ( 'NONE', #131, #228, #110 ) ;
#232 = CARTESIAN_POINT ( 'NONE',  ( 24.00000000000000000, 9.184850993605147944E-16, -15.00000000000000000 ) ) ;
#233 = LINE ( 'NONE', #57, #107 ) ;
#234 = CARTESIAN_POINT ( 'NONE',  ( 0.000000000000000000, 0.000000000000000000, 16.97241248990059148 ) ) ;
#235 = EDGE_LOOP ( 'NONE', ( #220, #69, #86, #104 ) ) ;
#236 = SECURITY_CLASSIFICATION ( '', '', #49 ) ;
#237 = VERTEX_POINT ( 'NONE', #234 ) ;
#238 = CIRCLE ( 'NONE', #161, 16.97241248990059148 ) ;
#239 = CARTESIAN_POINT ( 'NONE',  ( 0.000000000000000000, 0.000000000000000000, 0.000000000000000000 ) ) ;
#240 = CC_DESIGN_PERSON_AND_ORGANIZATION_ASSIGNMENT ( #98, #124, ( #236 ) ) ;
#241 = PERSON_AND_ORGANIZATION_ROLE ( 'design_supplier' ) ;
#242 = ORIENTED_EDGE ( 'NONE', *, *, #197, .F. ) ;
#243 = VERTEX_POINT ( 'NONE', #212 ) ;
#244 = DATE_AND_TIME ( #62, #153 ) ;
#245 = DIRECTION ( 'NONE',  ( 0.000000000000000000, 0.000000000000000000, -1.000000000000000000 ) ) ;
#246 = EDGE_LOOP ( 'NONE', ( #219, #32 ) ) ;
#247 = VECTOR ( 'NONE', #156, 1000.000000000000000 ) ;
#248 = ORIENTED_EDGE ( 'NONE', *, *, #85, .T. ) ;
#249 = EDGE_CURVE ( 'NONE', #243, #198, #96, .T. ) ;
ENDSEC;
END-ISO-10303-21;
