ISO-10303-21;
HEADER;
FILE_DESCRIPTION (( 'STEP AP203' ),
    '1' );
FILE_NAME ('19-0402-55_outokumpu.step',
    '2015-08-11T09:26:26',
    ( '' ),
    ( '' ),
    'SwSTEP 2.0',
    'SolidWorks 2008',
    '' );
FILE_SCHEMA (( 'CONFIG_CONTROL_DESIGN' ));
ENDSEC;

DATA;
#1 = CARTESIAN_POINT ( 'NONE',  ( -13.22049999999999800, 1.647259032863947300E-015, -0.4616700330655557600 ) ) ;
#2 = DIRECTION ( 'NONE',  ( 1.000000000000000000, 0.0000000000000000000, 0.0000000000000000000 ) ) ;
#3 = DIRECTION ( 'NONE',  ( -0.0000000000000000000, -0.0000000000000000000, 1.000000000000000000 ) ) ;
#4 = CARTESIAN_POINT ( 'NONE',  ( 0.0000000000000000000, 0.0000000000000000000, -0.4616700330655557600 ) ) ;
#5 = AXIS2_PLACEMENT_3D ( 'NONE', #4, #3, #2 ) ;
#6 = CIRCLE ( 'NONE', #5, 13.22049999999999800 ) ;
#7 = DIRECTION ( 'NONE',  ( 1.000000000000000000, 0.0000000000000000000, 0.0000000000000000000 ) ) ;
#8 = DIRECTION ( 'NONE',  ( -0.0000000000000000000, -0.0000000000000000000, 1.000000000000000000 ) ) ;
#9 = AXIS2_PLACEMENT_3D ( 'NONE', #11, #8, #7 ) ;
#10 = CONICAL_SURFACE ( 'NONE', #9, 13.22049999999999800, 0.7853981633974528300 ) ;
#11 = CARTESIAN_POINT ( 'NONE',  ( 0.0000000000000000000, 0.0000000000000000000, -0.4616700330655557600 ) ) ;
#12 = DIRECTION ( 'NONE',  ( 1.000000000000000000, 0.0000000000000000000, 0.0000000000000000000 ) ) ;
#13 = DIRECTION ( 'NONE',  ( -0.0000000000000000000, -0.0000000000000000000, 1.000000000000000000 ) ) ;
#14 = CARTESIAN_POINT ( 'NONE',  ( 0.0000000000000000000, 0.0000000000000000000, -59.53832996693434200 ) ) ;
#15 = AXIS2_PLACEMENT_3D ( 'NONE', #14, #13, #12 ) ;
#16 = CIRCLE ( 'NONE', #15, 13.22049999999999900 ) ;
#17 = FACE_OUTER_BOUND ( 'NONE', #136, .T. ) ;
#18 = DIRECTION ( 'NONE',  ( -1.000000000000000000, 0.0000000000000000000, 0.0000000000000000000 ) ) ;
#19 = DIRECTION ( 'NONE',  ( 0.0000000000000000000, 0.0000000000000000000, -1.000000000000000000 ) ) ;
#20 = AXIS2_PLACEMENT_3D ( 'NONE', #22, #19, #18 ) ;
#21 = CONICAL_SURFACE ( 'NONE', #20, 13.68217003306566300, 0.7853981633974538300 ) ;
#22 = CARTESIAN_POINT ( 'NONE',  ( 0.0000000000000000000, 0.0000000000000000000, -60.00000000000000000 ) ) ;
#23 = DIRECTION ( 'NONE',  ( 1.000000000000000000, 0.0000000000000000000, 0.0000000000000000000 ) ) ;
#24 = DIRECTION ( 'NONE',  ( -0.0000000000000000000, -0.0000000000000000000, 1.000000000000000000 ) ) ;
#25 = CARTESIAN_POINT ( 'NONE',  ( 0.0000000000000000000, 0.0000000000000000000, -60.00000000000000000 ) ) ;
#26 = AXIS2_PLACEMENT_3D ( 'NONE', #25, #24, #23 ) ;
#27 = FACE_OUTER_BOUND ( 'NONE', #31, .T. ) ;
#28 = EDGE_CURVE ( 'NONE', #29, #129, #145, .T. ) ;
#29 = VERTEX_POINT ( 'NONE', #141 ) ;
#30 = EDGE_CURVE ( 'NONE', #171, #170, #140, .T. ) ;
#31 = EDGE_LOOP ( 'NONE', ( #34, #139, #123, #126, #134 ) ) ;
#32 = MANIFOLD_SOLID_BREP ( 'NONE', #148 ) ;
#33 = ADVANCED_FACE ( 'NONE', ( #27 ), #21, .F. ) ;
#34 = ORIENTED_EDGE ( 'NONE', *, *, #35, .T. ) ;
#35 = EDGE_CURVE ( 'NONE', #137, #138, #16, .T. ) ;
#36 = ADVANCED_FACE ( 'NONE', ( #17 ), #10, .F. ) ;
#37 = ORIENTED_EDGE ( 'NONE', *, *, #38, .F. ) ;
#38 = EDGE_CURVE ( 'NONE', #39, #118, #6, .T. ) ;
#39 = VERTEX_POINT ( 'NONE', #1 ) ;
#40 = ORIENTED_EDGE ( 'NONE', *, *, #41, .T. ) ;
#41 = EDGE_CURVE ( 'NONE', #122, #125, #93, .T. ) ;
#42 = EDGE_LOOP ( 'NONE', ( #116, #113 ) ) ;
#43 = ORIENTED_EDGE ( 'NONE', *, *, #44, .F. ) ;
#44 = EDGE_CURVE ( 'NONE', #138, #58, #88, .T. ) ;
#45 = ORIENTED_EDGE ( 'NONE', *, *, #35, .F. ) ;
#46 = ADVANCED_FACE ( 'NONE', ( #84, #83 ), #82, .F. ) ;
#47 = EDGE_LOOP ( 'NONE', ( #163, #164 ) ) ;
#48 = VERTEX_POINT ( 'NONE', #77 ) ;
#49 = EDGE_CURVE ( 'NONE', #171, #48, #76, .T. ) ;
#50 = ADVANCED_FACE ( 'NONE', ( #72 ), #71, .F. ) ;
#51 = ORIENTED_EDGE ( 'NONE', *, *, #52, .F. ) ;
#52 = EDGE_CURVE ( 'NONE', #160, #58, #66, .T. ) ;
#53 = ADVANCED_FACE ( 'NONE', ( #280 ), #254, .F. ) ;
#54 = EDGE_LOOP ( 'NONE', ( #154, #155, #156, #158, #43, #45 ) ) ;
#55 = ORIENTED_EDGE ( 'NONE', *, *, #49, .F. ) ;
#56 = ORIENTED_EDGE ( 'NONE', *, *, #57, .F. ) ;
#57 = EDGE_CURVE ( 'NONE', #58, #133, #255, .T. ) ;
#58 = VERTEX_POINT ( 'NONE', #256 ) ;
#59 = EDGE_LOOP ( 'NONE', ( #60, #161, #62, #153, #56, #51 ) ) ;
#60 = ORIENTED_EDGE ( 'NONE', *, *, #159, .T. ) ;
#61 = ORIENTED_EDGE ( 'NONE', *, *, #162, .F. ) ;
#62 = ORIENTED_EDGE ( 'NONE', *, *, #152, .T. ) ;
#63 = DIRECTION ( 'NONE',  ( -0.0000000000000000000, 1.108921438289453800E-016, -1.000000000000000000 ) ) ;
#64 = VECTOR ( 'NONE', #63, 1000.000000000000000 ) ;
#65 = CARTESIAN_POINT ( 'NONE',  ( 0.0000000000000000000, 13.22050000000000700, -60.00000000000004300 ) ) ;
#66 = LINE ( 'NONE', #65, #64 ) ;
#67 = DIRECTION ( 'NONE',  ( 0.0000000000000000000, 1.000000000000000000, 0.0000000000000000000 ) ) ;
#68 = DIRECTION ( 'NONE',  ( -0.0000000000000000000, 1.108921438289453800E-016, -1.000000000000000000 ) ) ;
#69 = CARTESIAN_POINT ( 'NONE',  ( 0.0000000000000000000, 3.184081677783111500E-015, -60.00000000000004300 ) ) ;
#70 = AXIS2_PLACEMENT_3D ( 'NONE', #69, #68, #67 ) ;
#71 = CYLINDRICAL_SURFACE ( 'NONE', #70, 13.22050000000000300 ) ;
#72 = FACE_OUTER_BOUND ( 'NONE', #59, .T. ) ;
#73 = DIRECTION ( 'NONE',  ( -0.0000000000000000000, -0.0000000000000000000, 1.000000000000000000 ) ) ;
#74 = VECTOR ( 'NONE', #73, 1000.000000000000000 ) ;
#75 = CARTESIAN_POINT ( 'NONE',  ( 16.30000000000000100, 0.0000000000000000000, -4.336808689942017700E-016 ) ) ;
#76 = LINE ( 'NONE', #75, #74 ) ;
#77 = CARTESIAN_POINT ( 'NONE',  ( 16.30000000000000100, 0.0000000000000000000, 0.0000000000000000000 ) ) ;
#78 = DIRECTION ( 'NONE',  ( 1.000000000000000000, 0.0000000000000000000, 0.0000000000000000000 ) ) ;
#79 = DIRECTION ( 'NONE',  ( 0.0000000000000000000, -0.0000000000000000000, 1.000000000000000000 ) ) ;
#80 = AXIS2_PLACEMENT_3D ( 'NONE', #81, #79, #78 ) ;
#81 = CARTESIAN_POINT ( 'NONE',  ( 0.0000000000000000000, 16.30000000000000100, -60.00000000000000000 ) ) ;
#82 = PLANE ( 'NONE',  #80 ) ;
#83 = FACE_BOUND ( 'NONE', #166, .T. ) ;
#84 = FACE_OUTER_BOUND ( 'NONE', #47, .T. ) ;
#85 = DIRECTION ( 'NONE',  ( 1.000000000000000000, 0.0000000000000000000, 0.0000000000000000000 ) ) ;
#86 = DIRECTION ( 'NONE',  ( -0.0000000000000000000, -0.0000000000000000000, 1.000000000000000000 ) ) ;
#87 = AXIS2_PLACEMENT_3D ( 'NONE', #94, #86, #85 ) ;
#88 = CIRCLE ( 'NONE', #87, 13.22049999999999900 ) ;
#89 = DIRECTION ( 'NONE',  ( 1.000000000000000000, 0.0000000000000000000, 0.0000000000000000000 ) ) ;
#90 = DIRECTION ( 'NONE',  ( -0.0000000000000000000, -0.0000000000000000000, 1.000000000000000000 ) ) ;
#91 = CARTESIAN_POINT ( 'NONE',  ( 0.0000000000000000000, 0.0000000000000000000, -60.00000000000000000 ) ) ;
#92 = AXIS2_PLACEMENT_3D ( 'NONE', #91, #90, #89 ) ;
#93 = CIRCLE ( 'NONE', #92, 13.68217003306566300 ) ;
#94 = CARTESIAN_POINT ( 'NONE',  ( 0.0000000000000000000, 0.0000000000000000000, -59.53832996693434200 ) ) ;
#95 = ORIENTED_EDGE ( 'NONE', *, *, #102, .T. ) ;
#96 = ADVANCED_FACE ( 'NONE', ( #184 ), #234, .F. ) ;
#97 = EDGE_LOOP ( 'NONE', ( #149, #151, #146, #147, #150 ) ) ;
#98 = ORIENTED_EDGE ( 'NONE', *, *, #165, .T. ) ;
#99 = ORIENTED_EDGE ( 'NONE', *, *, #49, .T. ) ;
#100 = ADVANCED_FACE ( 'NONE', ( #236 ), #179, .T. ) ;
#101 = EDGE_LOOP ( 'NONE', ( #111, #98, #99, #107 ) ) ;
#102 = EDGE_CURVE ( 'NONE', #129, #121, #207, .T. ) ;
#103 = ORIENTED_EDGE ( 'NONE', *, *, #102, .F. ) ;
#104 = ORIENTED_EDGE ( 'NONE', *, *, #159, .F. ) ;
#105 = ORIENTED_EDGE ( 'NONE', *, *, #157, .F. ) ;
#106 = ORIENTED_EDGE ( 'NONE', *, *, #28, .T. ) ;
#107 = ORIENTED_EDGE ( 'NONE', *, *, #114, .F. ) ;
#108 = ADVANCED_FACE ( 'NONE', ( #203 ), #202, .F. ) ;
#109 = EDGE_LOOP ( 'NONE', ( #110, #104, #105, #106, #95 ) ) ;
#110 = ORIENTED_EDGE ( 'NONE', *, *, #120, .F. ) ;
#111 = ORIENTED_EDGE ( 'NONE', *, *, #168, .F. ) ;
#112 = ORIENTED_EDGE ( 'NONE', *, *, #131, .F. ) ;
#113 = ORIENTED_EDGE ( 'NONE', *, *, #114, .T. ) ;
#114 = EDGE_CURVE ( 'NONE', #169, #48, #196, .T. ) ;
#115 = ADVANCED_FACE ( 'NONE', ( #232, #231 ), #229, .F. ) ;
#116 = ORIENTED_EDGE ( 'NONE', *, *, #162, .T. ) ;
#117 = ORIENTED_EDGE ( 'NONE', *, *, #124, .T. ) ;
#118 = VERTEX_POINT ( 'NONE', #261 ) ;
#119 = ORIENTED_EDGE ( 'NONE', *, *, #120, .T. ) ;
#120 = EDGE_CURVE ( 'NONE', #39, #121, #260, .T. ) ;
#121 = VERTEX_POINT ( 'NONE', #242 ) ;
#122 = VERTEX_POINT ( 'NONE', #241 ) ;
#123 = ORIENTED_EDGE ( 'NONE', *, *, #124, .F. ) ;
#124 = EDGE_CURVE ( 'NONE', #125, #122, #240, .T. ) ;
#125 = VERTEX_POINT ( 'NONE', #214 ) ;
#126 = ORIENTED_EDGE ( 'NONE', *, *, #132, .F. ) ;
#127 = EDGE_CURVE ( 'NONE', #138, #122, #213, .T. ) ;
#128 = ORIENTED_EDGE ( 'NONE', *, *, #28, .F. ) ;
#129 = VERTEX_POINT ( 'NONE', #209 ) ;
#130 = ORIENTED_EDGE ( 'NONE', *, *, #131, .T. ) ;
#131 = EDGE_CURVE ( 'NONE', #121, #129, #278, .T. ) ;
#132 = EDGE_CURVE ( 'NONE', #133, #125, #279, .T. ) ;
#133 = VERTEX_POINT ( 'NONE', #189 ) ;
#134 = ORIENTED_EDGE ( 'NONE', *, *, #135, .T. ) ;
#135 = EDGE_CURVE ( 'NONE', #133, #137, #188, .T. ) ;
#136 = EDGE_LOOP ( 'NONE', ( #37, #119, #130, #128, #173 ) ) ;
#137 = VERTEX_POINT ( 'NONE', #307 ) ;
#138 = VERTEX_POINT ( 'NONE', #306 ) ;
#139 = ORIENTED_EDGE ( 'NONE', *, *, #127, .T. ) ;
#140 = CIRCLE ( 'NONE', #26, 16.30000000000000100 ) ;
#141 = CARTESIAN_POINT ( 'NONE',  ( 13.22049999999999800, 0.0000000000000000000, -0.4616700330655557600 ) ) ;
#142 = DIRECTION ( 'NONE',  ( 0.7071067811865506800, 0.0000000000000000000, 0.7071067811865443500 ) ) ;
#143 = VECTOR ( 'NONE', #142, 1000.000000000000000 ) ;
#144 = CARTESIAN_POINT ( 'NONE',  ( 13.22049999999999800, 0.0000000000000000000, -0.4616700330655557600 ) ) ;
#145 = LINE ( 'NONE', #144, #143 ) ;
#146 = ORIENTED_EDGE ( 'NONE', *, *, #57, .T. ) ;
#147 = ORIENTED_EDGE ( 'NONE', *, *, #132, .T. ) ;
#148 = CLOSED_SHELL ( 'NONE', ( #33, #36, #175, #50, #53, #46, #115, #100, #108, #96 ) ) ;
#149 = ORIENTED_EDGE ( 'NONE', *, *, #127, .F. ) ;
#150 = ORIENTED_EDGE ( 'NONE', *, *, #41, .F. ) ;
#151 = ORIENTED_EDGE ( 'NONE', *, *, #44, .T. ) ;
#152 = EDGE_CURVE ( 'NONE', #118, #137, #305, .T. ) ;
#153 = ORIENTED_EDGE ( 'NONE', *, *, #135, .F. ) ;
#154 = ORIENTED_EDGE ( 'NONE', *, *, #152, .F. ) ;
#155 = ORIENTED_EDGE ( 'NONE', *, *, #172, .T. ) ;
#156 = ORIENTED_EDGE ( 'NONE', *, *, #157, .T. ) ;
#157 = EDGE_CURVE ( 'NONE', #29, #160, #301, .T. ) ;
#158 = ORIENTED_EDGE ( 'NONE', *, *, #52, .T. ) ;
#159 = EDGE_CURVE ( 'NONE', #160, #39, #296, .T. ) ;
#160 = VERTEX_POINT ( 'NONE', #291 ) ;
#161 = ORIENTED_EDGE ( 'NONE', *, *, #38, .T. ) ;
#162 = EDGE_CURVE ( 'NONE', #48, #169, #290, .T. ) ;
#163 = ORIENTED_EDGE ( 'NONE', *, *, #30, .F. ) ;
#164 = ORIENTED_EDGE ( 'NONE', *, *, #165, .F. ) ;
#165 = EDGE_CURVE ( 'NONE', #170, #171, #285, .T. ) ;
#166 = EDGE_LOOP ( 'NONE', ( #117, #40 ) ) ;
#167 = ORIENTED_EDGE ( 'NONE', *, *, #168, .T. ) ;
#168 = EDGE_CURVE ( 'NONE', #170, #169, #228, .T. ) ;
#169 = VERTEX_POINT ( 'NONE', #224 ) ;
#170 = VERTEX_POINT ( 'NONE', #223 ) ;
#171 = VERTEX_POINT ( 'NONE', #222 ) ;
#172 = EDGE_CURVE ( 'NONE', #118, #29, #221, .T. ) ;
#173 = ORIENTED_EDGE ( 'NONE', *, *, #172, .F. ) ;
#174 = EDGE_LOOP ( 'NONE', ( #176, #167, #61, #55 ) ) ;
#175 = ADVANCED_FACE ( 'NONE', ( #216 ), #250, .T. ) ;
#176 = ORIENTED_EDGE ( 'NONE', *, *, #30, .T. ) ;
#177 = EDGE_LOOP ( 'NONE', ( #103, #112 ) ) ;
#178 = AXIS2_PLACEMENT_3D ( 'NONE', #235, #270, #269 ) ;
#179 = CYLINDRICAL_SURFACE ( 'NONE', #178, 16.30000000000000100 ) ;
#180 = DIRECTION ( 'NONE',  ( -1.000000000000000000, 0.0000000000000000000, 0.0000000000000000000 ) ) ;
#181 = DIRECTION ( 'NONE',  ( 0.0000000000000000000, 0.0000000000000000000, -1.000000000000000000 ) ) ;
#182 = CARTESIAN_POINT ( 'NONE',  ( 0.0000000000000000000, 0.0000000000000000000, -60.00000000000000000 ) ) ;
#183 = AXIS2_PLACEMENT_3D ( 'NONE', #182, #181, #180 ) ;
#184 = FACE_OUTER_BOUND ( 'NONE', #97, .T. ) ;
#185 = DIRECTION ( 'NONE',  ( -0.0000000000000000000, -0.0000000000000000000, 1.000000000000000000 ) ) ;
#186 = CARTESIAN_POINT ( 'NONE',  ( 0.0000000000000000000, 0.0000000000000000000, -59.53832996693434200 ) ) ;
#187 = AXIS2_PLACEMENT_3D ( 'NONE', #186, #185, #308 ) ;
#188 = CIRCLE ( 'NONE', #187, 13.22049999999999900 ) ;
#189 = CARTESIAN_POINT ( 'NONE',  ( -13.22049999999999900, 0.0000000000000000000, -59.53832996693434200 ) ) ;
#190 = DIRECTION ( 'NONE',  ( -0.7071067811865514600, 0.0000000000000000000, -0.7071067811865435800 ) ) ;
#191 = VECTOR ( 'NONE', #190, 1000.000000000000000 ) ;
#192 = CARTESIAN_POINT ( 'NONE',  ( -13.68217003306566300, 0.0000000000000000000, -60.00000000000000000 ) ) ;
#193 = DIRECTION ( 'NONE',  ( -0.0000000000000000000, -0.0000000000000000000, 1.000000000000000000 ) ) ;
#194 = CARTESIAN_POINT ( 'NONE',  ( 0.0000000000000000000, 0.0000000000000000000, 0.0000000000000000000 ) ) ;
#195 = AXIS2_PLACEMENT_3D ( 'NONE', #194, #193, #233 ) ;
#196 = CIRCLE ( 'NONE', #195, 16.30000000000000100 ) ;
#197 = DIRECTION ( 'NONE',  ( 1.000000000000000000, 0.0000000000000000000, 0.0000000000000000000 ) ) ;
#198 = ADVANCED_BREP_SHAPE_REPRESENTATION ( '19-0402-55_outokumpu', ( #32, #249 ), #199 ) ;
#199 =( GEOMETRIC_REPRESENTATION_CONTEXT ( 3 ) GLOBAL_UNCERTAINTY_ASSIGNED_CONTEXT ( ( #200 ) ) GLOBAL_UNIT_ASSIGNED_CONTEXT ( ( #244, #243, #201 ) ) REPRESENTATION_CONTEXT ( 'NONE', 'WORKASPACE' ) );
#200 = UNCERTAINTY_MEASURE_WITH_UNIT (LENGTH_MEASURE( 1.000000000000000100E-005 ), #244, 'distance_accuracy_value', 'NONE');
#201 =( NAMED_UNIT ( * ) SI_UNIT ( $, .STERADIAN. ) SOLID_ANGLE_UNIT ( ) );
#202 = CONICAL_SURFACE ( 'NONE', #253, 13.22049999999999800, 0.7853981633974528300 ) ;
#203 = FACE_OUTER_BOUND ( 'NONE', #109, .T. ) ;
#204 = DIRECTION ( 'NONE',  ( 1.000000000000000000, 0.0000000000000000000, 0.0000000000000000000 ) ) ;
#205 = DIRECTION ( 'NONE',  ( -0.0000000000000000000, -0.0000000000000000000, 1.000000000000000000 ) ) ;
#206 = AXIS2_PLACEMENT_3D ( 'NONE', #268, #205, #204 ) ;
#207 = CIRCLE ( 'NONE', #206, 13.68217003306555800 ) ;
#208 = DIRECTION ( 'NONE',  ( 0.0000000000000000000, 1.000000000000000000, 0.0000000000000000000 ) ) ;
#209 = CARTESIAN_POINT ( 'NONE',  ( 13.68217003306555800, 0.0000000000000000000, -1.087506354010172000E-016 ) ) ;
#210 = DIRECTION ( 'NONE',  ( 0.7071067811865514600, 8.659274570719403500E-017, -0.7071067811865435800 ) ) ;
#211 = VECTOR ( 'NONE', #210, 1000.000000000000000 ) ;
#212 = CARTESIAN_POINT ( 'NONE',  ( 13.68217003306566300, 1.675527235657033700E-015, -60.00000000000000000 ) ) ;
#213 = LINE ( 'NONE', #212, #211 ) ;
#214 = CARTESIAN_POINT ( 'NONE',  ( -13.68217003306566300, 0.0000000000000000000, -60.00000000000000000 ) ) ;
#215 = DIRECTION ( 'NONE',  ( 1.000000000000000000, 0.0000000000000000000, 0.0000000000000000000 ) ) ;
#216 = FACE_OUTER_BOUND ( 'NONE', #174, .T. ) ;
#217 = DIRECTION ( 'NONE',  ( 1.000000000000000000, 0.0000000000000000000, 0.0000000000000000000 ) ) ;
#218 = DIRECTION ( 'NONE',  ( -0.0000000000000000000, -0.0000000000000000000, 1.000000000000000000 ) ) ;
#219 = CARTESIAN_POINT ( 'NONE',  ( 0.0000000000000000000, 0.0000000000000000000, -0.4616700330655557600 ) ) ;
#220 = AXIS2_PLACEMENT_3D ( 'NONE', #219, #218, #217 ) ;
#221 = CIRCLE ( 'NONE', #220, 13.22049999999999800 ) ;
#222 = CARTESIAN_POINT ( 'NONE',  ( 16.30000000000000100, 0.0000000000000000000, -60.00000000000000000 ) ) ;
#223 = CARTESIAN_POINT ( 'NONE',  ( -16.30000000000000100, 1.996108356730475200E-015, -60.00000000000000000 ) ) ;
#224 = CARTESIAN_POINT ( 'NONE',  ( -16.30000000000000100, 1.996108356730475200E-015, 0.0000000000000000000 ) ) ;
#225 = DIRECTION ( 'NONE',  ( -0.0000000000000000000, -0.0000000000000000000, 1.000000000000000000 ) ) ;
#226 = VECTOR ( 'NONE', #225, 1000.000000000000000 ) ;
#227 = CARTESIAN_POINT ( 'NONE',  ( -16.30000000000000100, 1.996108356730475200E-015, -4.336808689942017700E-016 ) ) ;
#228 = LINE ( 'NONE', #227, #226 ) ;
#229 = PLANE ( 'NONE',  #230 ) ;
#230 = AXIS2_PLACEMENT_3D ( 'NONE', #264, #263, #262 ) ;
#231 = FACE_BOUND ( 'NONE', #177, .T. ) ;
#232 = FACE_OUTER_BOUND ( 'NONE', #42, .T. ) ;
#233 = DIRECTION ( 'NONE',  ( 1.000000000000000000, 0.0000000000000000000, 0.0000000000000000000 ) ) ;
#234 = CONICAL_SURFACE ( 'NONE', #183, 13.68217003306566300, 0.7853981633974538300 ) ;
#235 = CARTESIAN_POINT ( 'NONE',  ( 0.0000000000000000000, 0.0000000000000000000, -4.336808689942017700E-016 ) ) ;
#236 = FACE_OUTER_BOUND ( 'NONE', #101, .T. ) ;
#237 = DIRECTION ( 'NONE',  ( -0.0000000000000000000, -0.0000000000000000000, 1.000000000000000000 ) ) ;
#238 = CARTESIAN_POINT ( 'NONE',  ( 0.0000000000000000000, 0.0000000000000000000, -60.00000000000000000 ) ) ;
#239 = AXIS2_PLACEMENT_3D ( 'NONE', #238, #237, #215 ) ;
#240 = CIRCLE ( 'NONE', #239, 13.68217003306566300 ) ;
#241 = CARTESIAN_POINT ( 'NONE',  ( 13.68217003306566300, 1.675527235657033700E-015, -60.00000000000000000 ) ) ;
#242 = CARTESIAN_POINT ( 'NONE',  ( -13.68217003306555800, 1.675527235657020900E-015, -1.087506354010172000E-016 ) ) ;
#243 =( NAMED_UNIT ( * ) PLANE_ANGLE_UNIT ( ) SI_UNIT ( $, .RADIAN. ) );
#244 =( LENGTH_UNIT ( ) NAMED_UNIT ( * ) SI_UNIT ( .MILLI., .METRE. ) );
#245 = DIRECTION ( 'NONE',  ( 1.000000000000000000, 0.0000000000000000000, 0.0000000000000000000 ) ) ;
#246 = DIRECTION ( 'NONE',  ( -0.0000000000000000000, -0.0000000000000000000, 1.000000000000000000 ) ) ;
#247 = CARTESIAN_POINT ( 'NONE',  ( 0.0000000000000000000, 0.0000000000000000000, -4.336808689942017700E-016 ) ) ;
#248 = AXIS2_PLACEMENT_3D ( 'NONE', #247, #246, #245 ) ;
#249 = AXIS2_PLACEMENT_3D ( 'NONE', #311, #310, #309 ) ;
#250 = CYLINDRICAL_SURFACE ( 'NONE', #248, 16.30000000000000100 ) ;
#251 = DIRECTION ( 'NONE',  ( -0.0000000000000000000, -0.0000000000000000000, 1.000000000000000000 ) ) ;
#252 = CARTESIAN_POINT ( 'NONE',  ( 0.0000000000000000000, 0.0000000000000000000, -0.4616700330655557600 ) ) ;
#253 = AXIS2_PLACEMENT_3D ( 'NONE', #252, #251, #197 ) ;
#254 = CYLINDRICAL_SURFACE ( 'NONE', #271, 13.22050000000000300 ) ;
#255 = CIRCLE ( 'NONE', #273, 13.22049999999999900 ) ;
#256 = CARTESIAN_POINT ( 'NONE',  ( 0.0000000000000000000, 13.22049999999999900, -59.53832996693434200 ) ) ;
#257 = DIRECTION ( 'NONE',  ( -0.7071067811865506800, 8.659274570719393600E-017, 0.7071067811865443500 ) ) ;
#258 = VECTOR ( 'NONE', #257, 1000.000000000000000 ) ;
#259 = CARTESIAN_POINT ( 'NONE',  ( -13.22049999999999800, 1.618990830070873600E-015, -0.4616700330655557600 ) ) ;
#260 = LINE ( 'NONE', #259, #258 ) ;
#261 = CARTESIAN_POINT ( 'NONE',  ( 1.618990830070874000E-015, -13.22049999999999800, -0.4616700330655557600 ) ) ;
#262 = DIRECTION ( 'NONE',  ( -1.000000000000000000, 0.0000000000000000000, -0.0000000000000000000 ) ) ;
#263 = DIRECTION ( 'NONE',  ( 0.0000000000000000000, 0.0000000000000000000, -1.000000000000000000 ) ) ;
#264 = CARTESIAN_POINT ( 'NONE',  ( 0.0000000000000000000, 16.30000000000000100, -2.168404344971008900E-016 ) ) ;
#265 = CARTESIAN_POINT ( 'NONE',  ( 0.0000000000000000000, 0.0000000000000000000, -59.53832996693434200 ) ) ;
#266 = DIRECTION ( 'NONE',  ( -0.0000000000000000000, 1.108921438289453800E-016, -1.000000000000000000 ) ) ;
#267 = CARTESIAN_POINT ( 'NONE',  ( 0.0000000000000000000, 3.184081677783111500E-015, -60.00000000000004300 ) ) ;
#268 = CARTESIAN_POINT ( 'NONE',  ( 0.0000000000000000000, 0.0000000000000000000, -1.087506354010172000E-016 ) ) ;
#269 = DIRECTION ( 'NONE',  ( 1.000000000000000000, 0.0000000000000000000, 0.0000000000000000000 ) ) ;
#270 = DIRECTION ( 'NONE',  ( -0.0000000000000000000, -0.0000000000000000000, 1.000000000000000000 ) ) ;
#271 = AXIS2_PLACEMENT_3D ( 'NONE', #267, #266, #208 ) ;
#272 = DIRECTION ( 'NONE',  ( 1.000000000000000000, 0.0000000000000000000, 0.0000000000000000000 ) ) ;
#273 = AXIS2_PLACEMENT_3D ( 'NONE', #265, #312, #272 ) ;
#274 = DIRECTION ( 'NONE',  ( 1.000000000000000000, 0.0000000000000000000, 0.0000000000000000000 ) ) ;
#275 = DIRECTION ( 'NONE',  ( -0.0000000000000000000, -0.0000000000000000000, 1.000000000000000000 ) ) ;
#276 = CARTESIAN_POINT ( 'NONE',  ( 0.0000000000000000000, 0.0000000000000000000, -1.087506354010172000E-016 ) ) ;
#277 = AXIS2_PLACEMENT_3D ( 'NONE', #276, #275, #274 ) ;
#278 = CIRCLE ( 'NONE', #277, 13.68217003306555800 ) ;
#279 = LINE ( 'NONE', #192, #191 ) ;
#280 = FACE_OUTER_BOUND ( 'NONE', #54, .T. ) ;
#281 = DIRECTION ( 'NONE',  ( 1.000000000000000000, 0.0000000000000000000, 0.0000000000000000000 ) ) ;
#282 = DIRECTION ( 'NONE',  ( -0.0000000000000000000, -0.0000000000000000000, 1.000000000000000000 ) ) ;
#283 = CARTESIAN_POINT ( 'NONE',  ( 0.0000000000000000000, 0.0000000000000000000, -60.00000000000000000 ) ) ;
#284 = AXIS2_PLACEMENT_3D ( 'NONE', #283, #282, #281 ) ;
#285 = CIRCLE ( 'NONE', #284, 16.30000000000000100 ) ;
#286 = DIRECTION ( 'NONE',  ( 1.000000000000000000, 0.0000000000000000000, 0.0000000000000000000 ) ) ;
#287 = DIRECTION ( 'NONE',  ( -0.0000000000000000000, -0.0000000000000000000, 1.000000000000000000 ) ) ;
#288 = CARTESIAN_POINT ( 'NONE',  ( 0.0000000000000000000, 0.0000000000000000000, 0.0000000000000000000 ) ) ;
#289 = AXIS2_PLACEMENT_3D ( 'NONE', #288, #287, #286 ) ;
#290 = CIRCLE ( 'NONE', #289, 16.30000000000000100 ) ;
#291 = CARTESIAN_POINT ( 'NONE',  ( 0.0000000000000000000, 13.22049999999999800, -0.4616700330655557600 ) ) ;
#292 = DIRECTION ( 'NONE',  ( 1.000000000000000000, 0.0000000000000000000, 0.0000000000000000000 ) ) ;
#293 = DIRECTION ( 'NONE',  ( -0.0000000000000000000, -0.0000000000000000000, 1.000000000000000000 ) ) ;
#294 = CARTESIAN_POINT ( 'NONE',  ( 0.0000000000000000000, 0.0000000000000000000, -0.4616700330655557600 ) ) ;
#295 = AXIS2_PLACEMENT_3D ( 'NONE', #294, #293, #292 ) ;
#296 = CIRCLE ( 'NONE', #295, 13.22049999999999800 ) ;
#297 = DIRECTION ( 'NONE',  ( 1.000000000000000000, 0.0000000000000000000, 0.0000000000000000000 ) ) ;
#298 = DIRECTION ( 'NONE',  ( -0.0000000000000000000, -0.0000000000000000000, 1.000000000000000000 ) ) ;
#299 = CARTESIAN_POINT ( 'NONE',  ( 0.0000000000000000000, 0.0000000000000000000, -0.4616700330655557600 ) ) ;
#300 = AXIS2_PLACEMENT_3D ( 'NONE', #299, #298, #297 ) ;
#301 = CIRCLE ( 'NONE', #300, 13.22049999999999800 ) ;
#302 = DIRECTION ( 'NONE',  ( -0.0000000000000000000, 1.108921438289453800E-016, -1.000000000000000000 ) ) ;
#303 = VECTOR ( 'NONE', #302, 1000.000000000000000 ) ;
#304 = CARTESIAN_POINT ( 'NONE',  ( 1.618990830070874200E-015, -13.22049999999999900, -60.00000000000004300 ) ) ;
#305 = LINE ( 'NONE', #304, #303 ) ;
#306 = CARTESIAN_POINT ( 'NONE',  ( 13.22049999999999900, 1.647259032863953800E-015, -59.53832996693434200 ) ) ;
#307 = CARTESIAN_POINT ( 'NONE',  ( 1.618990830070874200E-015, -13.22049999999999900, -59.53832996693434200 ) ) ;
#308 = DIRECTION ( 'NONE',  ( 1.000000000000000000, 0.0000000000000000000, 0.0000000000000000000 ) ) ;
#309 = DIRECTION ( 'NONE',  ( 1.000000000000000000, 0.0000000000000000000, 0.0000000000000000000 ) ) ;
#310 = DIRECTION ( 'NONE',  ( 0.0000000000000000000, 0.0000000000000000000, 1.000000000000000000 ) ) ;
#311 = CARTESIAN_POINT ( 'NONE',  ( 0.0000000000000000000, 0.0000000000000000000, 0.0000000000000000000 ) ) ;
#312 = DIRECTION ( 'NONE',  ( -0.0000000000000000000, -0.0000000000000000000, 1.000000000000000000 ) ) ;
#313 = PERSON ( 'UNSPECIFIED', 'UNSPECIFIED', 'UNSPECIFIED', ('UNSPECIFIED'), ('UNSPECIFIED'), ('UNSPECIFIED') ) ;
#314 = PRODUCT ( '19-0402-55_outokumpu', '19-0402-55_outokumpu', '', ( #315 ) ) ;
#315 = MECHANICAL_CONTEXT ( 'NONE', #317, 'mechanical' ) ;
#316 = APPLICATION_PROTOCOL_DEFINITION ( 'international standard', 'config_control_design', 1994, #317 ) ;
#317 = APPLICATION_CONTEXT ( 'configuration controlled 3d designs of mechanical parts and assemblies' ) ;
#318 = APPLICATION_CONTEXT ( 'configuration controlled 3d designs of mechanical parts and assemblies' ) ;
#319 = PRODUCT_DEFINITION ( 'UNKNOWN', '', #346, #333 ) ;
#320 = APPLICATION_PROTOCOL_DEFINITION ( 'international standard', 'config_control_design', 1994, #318 ) ;
#321 = CC_DESIGN_PERSON_AND_ORGANIZATION_ASSIGNMENT ( #323, #322, ( #319 ) ) ;
#322 = PERSON_AND_ORGANIZATION_ROLE ( 'creator' ) ;
#323 = PERSON_AND_ORGANIZATION ( #313, #339 ) ;
#324 = APPROVAL_PERSON_ORGANIZATION ( #332, #335, #325 ) ;
#325 = APPROVAL_ROLE ( '' ) ;
#326 = CC_DESIGN_APPROVAL ( #335, ( #319 ) ) ;
#327 = APPROVAL_DATE_TIME ( #328, #335 ) ;
#328 = DATE_AND_TIME ( #329, #330 ) ;
#329 = CALENDAR_DATE ( 2015, 11, 8 ) ;
#330 = LOCAL_TIME ( 11, 26, 26.00000000000000000, #331 ) ;
#331 = COORDINATED_UNIVERSAL_TIME_OFFSET ( 1, 0, .AHEAD. ) ;
#332 = PERSON_AND_ORGANIZATION ( #313, #339 ) ;
#333 = DESIGN_CONTEXT ( 'detailed design', #318, 'design' ) ;
#334 = CC_DESIGN_PERSON_AND_ORGANIZATION_ASSIGNMENT ( #338, #337, ( #314 ) ) ;
#335 = APPROVAL ( #336, 'UNSPECIFIED' ) ;
#336 = APPROVAL_STATUS ( 'not_yet_approved' ) ;
#337 = PERSON_AND_ORGANIZATION_ROLE ( 'design_owner' ) ;
#338 = PERSON_AND_ORGANIZATION ( #313, #339 ) ;
#339 = ORGANIZATION ( 'UNSPECIFIED', 'UNSPECIFIED', '' ) ;
#340 = CC_DESIGN_DATE_AND_TIME_ASSIGNMENT ( #342, #341, ( #319 ) ) ;
#341 = DATE_TIME_ROLE ( 'creation_date' ) ;
#342 = DATE_AND_TIME ( #343, #344 ) ;
#343 = CALENDAR_DATE ( 2015, 11, 8 ) ;
#344 = LOCAL_TIME ( 11, 26, 26.00000000000000000, #345 ) ;
#345 = COORDINATED_UNIVERSAL_TIME_OFFSET ( 1, 0, .AHEAD. ) ;
#346 = PRODUCT_DEFINITION_FORMATION_WITH_SPECIFIED_SOURCE ( 'ANY', '', #314, .NOT_KNOWN. ) ;
#347 = COORDINATED_UNIVERSAL_TIME_OFFSET ( 1, 0, .AHEAD. ) ;
#348 = CALENDAR_DATE ( 2015, 11, 8 ) ;
#349 = LOCAL_TIME ( 11, 26, 26.00000000000000000, #350 ) ;
#350 = COORDINATED_UNIVERSAL_TIME_OFFSET ( 1, 0, .AHEAD. ) ;
#351 = APPROVAL_PERSON_ORGANIZATION ( #355, #353, #352 ) ;
#352 = APPROVAL_ROLE ( '' ) ;
#353 = APPROVAL ( #354, 'UNSPECIFIED' ) ;
#354 = APPROVAL_STATUS ( 'not_yet_approved' ) ;
#355 = PERSON_AND_ORGANIZATION ( #313, #339 ) ;
#356 = PERSON_AND_ORGANIZATION ( #313, #339 ) ;
#357 = PERSON_AND_ORGANIZATION ( #313, #339 ) ;
#358 = LOCAL_TIME ( 11, 26, 26.00000000000000000, #359 ) ;
#359 = COORDINATED_UNIVERSAL_TIME_OFFSET ( 1, 0, .AHEAD. ) ;
#360 = APPROVAL_ROLE ( '' ) ;
#361 = CC_DESIGN_DATE_AND_TIME_ASSIGNMENT ( #363, #362, ( #384 ) ) ;
#362 = DATE_TIME_ROLE ( 'classification_date' ) ;
#363 = DATE_AND_TIME ( #364, #358 ) ;
#364 = CALENDAR_DATE ( 2015, 11, 8 ) ;
#365 = PERSON_AND_ORGANIZATION ( #313, #339 ) ;
#366 = CC_DESIGN_APPROVAL ( #373, ( #346 ) ) ;
#367 = APPROVAL_DATE_TIME ( #388, #373 ) ;
#368 = CC_DESIGN_SECURITY_CLASSIFICATION ( #384, ( #346 ) ) ;
#369 = CC_DESIGN_APPROVAL ( #353, ( #384 ) ) ;
#370 = APPROVAL_DATE_TIME ( #371, #353 ) ;
#371 = DATE_AND_TIME ( #348, #349 ) ;
#372 = APPROVAL_PERSON_ORGANIZATION ( #356, #373, #360 ) ;
#373 = APPROVAL ( #376, 'UNSPECIFIED' ) ;
#374 = CC_DESIGN_PERSON_AND_ORGANIZATION_ASSIGNMENT ( #357, #375, ( #346 ) ) ;
#375 = PERSON_AND_ORGANIZATION_ROLE ( 'creator' ) ;
#376 = APPROVAL_STATUS ( 'not_yet_approved' ) ;
#377 = LOCAL_TIME ( 11, 26, 26.00000000000000000, #347 ) ;
#378 = SECURITY_CLASSIFICATION_LEVEL ( 'unclassified' ) ;
#379 = CC_DESIGN_PERSON_AND_ORGANIZATION_ASSIGNMENT ( #365, #380, ( #346 ) ) ;
#380 = PERSON_AND_ORGANIZATION_ROLE ( 'design_supplier' ) ;
#381 = CC_DESIGN_PERSON_AND_ORGANIZATION_ASSIGNMENT ( #383, #382, ( #384 ) ) ;
#382 = PERSON_AND_ORGANIZATION_ROLE ( 'classification_officer' ) ;
#383 = PERSON_AND_ORGANIZATION ( #313, #339 ) ;
#384 = SECURITY_CLASSIFICATION ( '', '', #378 ) ;
#385 = SHAPE_DEFINITION_REPRESENTATION ( #386, #198 ) ;
#386 = PRODUCT_DEFINITION_SHAPE ( 'NONE', 'NONE',  #319 ) ;
#387 = PRODUCT_RELATED_PRODUCT_CATEGORY ( 'detail', '', ( #314 ) ) ;
#388 = DATE_AND_TIME ( #389, #377 ) ;
#389 = CALENDAR_DATE ( 2015, 11, 8 ) ;
ENDSEC;
END-ISO-10303-21;
