ISO-10303-21;
HEADER;
/* Generated by software containing ST-Developer
 * from STEP Tools, Inc. (www.steptools.com) 
 */

FILE_DESCRIPTION(
/* description */ (''),
/* implementation_level */ '2;1');

FILE_NAME(
/* name */ 
'C:\\Users\\cad\\Desktop\\Zeichnungen neu von Ralph\\3D_Kupplung_R666-
SG\\3D_R666-SG-17.2-DN15_17113715.stp',
/* time_stamp */ '2021-06-22T11:11:38+02:00',
/* author */ ('cad'),
/* organization */ (''),
/* preprocessor_version */ 'ST-DEVELOPER v18.1',
/* originating_system */ 'Autodesk Inventor 2022',
/* authorisation */ '');

FILE_SCHEMA (('AUTOMOTIVE_DESIGN { 1 0 10303 214 3 1 1 }'));
ENDSEC;

DATA;
#10=MECHANICAL_DESIGN_GEOMETRIC_PRESENTATION_REPRESENTATION('',(#13),#448);
#11=SHAPE_REPRESENTATION_RELATIONSHIP('SRR','None',#455,#12);
#12=ADVANCED_BREP_SHAPE_REPRESENTATION('',(#14),#447);
#13=STYLED_ITEM('',(#464),#14);
#14=MANIFOLD_SOLID_BREP('Volumenk\X\F6rper1',#235);
#15=TOROIDAL_SURFACE('',#274,9.3,0.3);
#16=TOROIDAL_SURFACE('',#281,8.9,0.3);
#17=FACE_BOUND('',#44,.T.);
#18=FACE_BOUND('',#47,.T.);
#19=FACE_BOUND('',#54,.T.);
#20=PLANE('',#262);
#21=PLANE('',#266);
#22=PLANE('',#284);
#23=CYLINDRICAL_SURFACE('',#259,7.);
#24=CYLINDRICAL_SURFACE('',#271,8.6);
#25=CYLINDRICAL_SURFACE('',#279,9.);
#26=CYLINDRICAL_SURFACE('',#288,10.45);
#27=FACE_OUTER_BOUND('',#41,.T.);
#28=FACE_OUTER_BOUND('',#42,.T.);
#29=FACE_OUTER_BOUND('',#43,.T.);
#30=FACE_OUTER_BOUND('',#45,.T.);
#31=FACE_OUTER_BOUND('',#46,.T.);
#32=FACE_OUTER_BOUND('',#48,.T.);
#33=FACE_OUTER_BOUND('',#49,.T.);
#34=FACE_OUTER_BOUND('',#50,.T.);
#35=FACE_OUTER_BOUND('',#51,.T.);
#36=FACE_OUTER_BOUND('',#52,.T.);
#37=FACE_OUTER_BOUND('',#53,.T.);
#38=FACE_OUTER_BOUND('',#55,.T.);
#39=FACE_OUTER_BOUND('',#56,.T.);
#40=FACE_OUTER_BOUND('',#57,.T.);
#41=EDGE_LOOP('',(#152,#153,#154,#155,#156));
#42=EDGE_LOOP('',(#157,#158,#159,#160,#161,#162));
#43=EDGE_LOOP('',(#163));
#44=EDGE_LOOP('',(#164));
#45=EDGE_LOOP('',(#165,#166,#167,#168,#169));
#46=EDGE_LOOP('',(#170));
#47=EDGE_LOOP('',(#171));
#48=EDGE_LOOP('',(#172,#173,#174,#175,#176));
#49=EDGE_LOOP('',(#177,#178,#179,#180,#181,#182));
#50=EDGE_LOOP('',(#183,#184,#185,#186,#187));
#51=EDGE_LOOP('',(#188,#189,#190,#191));
#52=EDGE_LOOP('',(#192,#193,#194,#195,#196));
#53=EDGE_LOOP('',(#197));
#54=EDGE_LOOP('',(#198));
#55=EDGE_LOOP('',(#199,#200,#201,#202,#203,#204));
#56=EDGE_LOOP('',(#205,#206,#207,#208,#209,#210));
#57=EDGE_LOOP('',(#211,#212,#213,#214,#215));
#58=LINE('',#384,#67);
#59=LINE('',#388,#68);
#60=LINE('',#398,#69);
#61=LINE('',#407,#70);
#62=LINE('',#412,#71);
#63=LINE('',#424,#72);
#64=LINE('',#436,#73);
#65=LINE('',#442,#74);
#66=LINE('',#444,#75);
#67=VECTOR('',#300,7.15);
#68=VECTOR('',#305,7.);
#69=VECTOR('',#318,7.15);
#70=VECTOR('',#329,8.45);
#71=VECTOR('',#334,8.6);
#72=VECTOR('',#349,9.);
#73=VECTOR('',#366,9.85);
#74=VECTOR('',#373,10.45);
#75=VECTOR('',#376,9.85);
#76=CIRCLE('',#256,7.);
#77=CIRCLE('',#257,7.);
#78=CIRCLE('',#258,7.3);
#79=CIRCLE('',#260,7.);
#80=CIRCLE('',#261,7.);
#81=CIRCLE('',#263,9.25);
#82=CIRCLE('',#265,7.3);
#83=CIRCLE('',#267,8.3);
#84=CIRCLE('',#269,8.6);
#85=CIRCLE('',#270,8.6);
#86=CIRCLE('',#272,8.6);
#87=CIRCLE('',#273,8.6);
#88=CIRCLE('',#275,9.);
#89=CIRCLE('',#276,0.3);
#90=CIRCLE('',#277,9.25);
#91=CIRCLE('',#278,9.25);
#92=CIRCLE('',#280,9.);
#93=CIRCLE('',#282,0.3);
#94=CIRCLE('',#283,8.9);
#95=CIRCLE('',#286,10.45);
#96=CIRCLE('',#287,10.45);
#97=CIRCLE('',#289,10.45);
#98=CIRCLE('',#290,10.45);
#99=VERTEX_POINT('',#379);
#100=VERTEX_POINT('',#380);
#101=VERTEX_POINT('',#383);
#102=VERTEX_POINT('',#387);
#103=VERTEX_POINT('',#389);
#104=VERTEX_POINT('',#393);
#105=VERTEX_POINT('',#396);
#106=VERTEX_POINT('',#400);
#107=VERTEX_POINT('',#403);
#108=VERTEX_POINT('',#404);
#109=VERTEX_POINT('',#409);
#110=VERTEX_POINT('',#410);
#111=VERTEX_POINT('',#415);
#112=VERTEX_POINT('',#417);
#113=VERTEX_POINT('',#419);
#114=VERTEX_POINT('',#423);
#115=VERTEX_POINT('',#427);
#116=VERTEX_POINT('',#432);
#117=VERTEX_POINT('',#433);
#118=VERTEX_POINT('',#438);
#119=VERTEX_POINT('',#439);
#120=EDGE_CURVE('',#99,#100,#76,.T.);
#121=EDGE_CURVE('',#100,#99,#77,.T.);
#122=EDGE_CURVE('',#99,#101,#58,.T.);
#123=EDGE_CURVE('',#101,#101,#78,.T.);
#124=EDGE_CURVE('',#100,#102,#59,.T.);
#125=EDGE_CURVE('',#103,#102,#79,.T.);
#126=EDGE_CURVE('',#102,#103,#80,.T.);
#127=EDGE_CURVE('',#104,#104,#81,.T.);
#128=EDGE_CURVE('',#105,#105,#82,.T.);
#129=EDGE_CURVE('',#105,#103,#60,.T.);
#130=EDGE_CURVE('',#106,#106,#83,.T.);
#131=EDGE_CURVE('',#107,#108,#84,.T.);
#132=EDGE_CURVE('',#108,#107,#85,.T.);
#133=EDGE_CURVE('',#107,#106,#61,.T.);
#134=EDGE_CURVE('',#109,#110,#86,.T.);
#135=EDGE_CURVE('',#109,#108,#62,.T.);
#136=EDGE_CURVE('',#110,#109,#87,.T.);
#137=EDGE_CURVE('',#111,#111,#88,.T.);
#138=EDGE_CURVE('',#111,#112,#89,.T.);
#139=EDGE_CURVE('',#113,#112,#90,.T.);
#140=EDGE_CURVE('',#112,#113,#91,.T.);
#141=EDGE_CURVE('',#111,#114,#63,.T.);
#142=EDGE_CURVE('',#114,#114,#92,.T.);
#143=EDGE_CURVE('',#110,#115,#93,.T.);
#144=EDGE_CURVE('',#115,#115,#94,.T.);
#145=EDGE_CURVE('',#116,#117,#95,.T.);
#146=EDGE_CURVE('',#117,#116,#96,.T.);
#147=EDGE_CURVE('',#116,#113,#64,.T.);
#148=EDGE_CURVE('',#118,#119,#97,.T.);
#149=EDGE_CURVE('',#119,#118,#98,.T.);
#150=EDGE_CURVE('',#119,#117,#65,.T.);
#151=EDGE_CURVE('',#104,#118,#66,.T.);
#152=ORIENTED_EDGE('',*,*,#120,.T.);
#153=ORIENTED_EDGE('',*,*,#121,.T.);
#154=ORIENTED_EDGE('',*,*,#122,.T.);
#155=ORIENTED_EDGE('',*,*,#123,.T.);
#156=ORIENTED_EDGE('',*,*,#122,.F.);
#157=ORIENTED_EDGE('',*,*,#120,.F.);
#158=ORIENTED_EDGE('',*,*,#121,.F.);
#159=ORIENTED_EDGE('',*,*,#124,.T.);
#160=ORIENTED_EDGE('',*,*,#125,.F.);
#161=ORIENTED_EDGE('',*,*,#126,.F.);
#162=ORIENTED_EDGE('',*,*,#124,.F.);
#163=ORIENTED_EDGE('',*,*,#127,.F.);
#164=ORIENTED_EDGE('',*,*,#123,.F.);
#165=ORIENTED_EDGE('',*,*,#128,.T.);
#166=ORIENTED_EDGE('',*,*,#129,.T.);
#167=ORIENTED_EDGE('',*,*,#125,.T.);
#168=ORIENTED_EDGE('',*,*,#126,.T.);
#169=ORIENTED_EDGE('',*,*,#129,.F.);
#170=ORIENTED_EDGE('',*,*,#130,.F.);
#171=ORIENTED_EDGE('',*,*,#128,.F.);
#172=ORIENTED_EDGE('',*,*,#131,.T.);
#173=ORIENTED_EDGE('',*,*,#132,.T.);
#174=ORIENTED_EDGE('',*,*,#133,.T.);
#175=ORIENTED_EDGE('',*,*,#130,.T.);
#176=ORIENTED_EDGE('',*,*,#133,.F.);
#177=ORIENTED_EDGE('',*,*,#134,.F.);
#178=ORIENTED_EDGE('',*,*,#135,.T.);
#179=ORIENTED_EDGE('',*,*,#131,.F.);
#180=ORIENTED_EDGE('',*,*,#132,.F.);
#181=ORIENTED_EDGE('',*,*,#135,.F.);
#182=ORIENTED_EDGE('',*,*,#136,.F.);
#183=ORIENTED_EDGE('',*,*,#137,.T.);
#184=ORIENTED_EDGE('',*,*,#138,.T.);
#185=ORIENTED_EDGE('',*,*,#139,.F.);
#186=ORIENTED_EDGE('',*,*,#140,.F.);
#187=ORIENTED_EDGE('',*,*,#138,.F.);
#188=ORIENTED_EDGE('',*,*,#137,.F.);
#189=ORIENTED_EDGE('',*,*,#141,.T.);
#190=ORIENTED_EDGE('',*,*,#142,.T.);
#191=ORIENTED_EDGE('',*,*,#141,.F.);
#192=ORIENTED_EDGE('',*,*,#134,.T.);
#193=ORIENTED_EDGE('',*,*,#143,.T.);
#194=ORIENTED_EDGE('',*,*,#144,.T.);
#195=ORIENTED_EDGE('',*,*,#143,.F.);
#196=ORIENTED_EDGE('',*,*,#136,.T.);
#197=ORIENTED_EDGE('',*,*,#142,.F.);
#198=ORIENTED_EDGE('',*,*,#144,.F.);
#199=ORIENTED_EDGE('',*,*,#145,.T.);
#200=ORIENTED_EDGE('',*,*,#146,.T.);
#201=ORIENTED_EDGE('',*,*,#147,.T.);
#202=ORIENTED_EDGE('',*,*,#139,.T.);
#203=ORIENTED_EDGE('',*,*,#140,.T.);
#204=ORIENTED_EDGE('',*,*,#147,.F.);
#205=ORIENTED_EDGE('',*,*,#148,.F.);
#206=ORIENTED_EDGE('',*,*,#149,.F.);
#207=ORIENTED_EDGE('',*,*,#150,.T.);
#208=ORIENTED_EDGE('',*,*,#145,.F.);
#209=ORIENTED_EDGE('',*,*,#146,.F.);
#210=ORIENTED_EDGE('',*,*,#150,.F.);
#211=ORIENTED_EDGE('',*,*,#127,.T.);
#212=ORIENTED_EDGE('',*,*,#151,.T.);
#213=ORIENTED_EDGE('',*,*,#148,.T.);
#214=ORIENTED_EDGE('',*,*,#149,.T.);
#215=ORIENTED_EDGE('',*,*,#151,.F.);
#216=CONICAL_SURFACE('',#255,7.15,0.78539816339745);
#217=CONICAL_SURFACE('',#264,7.15,0.78539816339745);
#218=CONICAL_SURFACE('',#268,8.45,0.785398163397445);
#219=CONICAL_SURFACE('',#285,9.85,0.785398163397449);
#220=CONICAL_SURFACE('',#291,9.85,0.785398163397447);
#221=ADVANCED_FACE('',(#27),#216,.F.);
#222=ADVANCED_FACE('',(#28),#23,.F.);
#223=ADVANCED_FACE('',(#29,#17),#20,.T.);
#224=ADVANCED_FACE('',(#30),#217,.F.);
#225=ADVANCED_FACE('',(#31,#18),#21,.T.);
#226=ADVANCED_FACE('',(#32),#218,.T.);
#227=ADVANCED_FACE('',(#33),#24,.T.);
#228=ADVANCED_FACE('',(#34),#15,.F.);
#229=ADVANCED_FACE('',(#35),#25,.T.);
#230=ADVANCED_FACE('',(#36),#16,.F.);
#231=ADVANCED_FACE('',(#37,#19),#22,.T.);
#232=ADVANCED_FACE('',(#38),#219,.T.);
#233=ADVANCED_FACE('',(#39),#26,.T.);
#234=ADVANCED_FACE('',(#40),#220,.T.);
#235=CLOSED_SHELL('',(#221,#222,#223,#224,#225,#226,#227,#228,#229,#230,
#231,#232,#233,#234));
#236=DERIVED_UNIT_ELEMENT(#238,1.);
#237=DERIVED_UNIT_ELEMENT(#450,-3.);
#238=(
MASS_UNIT()
NAMED_UNIT(*)
SI_UNIT($,.GRAM.)
);
#239=DERIVED_UNIT((#236,#237));
#240=MEASURE_REPRESENTATION_ITEM('density measure',
POSITIVE_RATIO_MEASURE(1.),#239);
#241=PROPERTY_DEFINITION_REPRESENTATION(#246,#243);
#242=PROPERTY_DEFINITION_REPRESENTATION(#247,#244);
#243=REPRESENTATION('material name',(#245),#447);
#244=REPRESENTATION('density',(#240),#447);
#245=DESCRIPTIVE_REPRESENTATION_ITEM('Generisch','Generisch');
#246=PROPERTY_DEFINITION('material property','material name',#457);
#247=PROPERTY_DEFINITION('material property','density of part',#457);
#248=DATE_TIME_ROLE('creation_date');
#249=APPLIED_DATE_AND_TIME_ASSIGNMENT(#250,#248,(#457));
#250=DATE_AND_TIME(#251,#252);
#251=CALENDAR_DATE(2021,22,6);
#252=LOCAL_TIME(0,0,0.,#253);
#253=COORDINATED_UNIVERSAL_TIME_OFFSET(0,0,.BEHIND.);
#254=AXIS2_PLACEMENT_3D('placement',#377,#292,#293);
#255=AXIS2_PLACEMENT_3D('',#378,#294,#295);
#256=AXIS2_PLACEMENT_3D('',#381,#296,#297);
#257=AXIS2_PLACEMENT_3D('',#382,#298,#299);
#258=AXIS2_PLACEMENT_3D('',#385,#301,#302);
#259=AXIS2_PLACEMENT_3D('',#386,#303,#304);
#260=AXIS2_PLACEMENT_3D('',#390,#306,#307);
#261=AXIS2_PLACEMENT_3D('',#391,#308,#309);
#262=AXIS2_PLACEMENT_3D('',#392,#310,#311);
#263=AXIS2_PLACEMENT_3D('',#394,#312,#313);
#264=AXIS2_PLACEMENT_3D('',#395,#314,#315);
#265=AXIS2_PLACEMENT_3D('',#397,#316,#317);
#266=AXIS2_PLACEMENT_3D('',#399,#319,#320);
#267=AXIS2_PLACEMENT_3D('',#401,#321,#322);
#268=AXIS2_PLACEMENT_3D('',#402,#323,#324);
#269=AXIS2_PLACEMENT_3D('',#405,#325,#326);
#270=AXIS2_PLACEMENT_3D('',#406,#327,#328);
#271=AXIS2_PLACEMENT_3D('',#408,#330,#331);
#272=AXIS2_PLACEMENT_3D('',#411,#332,#333);
#273=AXIS2_PLACEMENT_3D('',#413,#335,#336);
#274=AXIS2_PLACEMENT_3D('',#414,#337,#338);
#275=AXIS2_PLACEMENT_3D('',#416,#339,#340);
#276=AXIS2_PLACEMENT_3D('',#418,#341,#342);
#277=AXIS2_PLACEMENT_3D('',#420,#343,#344);
#278=AXIS2_PLACEMENT_3D('',#421,#345,#346);
#279=AXIS2_PLACEMENT_3D('',#422,#347,#348);
#280=AXIS2_PLACEMENT_3D('',#425,#350,#351);
#281=AXIS2_PLACEMENT_3D('',#426,#352,#353);
#282=AXIS2_PLACEMENT_3D('',#428,#354,#355);
#283=AXIS2_PLACEMENT_3D('',#429,#356,#357);
#284=AXIS2_PLACEMENT_3D('',#430,#358,#359);
#285=AXIS2_PLACEMENT_3D('',#431,#360,#361);
#286=AXIS2_PLACEMENT_3D('',#434,#362,#363);
#287=AXIS2_PLACEMENT_3D('',#435,#364,#365);
#288=AXIS2_PLACEMENT_3D('',#437,#367,#368);
#289=AXIS2_PLACEMENT_3D('',#440,#369,#370);
#290=AXIS2_PLACEMENT_3D('',#441,#371,#372);
#291=AXIS2_PLACEMENT_3D('',#443,#374,#375);
#292=DIRECTION('axis',(0.,0.,1.));
#293=DIRECTION('refdir',(1.,0.,0.));
#294=DIRECTION('center_axis',(1.,0.,0.));
#295=DIRECTION('ref_axis',(0.,-1.,0.));
#296=DIRECTION('center_axis',(-1.,0.,0.));
#297=DIRECTION('ref_axis',(0.,-1.,0.));
#298=DIRECTION('center_axis',(-1.,0.,0.));
#299=DIRECTION('ref_axis',(0.,-1.,0.));
#300=DIRECTION('',(0.707106781186546,0.707106781186549,-8.65956056235495E-17));
#301=DIRECTION('center_axis',(1.,0.,0.));
#302=DIRECTION('ref_axis',(0.,-1.,0.));
#303=DIRECTION('center_axis',(1.,0.,0.));
#304=DIRECTION('ref_axis',(0.,1.,0.));
#305=DIRECTION('',(-1.,0.,0.));
#306=DIRECTION('center_axis',(1.,0.,0.));
#307=DIRECTION('ref_axis',(0.,-1.,0.));
#308=DIRECTION('center_axis',(1.,0.,0.));
#309=DIRECTION('ref_axis',(0.,-1.,0.));
#310=DIRECTION('center_axis',(1.,0.,0.));
#311=DIRECTION('ref_axis',(0.,0.,-1.));
#312=DIRECTION('center_axis',(-1.,0.,0.));
#313=DIRECTION('ref_axis',(0.,-1.,0.));
#314=DIRECTION('center_axis',(-1.,0.,0.));
#315=DIRECTION('ref_axis',(0.,-1.,0.));
#316=DIRECTION('center_axis',(-1.,0.,0.));
#317=DIRECTION('ref_axis',(0.,-1.,0.));
#318=DIRECTION('',(0.707106781186546,-0.707106781186549,8.65956056235495E-17));
#319=DIRECTION('center_axis',(-1.,0.,0.));
#320=DIRECTION('ref_axis',(0.,0.,1.));
#321=DIRECTION('center_axis',(1.,0.,0.));
#322=DIRECTION('ref_axis',(0.,-1.,0.));
#323=DIRECTION('center_axis',(1.,0.,0.));
#324=DIRECTION('ref_axis',(0.,-1.,0.));
#325=DIRECTION('center_axis',(-1.,0.,0.));
#326=DIRECTION('ref_axis',(0.,-1.,0.));
#327=DIRECTION('center_axis',(-1.,0.,0.));
#328=DIRECTION('ref_axis',(0.,-1.,0.));
#329=DIRECTION('',(-0.70710678118655,-0.707106781186545,-8.6595605623549E-17));
#330=DIRECTION('center_axis',(1.,0.,0.));
#331=DIRECTION('ref_axis',(0.,1.,0.));
#332=DIRECTION('center_axis',(1.,0.,0.));
#333=DIRECTION('ref_axis',(0.,-1.,1.83697019872103E-16));
#334=DIRECTION('',(-1.,0.,0.));
#335=DIRECTION('center_axis',(1.,0.,0.));
#336=DIRECTION('ref_axis',(0.,-1.,1.83697019872103E-16));
#337=DIRECTION('center_axis',(1.,0.,0.));
#338=DIRECTION('ref_axis',(0.,1.,-1.74393424900431E-16));
#339=DIRECTION('center_axis',(1.,0.,0.));
#340=DIRECTION('ref_axis',(0.,1.,-1.74393424900431E-16));
#341=DIRECTION('center_axis',(0.,-5.19287449856958E-17,-1.));
#342=DIRECTION('ref_axis',(0.,-1.,5.19287449856958E-17));
#343=DIRECTION('center_axis',(1.,0.,0.));
#344=DIRECTION('ref_axis',(0.,-1.,0.));
#345=DIRECTION('center_axis',(1.,0.,0.));
#346=DIRECTION('ref_axis',(0.,-1.,0.));
#347=DIRECTION('center_axis',(1.,0.,0.));
#348=DIRECTION('ref_axis',(0.,1.,0.));
#349=DIRECTION('',(-1.,0.,0.));
#350=DIRECTION('center_axis',(1.,0.,0.));
#351=DIRECTION('ref_axis',(0.,0.,-1.));
#352=DIRECTION('center_axis',(1.,0.,0.));
#353=DIRECTION('ref_axis',(0.,0.,-1.));
#354=DIRECTION('center_axis',(0.,-1.,-1.22464679914735E-16));
#355=DIRECTION('ref_axis',(0.,-1.22464679914735E-16,1.));
#356=DIRECTION('center_axis',(-1.,0.,0.));
#357=DIRECTION('ref_axis',(0.,-1.,1.83697019872103E-16));
#358=DIRECTION('center_axis',(-1.,0.,0.));
#359=DIRECTION('ref_axis',(0.,0.,1.));
#360=DIRECTION('center_axis',(1.,0.,0.));
#361=DIRECTION('ref_axis',(0.,-1.,0.));
#362=DIRECTION('center_axis',(-1.,0.,0.));
#363=DIRECTION('ref_axis',(0.,-1.,0.));
#364=DIRECTION('center_axis',(-1.,0.,0.));
#365=DIRECTION('ref_axis',(0.,-1.,0.));
#366=DIRECTION('',(-0.707106781186547,-0.707106781186548,-8.65956056235494E-17));
#367=DIRECTION('center_axis',(1.,0.,0.));
#368=DIRECTION('ref_axis',(0.,1.,0.));
#369=DIRECTION('center_axis',(1.,0.,0.));
#370=DIRECTION('ref_axis',(0.,-1.,0.));
#371=DIRECTION('center_axis',(1.,0.,0.));
#372=DIRECTION('ref_axis',(0.,-1.,0.));
#373=DIRECTION('',(-1.,0.,0.));
#374=DIRECTION('center_axis',(-1.,0.,0.));
#375=DIRECTION('ref_axis',(0.,-1.,0.));
#376=DIRECTION('',(-0.707106781186548,0.707106781186547,8.65956056235492E-17));
#377=CARTESIAN_POINT('',(0.,0.,0.));
#378=CARTESIAN_POINT('Origin',(-0.150000000000002,0.,0.));
#379=CARTESIAN_POINT('',(-0.300000000000002,7.,-8.57252759403147E-16));
#380=CARTESIAN_POINT('',(-0.300000000000002,-7.,-8.57252759403147E-16));
#381=CARTESIAN_POINT('Origin',(-0.300000000000002,0.,0.));
#382=CARTESIAN_POINT('Origin',(-0.300000000000002,0.,0.));
#383=CARTESIAN_POINT('',(-2.15105711021124E-15,7.3,8.93992163377568E-16));
#384=CARTESIAN_POINT('',(-0.150000000000002,7.15,-8.75622461390358E-16));
#385=CARTESIAN_POINT('Origin',(-2.15105711021124E-15,0.,0.));
#386=CARTESIAN_POINT('Origin',(-9.,0.,0.));
#387=CARTESIAN_POINT('',(-17.7,-7.,-8.57252759403147E-16));
#388=CARTESIAN_POINT('',(-9.,-7.,-8.57252759403147E-16));
#389=CARTESIAN_POINT('',(-17.7,7.,8.57252759403147E-16));
#390=CARTESIAN_POINT('Origin',(-17.7,0.,0.));
#391=CARTESIAN_POINT('Origin',(-17.7,0.,0.));
#392=CARTESIAN_POINT('Origin',(-2.14313189850787E-15,7.,0.));
#393=CARTESIAN_POINT('',(-2.08166817117217E-15,9.25,-1.1327982892113E-15));
#394=CARTESIAN_POINT('Origin',(-2.08166817117217E-15,0.,0.));
#395=CARTESIAN_POINT('Origin',(-17.85,0.,0.));
#396=CARTESIAN_POINT('',(-18.,7.3,-8.93992163377568E-16));
#397=CARTESIAN_POINT('Origin',(-18.,0.,0.));
#398=CARTESIAN_POINT('',(-17.85,7.15,-8.75622461390357E-16));
#399=CARTESIAN_POINT('Origin',(-18.,8.6,0.));
#400=CARTESIAN_POINT('',(-18.,8.3,1.0164568432923E-15));
#401=CARTESIAN_POINT('Origin',(-18.,0.,0.));
#402=CARTESIAN_POINT('Origin',(-17.85,0.,0.));
#403=CARTESIAN_POINT('',(-17.7,8.6,-1.05319624726672E-15));
#404=CARTESIAN_POINT('',(-17.7,-8.6,-1.05319624726672E-15));
#405=CARTESIAN_POINT('Origin',(-17.7,0.,0.));
#406=CARTESIAN_POINT('Origin',(-17.7,0.,0.));
#407=CARTESIAN_POINT('',(-17.85,8.45,1.03482654527951E-15));
#408=CARTESIAN_POINT('Origin',(-15.5,0.,0.));
#409=CARTESIAN_POINT('',(-13.3,-8.6,-1.05319624726672E-15));
#410=CARTESIAN_POINT('',(-13.3,-1.05319624726672E-15,8.6));
#411=CARTESIAN_POINT('Origin',(-13.3,0.,0.));
#412=CARTESIAN_POINT('',(-15.5,-8.6,-1.05319624726672E-15));
#413=CARTESIAN_POINT('Origin',(-13.3,0.,0.));
#414=CARTESIAN_POINT('Origin',(-8.79580398915498,0.,0.));
#415=CARTESIAN_POINT('',(-8.79580398915498,-9.,4.67358704871262E-16));
#416=CARTESIAN_POINT('Origin',(-8.79580398915498,0.,0.));
#417=CARTESIAN_POINT('',(-8.5,-9.25,4.80340891117686E-16));
#418=CARTESIAN_POINT('Origin',(-8.79580398915498,-9.3,4.82937328366971E-16));
#419=CARTESIAN_POINT('',(-8.5,9.25,1.1327982892113E-15));
#420=CARTESIAN_POINT('Origin',(-8.5,0.,0.));
#421=CARTESIAN_POINT('Origin',(-8.5,0.,0.));
#422=CARTESIAN_POINT('Origin',(-10.75,0.,0.));
#423=CARTESIAN_POINT('',(-13.,-9.,-1.10218211923262E-15));
#424=CARTESIAN_POINT('',(-10.75,-9.,-1.10218211923262E-15));
#425=CARTESIAN_POINT('Origin',(-13.,0.,0.));
#426=CARTESIAN_POINT('Origin',(-13.3,0.,0.));
#427=CARTESIAN_POINT('',(-13.,-1.08993565124114E-15,8.9));
#428=CARTESIAN_POINT('Origin',(-13.3,-1.08993565124114E-15,8.9));
#429=CARTESIAN_POINT('Origin',(-13.,0.,0.));
#430=CARTESIAN_POINT('Origin',(-13.,9.,0.));
#431=CARTESIAN_POINT('Origin',(-7.9,0.,0.));
#432=CARTESIAN_POINT('',(-7.3,10.45,-1.27975590510898E-15));
#433=CARTESIAN_POINT('',(-7.3,-10.45,-1.27975590510898E-15));
#434=CARTESIAN_POINT('Origin',(-7.3,0.,0.));
#435=CARTESIAN_POINT('Origin',(-7.3,0.,0.));
#436=CARTESIAN_POINT('',(-7.9,9.85,1.20627709716014E-15));
#437=CARTESIAN_POINT('Origin',(-4.25,0.,0.));
#438=CARTESIAN_POINT('',(-1.2,10.45,1.27975590510898E-15));
#439=CARTESIAN_POINT('',(-1.2,-10.45,-1.27975590510898E-15));
#440=CARTESIAN_POINT('Origin',(-1.2,0.,0.));
#441=CARTESIAN_POINT('Origin',(-1.2,0.,0.));
#442=CARTESIAN_POINT('',(-4.25,-10.45,-1.27975590510898E-15));
#443=CARTESIAN_POINT('Origin',(-0.600000000000002,0.,0.));
#444=CARTESIAN_POINT('',(-0.600000000000002,9.85,1.20627709716014E-15));
#445=UNCERTAINTY_MEASURE_WITH_UNIT(LENGTH_MEASURE(0.01),#449,
'DISTANCE_ACCURACY_VALUE',
'Maximum model space distance between geometric entities at asserted c
onnectivities');
#446=UNCERTAINTY_MEASURE_WITH_UNIT(LENGTH_MEASURE(0.01),#449,
'DISTANCE_ACCURACY_VALUE',
'Maximum model space distance between geometric entities at asserted c
onnectivities');
#447=(
GEOMETRIC_REPRESENTATION_CONTEXT(3)
GLOBAL_UNCERTAINTY_ASSIGNED_CONTEXT((#445))
GLOBAL_UNIT_ASSIGNED_CONTEXT((#449,#451,#452))
REPRESENTATION_CONTEXT('','3D')
);
#448=(
GEOMETRIC_REPRESENTATION_CONTEXT(3)
GLOBAL_UNCERTAINTY_ASSIGNED_CONTEXT((#446))
GLOBAL_UNIT_ASSIGNED_CONTEXT((#449,#451,#452))
REPRESENTATION_CONTEXT('','3D')
);
#449=(
LENGTH_UNIT()
NAMED_UNIT(*)
SI_UNIT(.MILLI.,.METRE.)
);
#450=(
LENGTH_UNIT()
NAMED_UNIT(*)
SI_UNIT(.CENTI.,.METRE.)
);
#451=(
NAMED_UNIT(*)
PLANE_ANGLE_UNIT()
SI_UNIT($,.RADIAN.)
);
#452=(
NAMED_UNIT(*)
SI_UNIT($,.STERADIAN.)
SOLID_ANGLE_UNIT()
);
#453=SHAPE_DEFINITION_REPRESENTATION(#454,#455);
#454=PRODUCT_DEFINITION_SHAPE('',$,#457);
#455=SHAPE_REPRESENTATION('',(#254),#447);
#456=PRODUCT_DEFINITION_CONTEXT('part definition',#461,'design');
#457=PRODUCT_DEFINITION('3D_R666-SG-17.2-DN15_17113715',
'3D_R666-SG-17.2-DN15_17113715',#458,#456);
#458=PRODUCT_DEFINITION_FORMATION('',$,#463);
#459=PRODUCT_RELATED_PRODUCT_CATEGORY('3D_R666-SG-17.2-DN15_17113715',
'3D_R666-SG-17.2-DN15_17113715',(#463));
#460=APPLICATION_PROTOCOL_DEFINITION('international standard',
'automotive_design',2009,#461);
#461=APPLICATION_CONTEXT(
'Core Data for Automotive Mechanical Design Process');
#462=PRODUCT_CONTEXT('part definition',#461,'mechanical');
#463=PRODUCT('3D_R666-SG-17.2-DN15_17113715',
'3D_R666-SG-17.2-DN15_17113715',$,(#462));
#464=PRESENTATION_STYLE_ASSIGNMENT((#465));
#465=SURFACE_STYLE_USAGE(.BOTH.,#468);
#466=SURFACE_STYLE_RENDERING_WITH_PROPERTIES($,#472,(#467));
#467=SURFACE_STYLE_TRANSPARENT(0.);
#468=SURFACE_SIDE_STYLE('',(#469,#466));
#469=SURFACE_STYLE_FILL_AREA(#470);
#470=FILL_AREA_STYLE('',(#471));
#471=FILL_AREA_STYLE_COLOUR('',#472);
#472=COLOUR_RGB('',0.749019607843137,0.749019607843137,0.749019607843137);
ENDSEC;
END-ISO-10303-21;
