ISO-10303-21;
HEADER;
FILE_DESCRIPTION(('STEP AP214'),'1');
FILE_NAME('V-Boerdel-DN32.stp','2023-07-13T07:43:17',(' '),(' '),'Spatial InterOp 3D',' ',' ');
FILE_SCHEMA(('automotive_design'));
ENDSEC;
DATA;
#1=PRODUCT_DEFINITION_CONTEXT('',#16,'design');
#2=APPLICATION_PROTOCOL_DEFINITION('INTERNATIONAL STANDARD','automotive_design',1994,#16);
#3=PRODUCT_CATEGORY_RELATIONSHIP('NONE','NONE',#17,#18);
#4=SHAPE_DEFINITION_REPRESENTATION(#19,#20);
#5=PRODUCT_DEFINITION_CONTEXT('',#21,'design');
#6=APPLICATION_PROTOCOL_DEFINITION('INTERNATIONAL STANDARD','automotive_design',1994,#21);
#7=PRODUCT_CATEGORY_RELATIONSHIP('NONE','NONE',#22,#23);
#8=CONTEXT_DEPENDENT_SHAPE_REPRESENTATION(#24,#25);
#9=SHAPE_DEFINITION_REPRESENTATION(#26,#27);
#10=SHAPE_REPRESENTATION_RELATIONSHIP('NONE','NONE',#27,#28);
#11=MECHANICAL_DESIGN_GEOMETRIC_PRESENTATION_REPRESENTATION(' ',(#29,#30,#31,#32,#33,#34,#35,#36,#37,#38,#39,#40,#41,#42),#12);
#12= (GEOMETRIC_REPRESENTATION_CONTEXT(3)GLOBAL_UNCERTAINTY_ASSIGNED_CONTEXT((#45))GLOBAL_UNIT_ASSIGNED_CONTEXT((#47,#48,#49))REPRESENTATION_CONTEXT('NONE','WORKSPACE'));
#16=APPLICATION_CONTEXT(' ');
#17=PRODUCT_CATEGORY('part','NONE');
#18=PRODUCT_RELATED_PRODUCT_CATEGORY('detail',' ',(#51));
#19=PRODUCT_DEFINITION_SHAPE('NONE','NONE',#52);
#20=SHAPE_REPRESENTATION('3D-Arbeitsebene',(#53,#54),#55);
#21=APPLICATION_CONTEXT(' ');
#22=PRODUCT_CATEGORY('part','NONE');
#23=PRODUCT_RELATED_PRODUCT_CATEGORY('detail',' ',(#56));
#24=(REPRESENTATION_RELATIONSHIP('','',#27,#20)REPRESENTATION_RELATIONSHIP_WITH_TRANSFORMATION(#59)SHAPE_REPRESENTATION_RELATIONSHIP());
#25=PRODUCT_DEFINITION_SHAPE('NAUO-PROD-DEF','NAUO-PROD-DEF',#61);
#26=PRODUCT_DEFINITION_SHAPE('NONE','NONE',#62);
#27=SHAPE_REPRESENTATION('3D-Arbeitsebene',(#53),#55);
#28=ADVANCED_BREP_SHAPE_REPRESENTATION('',(#63),#12);
#29=STYLED_ITEM('',(#64),#65);
#30=STYLED_ITEM('',(#66),#67);
#31=STYLED_ITEM('',(#68),#69);
#32=STYLED_ITEM('',(#70),#71);
#33=STYLED_ITEM('',(#72),#73);
#34=STYLED_ITEM('',(#74),#75);
#35=STYLED_ITEM('',(#76),#77);
#36=STYLED_ITEM('',(#78),#79);
#37=STYLED_ITEM('',(#80),#81);
#38=STYLED_ITEM('',(#82),#83);
#39=STYLED_ITEM('',(#84),#85);
#40=STYLED_ITEM('',(#86),#87);
#41=STYLED_ITEM('',(#88),#89);
#42=STYLED_ITEM('',(#90),#63);
#45=UNCERTAINTY_MEASURE_WITH_UNIT(LENGTH_MEASURE(1.0E-006),#47,'','');
#47= (CONVERSION_BASED_UNIT('MILLIMETRE',#93)LENGTH_UNIT()NAMED_UNIT(#96));
#48= (NAMED_UNIT(#98)PLANE_ANGLE_UNIT()SI_UNIT($,.RADIAN.));
#49= (NAMED_UNIT(#98)SOLID_ANGLE_UNIT()SI_UNIT($,.STERADIAN.));
#51=PRODUCT('3D-Arbeitsebene','3D-Arbeitsebene','PART-3D-Arbeitsebene-DESC',(#104));
#52=PRODUCT_DEFINITION('3D-Arbeitsebene','3D-Arbeitsebene',#105,#1);
#53=AXIS2_PLACEMENT_3D('',#106,#107,#108);
#54=AXIS2_PLACEMENT_3D('',#109,#110,#111);
#55= (GEOMETRIC_REPRESENTATION_CONTEXT(3)GLOBAL_UNCERTAINTY_ASSIGNED_CONTEXT((#114))GLOBAL_UNIT_ASSIGNED_CONTEXT((#116,#117,#118))REPRESENTATION_CONTEXT('NONE','WORKSPACE'));
#56=PRODUCT('3D-Arbeitsebene','3D-Arbeitsebene','PART-3D-Arbeitsebene-DESC',(#120));
#59=ITEM_DEFINED_TRANSFORMATION('','',#53,#54);
#61=NEXT_ASSEMBLY_USAGE_OCCURRENCE('3D-Arbeitsebene','3D-Arbeitsebene','3D-Arbeitsebene',#52,#62,$);
#62=PRODUCT_DEFINITION('3D-Arbeitsebene','3D-Arbeitsebene',#121,#5);
#63=MANIFOLD_SOLID_BREP('',#122);
#64=PRESENTATION_STYLE_ASSIGNMENT((#123));
#65=ADVANCED_FACE('',(#124),#125,.T.);
#66=PRESENTATION_STYLE_ASSIGNMENT((#126));
#67=ADVANCED_FACE('',(#127),#128,.F.);
#68=PRESENTATION_STYLE_ASSIGNMENT((#129));
#69=ADVANCED_FACE('',(#130),#131,.T.);
#70=PRESENTATION_STYLE_ASSIGNMENT((#132));
#71=ADVANCED_FACE('',(#133),#134,.T.);
#72=PRESENTATION_STYLE_ASSIGNMENT((#135));
#73=ADVANCED_FACE('',(#136),#137,.F.);
#74=PRESENTATION_STYLE_ASSIGNMENT((#138));
#75=ADVANCED_FACE('',(#139),#140,.F.);
#76=PRESENTATION_STYLE_ASSIGNMENT((#141));
#77=ADVANCED_FACE('',(#142,#143),#144,.T.);
#78=PRESENTATION_STYLE_ASSIGNMENT((#145));
#79=ADVANCED_FACE('',(#146),#147,.T.);
#80=PRESENTATION_STYLE_ASSIGNMENT((#148));
#81=ADVANCED_FACE('',(#149,#150),#151,.T.);
#82=PRESENTATION_STYLE_ASSIGNMENT((#152));
#83=ADVANCED_FACE('',(#153),#154,.T.);
#84=PRESENTATION_STYLE_ASSIGNMENT((#155));
#85=ADVANCED_FACE('',(#156),#157,.F.);
#86=PRESENTATION_STYLE_ASSIGNMENT((#158));
#87=ADVANCED_FACE('',(#159,#160),#161,.T.);
#88=PRESENTATION_STYLE_ASSIGNMENT((#162));
#89=ADVANCED_FACE('',(#163),#164,.T.);
#90=PRESENTATION_STYLE_ASSIGNMENT((#165));
#93=LENGTH_MEASURE_WITH_UNIT(LENGTH_MEASURE(1.0),#166);
#96=DIMENSIONAL_EXPONENTS(1.0,0.0,0.0,0.0,0.0,0.0,0.0);
#98=DIMENSIONAL_EXPONENTS(0.0,0.0,0.0,0.0,0.0,0.0,0.0);
#104=PRODUCT_CONTEXT('',#16,'mechanical');
#105=PRODUCT_DEFINITION_FORMATION_WITH_SPECIFIED_SOURCE(' ','NONE',#51,.NOT_KNOWN.);
#106=CARTESIAN_POINT('',(0.0,0.0,0.0));
#107=DIRECTION('',(0.0,0.0,1.0));
#108=DIRECTION('',(1.0,0.0,0.0));
#109=CARTESIAN_POINT('',(0.0,0.0,0.0));
#110=DIRECTION('',(0.0,0.0,1.0));
#111=DIRECTION('',(1.0,0.0,0.0));
#114=UNCERTAINTY_MEASURE_WITH_UNIT(LENGTH_MEASURE(1.0E-006),#116,'','');
#116= (CONVERSION_BASED_UNIT('MILLIMETRE',#169)LENGTH_UNIT()NAMED_UNIT(#172));
#117= (NAMED_UNIT(#174)PLANE_ANGLE_UNIT()SI_UNIT($,.RADIAN.));
#118= (NAMED_UNIT(#174)SOLID_ANGLE_UNIT()SI_UNIT($,.STERADIAN.));
#120=PRODUCT_CONTEXT('',#21,'mechanical');
#121=PRODUCT_DEFINITION_FORMATION_WITH_SPECIFIED_SOURCE(' ','NONE',#56,.NOT_KNOWN.);
#122=CLOSED_SHELL('',(#65,#67,#69,#71,#73,#75,#77,#79,#81,#83,#85,#87,#89));
#123=SURFACE_STYLE_USAGE(.BOTH.,#180);
#124=FACE_OUTER_BOUND('',#181,.T.);
#125=CYLINDRICAL_SURFACE('',#182,21.2);
#126=SURFACE_STYLE_USAGE(.BOTH.,#183);
#127=FACE_OUTER_BOUND('',#184,.T.);
#128=CYLINDRICAL_SURFACE('',#185,18.5999999999999);
#129=SURFACE_STYLE_USAGE(.BOTH.,#186);
#130=FACE_OUTER_BOUND('',#187,.T.);
#131=TOROIDAL_SURFACE('',#188,26.0999999999999,7.5);
#132=SURFACE_STYLE_USAGE(.BOTH.,#189);
#133=FACE_OUTER_BOUND('',#190,.T.);
#134=CYLINDRICAL_SURFACE('',#191,39.0);
#135=SURFACE_STYLE_USAGE(.BOTH.,#192);
#136=FACE_OUTER_BOUND('',#193,.T.);
#137=TOROIDAL_SURFACE('',#194,25.2,4.0);
#138=SURFACE_STYLE_USAGE(.BOTH.,#195);
#139=FACE_OUTER_BOUND('',#196,.T.);
#140=TOROIDAL_SURFACE('',#197,25.2,4.0);
#141=SURFACE_STYLE_USAGE(.BOTH.,#198);
#142=FACE_OUTER_BOUND('',#199,.T.);
#143=FACE_BOUND('',#200,.T.);
#144=PLANE('',#201);
#145=SURFACE_STYLE_USAGE(.BOTH.,#202);
#146=FACE_OUTER_BOUND('',#203,.T.);
#147=CYLINDRICAL_SURFACE('',#204,39.0);
#148=SURFACE_STYLE_USAGE(.BOTH.,#205);
#149=FACE_BOUND('',#206,.T.);
#150=FACE_OUTER_BOUND('',#207,.T.);
#151=PLANE('',#208);
#152=SURFACE_STYLE_USAGE(.BOTH.,#209);
#153=FACE_OUTER_BOUND('',#210,.T.);
#154=TOROIDAL_SURFACE('',#211,26.0999999999999,7.5);
#155=SURFACE_STYLE_USAGE(.BOTH.,#212);
#156=FACE_OUTER_BOUND('',#213,.T.);
#157=CYLINDRICAL_SURFACE('',#214,18.5999999999999);
#158=SURFACE_STYLE_USAGE(.BOTH.,#215);
#159=FACE_OUTER_BOUND('',#216,.T.);
#160=FACE_BOUND('',#217,.T.);
#161=PLANE('',#218);
#162=SURFACE_STYLE_USAGE(.BOTH.,#219);
#163=FACE_OUTER_BOUND('',#220,.T.);
#164=CYLINDRICAL_SURFACE('',#221,21.2);
#165=SURFACE_STYLE_USAGE(.BOTH.,#222);
#166= (NAMED_UNIT(#96)LENGTH_UNIT()SI_UNIT(.MILLI.,.METRE.));
#169=LENGTH_MEASURE_WITH_UNIT(LENGTH_MEASURE(1.0),#224);
#172=DIMENSIONAL_EXPONENTS(1.0,0.0,0.0,0.0,0.0,0.0,0.0);
#174=DIMENSIONAL_EXPONENTS(0.0,0.0,0.0,0.0,0.0,0.0,0.0);
#180=SURFACE_SIDE_STYLE('',(#225));
#181=EDGE_LOOP('',(#226,#227,#228,#229,#230));
#182=AXIS2_PLACEMENT_3D('',#231,#232,#233);
#183=SURFACE_SIDE_STYLE('',(#234));
#184=EDGE_LOOP('',(#235,#236,#237,#238,#239));
#185=AXIS2_PLACEMENT_3D('',#240,#241,#242);
#186=SURFACE_SIDE_STYLE('',(#243));
#187=EDGE_LOOP('',(#244,#245,#246,#247,#248));
#188=AXIS2_PLACEMENT_3D('',#249,#250,#251);
#189=SURFACE_SIDE_STYLE('',(#252));
#190=EDGE_LOOP('',(#253,#254,#255,#256));
#191=AXIS2_PLACEMENT_3D('',#257,#258,#259);
#192=SURFACE_SIDE_STYLE('',(#260));
#193=EDGE_LOOP('',(#261,#262,#263,#264,#265,#266));
#194=AXIS2_PLACEMENT_3D('',#267,#268,#269);
#195=SURFACE_SIDE_STYLE('',(#270));
#196=EDGE_LOOP('',(#271,#272,#273,#274,#275));
#197=AXIS2_PLACEMENT_3D('',#276,#277,#278);
#198=SURFACE_SIDE_STYLE('',(#279));
#199=EDGE_LOOP('',(#280,#281));
#200=EDGE_LOOP('',(#282,#283,#284));
#201=AXIS2_PLACEMENT_3D('',#285,#286,#287);
#202=SURFACE_SIDE_STYLE('',(#288));
#203=EDGE_LOOP('',(#289,#290,#291,#292));
#204=AXIS2_PLACEMENT_3D('',#293,#294,#295);
#205=SURFACE_SIDE_STYLE('',(#296));
#206=EDGE_LOOP('',(#297,#298,#299));
#207=EDGE_LOOP('',(#300,#301));
#208=AXIS2_PLACEMENT_3D('',#302,#303,#304);
#209=SURFACE_SIDE_STYLE('',(#305));
#210=EDGE_LOOP('',(#306,#307,#308,#309,#310,#311));
#211=AXIS2_PLACEMENT_3D('',#312,#313,#314);
#212=SURFACE_SIDE_STYLE('',(#315));
#213=EDGE_LOOP('',(#316,#317,#318,#319,#320));
#214=AXIS2_PLACEMENT_3D('',#321,#322,#323);
#215=SURFACE_SIDE_STYLE('',(#324));
#216=EDGE_LOOP('',(#325,#326));
#217=EDGE_LOOP('',(#327,#328));
#218=AXIS2_PLACEMENT_3D('',#329,#330,#331);
#219=SURFACE_SIDE_STYLE('',(#332));
#220=EDGE_LOOP('',(#333,#334,#335,#336,#337));
#221=AXIS2_PLACEMENT_3D('',#338,#339,#340);
#222=SURFACE_SIDE_STYLE('',(#341));
#224= (NAMED_UNIT(#172)LENGTH_UNIT()SI_UNIT(.MILLI.,.METRE.));
#225=SURFACE_STYLE_FILL_AREA(#343);
#226=ORIENTED_EDGE('',*,*,#344,.F.);
#227=ORIENTED_EDGE('',*,*,#345,.T.);
#228=ORIENTED_EDGE('',*,*,#346,.F.);
#229=ORIENTED_EDGE('',*,*,#347,.F.);
#230=ORIENTED_EDGE('',*,*,#348,.F.);
#231=CARTESIAN_POINT('',(0.0,-11.25,0.0));
#232=DIRECTION('',(0.0,1.0,0.0));
#233=DIRECTION('',(-1.0,0.0,0.0));
#234=SURFACE_STYLE_FILL_AREA(#349);
#235=ORIENTED_EDGE('',*,*,#350,.F.);
#236=ORIENTED_EDGE('',*,*,#351,.F.);
#237=ORIENTED_EDGE('',*,*,#352,.F.);
#238=ORIENTED_EDGE('',*,*,#353,.T.);
#239=ORIENTED_EDGE('',*,*,#354,.T.);
#240=CARTESIAN_POINT('',(0.0,-11.25,0.0));
#241=DIRECTION('',(0.0,1.0,0.0));
#242=DIRECTION('',(-1.0,0.0,0.0));
#243=SURFACE_STYLE_FILL_AREA(#355);
#244=ORIENTED_EDGE('',*,*,#356,.F.);
#245=ORIENTED_EDGE('',*,*,#357,.T.);
#246=ORIENTED_EDGE('',*,*,#358,.F.);
#247=ORIENTED_EDGE('',*,*,#353,.F.);
#248=ORIENTED_EDGE('',*,*,#359,.F.);
#249=CARTESIAN_POINT('',(0.0,-7.49999999999997,0.0));
#250=DIRECTION('',(0.0,1.0,0.0));
#251=DIRECTION('',(0.0,0.0,1.0));
#252=SURFACE_STYLE_FILL_AREA(#360);
#253=ORIENTED_EDGE('',*,*,#361,.F.);
#254=ORIENTED_EDGE('',*,*,#362,.T.);
#255=ORIENTED_EDGE('',*,*,#363,.F.);
#256=ORIENTED_EDGE('',*,*,#364,.F.);
#257=CARTESIAN_POINT('',(0.0,-1.75,0.0));
#258=DIRECTION('',(0.0,1.0,0.0));
#259=DIRECTION('',(-1.0,0.0,0.0));
#260=SURFACE_STYLE_FILL_AREA(#365);
#261=ORIENTED_EDGE('',*,*,#366,.F.);
#262=ORIENTED_EDGE('',*,*,#367,.T.);
#263=ORIENTED_EDGE('',*,*,#348,.T.);
#264=ORIENTED_EDGE('',*,*,#368,.F.);
#265=ORIENTED_EDGE('',*,*,#369,.F.);
#266=ORIENTED_EDGE('',*,*,#370,.F.);
#267=CARTESIAN_POINT('',(0.0,-7.49999999999997,0.0));
#268=DIRECTION('',(0.0,1.0,0.0));
#269=DIRECTION('',(0.0,0.0,1.0));
#270=SURFACE_STYLE_FILL_AREA(#371);
#271=ORIENTED_EDGE('',*,*,#366,.T.);
#272=ORIENTED_EDGE('',*,*,#372,.F.);
#273=ORIENTED_EDGE('',*,*,#368,.T.);
#274=ORIENTED_EDGE('',*,*,#347,.T.);
#275=ORIENTED_EDGE('',*,*,#373,.T.);
#276=CARTESIAN_POINT('',(0.0,-7.49999999999997,0.0));
#277=DIRECTION('',(0.0,1.0,0.0));
#278=DIRECTION('',(0.0,0.0,1.0));
#279=SURFACE_STYLE_FILL_AREA(#374);
#280=ORIENTED_EDGE('',*,*,#362,.F.);
#281=ORIENTED_EDGE('',*,*,#375,.F.);
#282=ORIENTED_EDGE('',*,*,#369,.T.);
#283=ORIENTED_EDGE('',*,*,#372,.T.);
#284=ORIENTED_EDGE('',*,*,#370,.T.);
#285=CARTESIAN_POINT('',(-32.1,-3.5,0.0));
#286=DIRECTION('',(0.0,-1.0,0.0));
#287=DIRECTION('',(1.0,0.0,0.0));
#288=SURFACE_STYLE_FILL_AREA(#376);
#289=ORIENTED_EDGE('',*,*,#361,.T.);
#290=ORIENTED_EDGE('',*,*,#377,.F.);
#291=ORIENTED_EDGE('',*,*,#363,.T.);
#292=ORIENTED_EDGE('',*,*,#375,.T.);
#293=CARTESIAN_POINT('',(0.0,-1.75,0.0));
#294=DIRECTION('',(0.0,1.0,0.0));
#295=DIRECTION('',(-1.0,0.0,0.0));
#296=SURFACE_STYLE_FILL_AREA(#378);
#297=ORIENTED_EDGE('',*,*,#379,.F.);
#298=ORIENTED_EDGE('',*,*,#380,.F.);
#299=ORIENTED_EDGE('',*,*,#357,.F.);
#300=ORIENTED_EDGE('',*,*,#364,.T.);
#301=ORIENTED_EDGE('',*,*,#377,.T.);
#302=CARTESIAN_POINT('',(-32.55,1.4210854715202E-014,0.0));
#303=DIRECTION('',(-2.20323328917859E-015,1.0,0.0));
#304=DIRECTION('',(-1.0,-2.20323328917859E-015,0.0));
#305=SURFACE_STYLE_FILL_AREA(#381);
#306=ORIENTED_EDGE('',*,*,#356,.T.);
#307=ORIENTED_EDGE('',*,*,#382,.F.);
#308=ORIENTED_EDGE('',*,*,#354,.F.);
#309=ORIENTED_EDGE('',*,*,#358,.T.);
#310=ORIENTED_EDGE('',*,*,#380,.T.);
#311=ORIENTED_EDGE('',*,*,#379,.T.);
#312=CARTESIAN_POINT('',(0.0,-7.49999999999997,0.0));
#313=DIRECTION('',(0.0,1.0,0.0));
#314=DIRECTION('',(0.0,0.0,1.0));
#315=SURFACE_STYLE_FILL_AREA(#383);
#316=ORIENTED_EDGE('',*,*,#350,.T.);
#317=ORIENTED_EDGE('',*,*,#382,.T.);
#318=ORIENTED_EDGE('',*,*,#359,.T.);
#319=ORIENTED_EDGE('',*,*,#352,.T.);
#320=ORIENTED_EDGE('',*,*,#384,.F.);
#321=CARTESIAN_POINT('',(0.0,-11.25,0.0));
#322=DIRECTION('',(0.0,1.0,0.0));
#323=DIRECTION('',(-1.0,0.0,0.0));
#324=SURFACE_STYLE_FILL_AREA(#385);
#325=ORIENTED_EDGE('',*,*,#345,.F.);
#326=ORIENTED_EDGE('',*,*,#386,.F.);
#327=ORIENTED_EDGE('',*,*,#384,.T.);
#328=ORIENTED_EDGE('',*,*,#351,.T.);
#329=CARTESIAN_POINT('',(-19.9,-15.0,0.0));
#330=DIRECTION('',(0.0,-1.0,0.0));
#331=DIRECTION('',(1.0,0.0,0.0));
#332=SURFACE_STYLE_FILL_AREA(#387);
#333=ORIENTED_EDGE('',*,*,#344,.T.);
#334=ORIENTED_EDGE('',*,*,#367,.F.);
#335=ORIENTED_EDGE('',*,*,#373,.F.);
#336=ORIENTED_EDGE('',*,*,#346,.T.);
#337=ORIENTED_EDGE('',*,*,#386,.T.);
#338=CARTESIAN_POINT('',(0.0,-11.25,0.0));
#339=DIRECTION('',(0.0,1.0,0.0));
#340=DIRECTION('',(-1.0,0.0,0.0));
#341=SURFACE_STYLE_FILL_AREA(#388);
#343=FILL_AREA_STYLE('',(#389));
#344=EDGE_CURVE('',#390,#391,#392,.T.);
#345=EDGE_CURVE('',#390,#393,#394,.T.);
#346=EDGE_CURVE('',#395,#393,#396,.T.);
#347=EDGE_CURVE('',#397,#395,#398,.T.);
#348=EDGE_CURVE('',#391,#397,#399,.T.);
#349=FILL_AREA_STYLE('',(#400));
#350=EDGE_CURVE('',#401,#402,#403,.T.);
#351=EDGE_CURVE('',#404,#401,#405,.T.);
#352=EDGE_CURVE('',#406,#404,#407,.T.);
#353=EDGE_CURVE('',#406,#408,#409,.T.);
#354=EDGE_CURVE('',#408,#402,#410,.T.);
#355=FILL_AREA_STYLE('',(#411));
#356=EDGE_CURVE('',#412,#413,#414,.T.);
#357=EDGE_CURVE('',#412,#415,#416,.T.);
#358=EDGE_CURVE('',#408,#415,#417,.T.);
#359=EDGE_CURVE('',#413,#406,#418,.T.);
#360=FILL_AREA_STYLE('',(#419));
#361=EDGE_CURVE('',#420,#421,#422,.T.);
#362=EDGE_CURVE('',#420,#423,#424,.T.);
#363=EDGE_CURVE('',#425,#423,#426,.T.);
#364=EDGE_CURVE('',#421,#425,#427,.T.);
#365=FILL_AREA_STYLE('',(#428));
#366=EDGE_CURVE('',#429,#430,#431,.T.);
#367=EDGE_CURVE('',#429,#391,#432,.T.);
#368=EDGE_CURVE('',#433,#397,#434,.T.);
#369=EDGE_CURVE('',#435,#433,#436,.T.);
#370=EDGE_CURVE('',#430,#435,#437,.T.);
#371=FILL_AREA_STYLE('',(#438));
#372=EDGE_CURVE('',#433,#430,#439,.T.);
#373=EDGE_CURVE('',#395,#429,#440,.T.);
#374=FILL_AREA_STYLE('',(#441));
#375=EDGE_CURVE('',#423,#420,#442,.T.);
#376=FILL_AREA_STYLE('',(#443));
#377=EDGE_CURVE('',#425,#421,#444,.T.);
#378=FILL_AREA_STYLE('',(#445));
#379=EDGE_CURVE('',#446,#412,#447,.T.);
#380=EDGE_CURVE('',#415,#446,#448,.T.);
#381=FILL_AREA_STYLE('',(#449));
#382=EDGE_CURVE('',#402,#413,#450,.T.);
#383=FILL_AREA_STYLE('',(#451));
#384=EDGE_CURVE('',#401,#404,#452,.T.);
#385=FILL_AREA_STYLE('',(#453));
#386=EDGE_CURVE('',#393,#390,#454,.T.);
#387=FILL_AREA_STYLE('',(#455));
#388=FILL_AREA_STYLE('',(#456));
#389=FILL_AREA_STYLE_COLOUR('',#457);
#390=VERTEX_POINT('',#458);
#391=VERTEX_POINT('',#459);
#392=LINE('',#460,#461);
#393=VERTEX_POINT('',#462);
#394=CIRCLE('',#463,21.2);
#395=VERTEX_POINT('',#464);
#396=LINE('',#465,#466);
#397=VERTEX_POINT('',#467);
#398=CIRCLE('',#468,21.2);
#399=CIRCLE('',#469,21.2);
#400=FILL_AREA_STYLE_COLOUR('',#470);
#401=VERTEX_POINT('',#471);
#402=VERTEX_POINT('',#472);
#403=LINE('',#473,#474);
#404=VERTEX_POINT('',#475);
#405=CIRCLE('',#476,18.5999999999999);
#406=VERTEX_POINT('',#477);
#407=LINE('',#478,#479);
#408=VERTEX_POINT('',#480);
#409=CIRCLE('',#481,18.5999999999999);
#410=CIRCLE('',#482,18.5999999999999);
#411=FILL_AREA_STYLE_COLOUR('',#483);
#412=VERTEX_POINT('',#484);
#413=VERTEX_POINT('',#485);
#414=CIRCLE('',#486,7.5);
#415=VERTEX_POINT('',#487);
#416=CIRCLE('',#488,26.0999999999999);
#417=CIRCLE('',#489,7.5);
#418=CIRCLE('',#490,18.5999999999999);
#419=FILL_AREA_STYLE_COLOUR('',#491);
#420=VERTEX_POINT('',#492);
#421=VERTEX_POINT('',#493);
#422=LINE('',#494,#495);
#423=VERTEX_POINT('',#496);
#424=CIRCLE('',#497,39.0);
#425=VERTEX_POINT('',#498);
#426=LINE('',#499,#500);
#427=CIRCLE('',#501,39.0);
#428=FILL_AREA_STYLE_COLOUR('',#502);
#429=VERTEX_POINT('',#503);
#430=VERTEX_POINT('',#504);
#431=CIRCLE('',#505,4.0);
#432=CIRCLE('',#506,21.2);
#433=VERTEX_POINT('',#507);
#434=CIRCLE('',#508,4.0);
#435=VERTEX_POINT('',#509);
#436=CIRCLE('',#510,25.2);
#437=CIRCLE('',#511,25.2);
#438=FILL_AREA_STYLE_COLOUR('',#512);
#439=CIRCLE('',#513,25.2);
#440=CIRCLE('',#514,21.2);
#441=FILL_AREA_STYLE_COLOUR('',#515);
#442=CIRCLE('',#516,39.0);
#443=FILL_AREA_STYLE_COLOUR('',#517);
#444=CIRCLE('',#518,39.0);
#445=FILL_AREA_STYLE_COLOUR('',#519);
#446=VERTEX_POINT('',#520);
#447=CIRCLE('',#521,26.0999999999999);
#448=CIRCLE('',#522,26.0999999999999);
#449=FILL_AREA_STYLE_COLOUR('',#523);
#450=CIRCLE('',#524,18.5999999999999);
#451=FILL_AREA_STYLE_COLOUR('',#525);
#452=CIRCLE('',#526,18.5999999999999);
#453=FILL_AREA_STYLE_COLOUR('',#527);
#454=CIRCLE('',#528,21.2);
#455=FILL_AREA_STYLE_COLOUR('',#529);
#456=FILL_AREA_STYLE_COLOUR('',#530);
#457=COLOUR_RGB('',1.0,1.0,0.0);
#458=CARTESIAN_POINT('',(-21.2,-15.0,0.0));
#459=CARTESIAN_POINT('',(-21.2,-7.49999999999997,0.0));
#460=CARTESIAN_POINT('',(-21.2,-11.25,-2.59625121419239E-015));
#461=VECTOR('',#531,1.0);
#462=CARTESIAN_POINT('',(21.2,-15.0,2.59625121419239E-015));
#463=AXIS2_PLACEMENT_3D('',#532,#533,#534);
#464=CARTESIAN_POINT('',(21.2,-7.49999999999997,2.59625121419239E-015));
#465=CARTESIAN_POINT('',(21.2,-11.25,2.59625121419239E-015));
#466=VECTOR('',#535,1.0);
#467=CARTESIAN_POINT('',(-2.59625121419239E-015,-7.49999999999997,21.2));
#468=AXIS2_PLACEMENT_3D('',#536,#537,#538);
#469=AXIS2_PLACEMENT_3D('',#539,#540,#541);
#470=COLOUR_RGB('',1.0,1.0,0.0);
#471=CARTESIAN_POINT('',(-18.5999999999999,-15.0,0.0));
#472=CARTESIAN_POINT('',(-18.5999999999999,-7.49999999999997,0.0));
#473=CARTESIAN_POINT('',(-18.5999999999999,-11.25,-2.27784304641407E-015));
#474=VECTOR('',#542,1.0);
#475=CARTESIAN_POINT('',(18.5999999999999,-15.0,2.27784304641407E-015));
#476=AXIS2_PLACEMENT_3D('',#543,#544,#545);
#477=CARTESIAN_POINT('',(18.5999999999999,-7.49999999999997,2.27784304641407E-015));
#478=CARTESIAN_POINT('',(18.5999999999999,-11.25,2.27784304641407E-015));
#479=VECTOR('',#546,1.0);
#480=CARTESIAN_POINT('',(2.27784304641407E-015,-7.49999999999997,-18.5999999999999));
#481=AXIS2_PLACEMENT_3D('',#547,#548,#549);
#482=AXIS2_PLACEMENT_3D('',#550,#551,#552);
#483=COLOUR_RGB('',1.0,1.0,0.0);
#484=CARTESIAN_POINT('',(-3.19632814577458E-015,2.8421709430404E-014,26.0999999999999));
#485=CARTESIAN_POINT('',(-2.27784304641407E-015,-7.49999999999997,18.5999999999999));
#486=AXIS2_PLACEMENT_3D('',#553,#554,#555);
#487=CARTESIAN_POINT('',(3.19632814577458E-015,2.8421709430404E-014,-26.0999999999999));
#488=AXIS2_PLACEMENT_3D('',#556,#557,#558);
#489=AXIS2_PLACEMENT_3D('',#559,#560,#561);
#490=AXIS2_PLACEMENT_3D('',#562,#563,#564);
#491=COLOUR_RGB('',1.0,1.0,0.0);
#492=CARTESIAN_POINT('',(-39.0,-3.5,0.0));
#493=CARTESIAN_POINT('',(-39.0,0.0,0.0));
#494=CARTESIAN_POINT('',(-39.0,-1.75,-4.77612251667468E-015));
#495=VECTOR('',#565,1.0);
#496=CARTESIAN_POINT('',(39.0,-3.5,4.77612251667468E-015));
#497=AXIS2_PLACEMENT_3D('',#566,#567,#568);
#498=CARTESIAN_POINT('',(39.0,0.0,4.77612251667468E-015));
#499=CARTESIAN_POINT('',(39.0,-1.75,4.77612251667468E-015));
#500=VECTOR('',#569,1.0);
#501=AXIS2_PLACEMENT_3D('',#570,#571,#572);
#502=COLOUR_RGB('',1.0,1.0,0.0);
#503=CARTESIAN_POINT('',(2.59625121419239E-015,-7.49999999999997,-21.2));
#504=CARTESIAN_POINT('',(3.08610993385133E-015,-3.5,-25.2));
#505=AXIS2_PLACEMENT_3D('',#573,#574,#575);
#506=AXIS2_PLACEMENT_3D('',#576,#577,#578);
#507=CARTESIAN_POINT('',(-3.08610993385133E-015,-3.5,25.2));
#508=AXIS2_PLACEMENT_3D('',#579,#580,#581);
#509=CARTESIAN_POINT('',(-25.2,-3.5,0.0));
#510=AXIS2_PLACEMENT_3D('',#582,#583,#584);
#511=AXIS2_PLACEMENT_3D('',#585,#586,#587);
#512=COLOUR_RGB('',1.0,1.0,0.0);
#513=AXIS2_PLACEMENT_3D('',#588,#589,#590);
#514=AXIS2_PLACEMENT_3D('',#591,#592,#593);
#515=COLOUR_RGB('',1.0,1.0,0.0);
#516=AXIS2_PLACEMENT_3D('',#594,#595,#596);
#517=COLOUR_RGB('',1.0,1.0,0.0);
#518=AXIS2_PLACEMENT_3D('',#597,#598,#599);
#519=COLOUR_RGB('',1.0,1.0,0.0);
#520=CARTESIAN_POINT('',(-26.0999999999999,2.8421709430404E-014,0.0));
#521=AXIS2_PLACEMENT_3D('',#600,#601,#602);
#522=AXIS2_PLACEMENT_3D('',#603,#604,#605);
#523=COLOUR_RGB('',1.0,1.0,0.0);
#524=AXIS2_PLACEMENT_3D('',#606,#607,#608);
#525=COLOUR_RGB('',1.0,1.0,0.0);
#526=AXIS2_PLACEMENT_3D('',#609,#610,#611);
#527=COLOUR_RGB('',1.0,1.0,0.0);
#528=AXIS2_PLACEMENT_3D('',#612,#613,#614);
#529=COLOUR_RGB('',1.0,1.0,0.0);
#530=COLOUR_RGB('',1.0,1.0,0.0);
#531=DIRECTION('',(0.0,1.0,0.0));
#532=CARTESIAN_POINT('',(0.0,-15.0,0.0));
#533=DIRECTION('',(0.0,1.0,0.0));
#534=DIRECTION('',(-1.0,0.0,0.0));
#535=DIRECTION('',(-0.0,-1.0,-0.0));
#536=CARTESIAN_POINT('',(0.0,-7.49999999999997,0.0));
#537=DIRECTION('',(0.0,1.0,0.0));
#538=DIRECTION('',(-1.0,0.0,0.0));
#539=CARTESIAN_POINT('',(0.0,-7.49999999999997,0.0));
#540=DIRECTION('',(0.0,1.0,0.0));
#541=DIRECTION('',(-1.0,0.0,0.0));
#542=DIRECTION('',(0.0,1.0,0.0));
#543=CARTESIAN_POINT('',(0.0,-15.0,0.0));
#544=DIRECTION('',(0.0,1.0,0.0));
#545=DIRECTION('',(-1.0,0.0,0.0));
#546=DIRECTION('',(0.0,-1.0,0.0));
#547=CARTESIAN_POINT('',(0.0,-7.49999999999997,0.0));
#548=DIRECTION('',(0.0,1.0,0.0));
#549=DIRECTION('',(-1.0,0.0,0.0));
#550=CARTESIAN_POINT('',(0.0,-7.49999999999997,0.0));
#551=DIRECTION('',(0.0,1.0,0.0));
#552=DIRECTION('',(-1.0,0.0,0.0));
#553=CARTESIAN_POINT('',(-3.19632814577458E-015,-7.49999999999997,26.0999999999999));
#554=DIRECTION('',(-1.0,0.0,-1.22464679914735E-016));
#555=DIRECTION('',(-1.22464679914735E-016,-0.0,1.0));
#556=CARTESIAN_POINT('',(0.0,2.8421709430404E-014,0.0));
#557=DIRECTION('',(0.0,1.0,0.0));
#558=DIRECTION('',(-1.0,0.0,0.0));
#559=CARTESIAN_POINT('',(3.19632814577458E-015,-7.49999999999997,-26.0999999999999));
#560=DIRECTION('',(-1.0,0.0,-1.22464679914735E-016));
#561=DIRECTION('',(1.22464679914735E-016,0.0,-1.0));
#562=CARTESIAN_POINT('',(0.0,-7.49999999999997,0.0));
#563=DIRECTION('',(0.0,1.0,0.0));
#564=DIRECTION('',(-1.0,0.0,0.0));
#565=DIRECTION('',(0.0,1.0,0.0));
#566=CARTESIAN_POINT('',(0.0,-3.5,0.0));
#567=DIRECTION('',(0.0,1.0,0.0));
#568=DIRECTION('',(-1.0,0.0,0.0));
#569=DIRECTION('',(-0.0,-1.0,-0.0));
#570=CARTESIAN_POINT('',(0.0,0.0,0.0));
#571=DIRECTION('',(0.0,1.0,0.0));
#572=DIRECTION('',(-1.0,0.0,0.0));
#573=CARTESIAN_POINT('',(3.08610993385133E-015,-7.49999999999997,-25.2));
#574=DIRECTION('',(-1.0,0.0,-1.22464679914735E-016));
#575=DIRECTION('',(1.22464679914735E-016,-0.0,-1.0));
#576=CARTESIAN_POINT('',(0.0,-7.49999999999997,0.0));
#577=DIRECTION('',(0.0,1.0,0.0));
#578=DIRECTION('',(-1.0,0.0,0.0));
#579=CARTESIAN_POINT('',(-3.08610993385133E-015,-7.49999999999997,25.2));
#580=DIRECTION('',(-1.0,0.0,-1.22464679914735E-016));
#581=DIRECTION('',(-1.22464679914735E-016,0.0,1.0));
#582=CARTESIAN_POINT('',(0.0,-3.5,0.0));
#583=DIRECTION('',(0.0,1.0,0.0));
#584=DIRECTION('',(-1.0,0.0,0.0));
#585=CARTESIAN_POINT('',(0.0,-3.5,0.0));
#586=DIRECTION('',(0.0,1.0,0.0));
#587=DIRECTION('',(-1.0,0.0,0.0));
#588=CARTESIAN_POINT('',(0.0,-3.5,0.0));
#589=DIRECTION('',(0.0,1.0,0.0));
#590=DIRECTION('',(-1.0,0.0,0.0));
#591=CARTESIAN_POINT('',(0.0,-7.49999999999997,0.0));
#592=DIRECTION('',(0.0,1.0,0.0));
#593=DIRECTION('',(-1.0,0.0,0.0));
#594=CARTESIAN_POINT('',(0.0,-3.5,0.0));
#595=DIRECTION('',(0.0,1.0,0.0));
#596=DIRECTION('',(-1.0,0.0,0.0));
#597=CARTESIAN_POINT('',(0.0,0.0,0.0));
#598=DIRECTION('',(0.0,1.0,0.0));
#599=DIRECTION('',(-1.0,0.0,0.0));
#600=CARTESIAN_POINT('',(0.0,2.8421709430404E-014,0.0));
#601=DIRECTION('',(0.0,1.0,0.0));
#602=DIRECTION('',(-1.0,0.0,0.0));
#603=CARTESIAN_POINT('',(0.0,2.8421709430404E-014,0.0));
#604=DIRECTION('',(0.0,1.0,0.0));
#605=DIRECTION('',(-1.0,0.0,0.0));
#606=CARTESIAN_POINT('',(0.0,-7.49999999999997,0.0));
#607=DIRECTION('',(0.0,1.0,0.0));
#608=DIRECTION('',(-1.0,0.0,0.0));
#609=CARTESIAN_POINT('',(0.0,-15.0,0.0));
#610=DIRECTION('',(0.0,1.0,0.0));
#611=DIRECTION('',(-1.0,0.0,0.0));
#612=CARTESIAN_POINT('',(0.0,-15.0,0.0));
#613=DIRECTION('',(0.0,1.0,0.0));
#614=DIRECTION('',(-1.0,0.0,0.0));
ENDSEC;
END-ISO-10303-21;
