ISO-10303-21;
HEADER;
FILE_DESCRIPTION (( 'STEP AP203' ),
    '1' );
FILE_NAME ('OT200-25-33_7x2_OSTP.step',
    '2020-12-16T01:40:35',
    ( '' ),
    ( '' ),
    'SwSTEP 2.0',
    'SolidWorks 2014',
    '' );
FILE_SCHEMA (( 'CONFIG_CONTROL_DESIGN' ));
ENDSEC;

DATA;
#1 = FACE_BOUND ( 'NONE', #229, .T. ) ;
#2 =( GEOMETRIC_REPRESENTATION_CONTEXT ( 3 ) GLOBAL_UNCERTAINTY_ASSIGNED_CONTEXT ( ( #121 ) ) GLOBAL_UNIT_ASSIGNED_CONTEXT ( ( #95, #173, #50 ) ) REPRESENTATION_CONTEXT ( 'NONE', 'WORKASPACE' ) );
#3 = EDGE_CURVE ( 'NONE', #75, #144, #10, .T. ) ;
#4 = CARTESIAN_POINT ( 'NONE',  ( 0.0000000000000000000, 0.0000000000000000000, 0.0000000000000000000 ) ) ;
#5 = DIRECTION ( 'NONE',  ( 0.0000000000000000000, 0.0000000000000000000, 1.000000000000000000 ) ) ;
#6 = PERSON_AND_ORGANIZATION ( #211, #111 ) ;
#7 = DATE_AND_TIME ( #56, #204 ) ;
#8 = AXIS2_PLACEMENT_3D ( 'NONE', #206, #76, #71 ) ;
#9 = DIRECTION ( 'NONE',  ( 0.0000000000000000000, 0.0000000000000000000, 1.000000000000000000 ) ) ;
#10 = CIRCLE ( 'NONE', #29, 14.85000000000000000 ) ;
#11 = FACE_OUTER_BOUND ( 'NONE', #81, .T. ) ;
#12 = PERSON_AND_ORGANIZATION ( #211, #111 ) ;
#13 = PERSON_AND_ORGANIZATION ( #211, #111 ) ;
#14 = PERSON_AND_ORGANIZATION_ROLE ( 'creator' ) ;
#15 = ORIENTED_EDGE ( 'NONE', *, *, #195, .T. ) ;
#16 = AXIS2_PLACEMENT_3D ( 'NONE', #247, #179, #231 ) ;
#17 = EDGE_CURVE ( 'NONE', #200, #124, #28, .T. ) ;
#18 = CALENDAR_DATE ( 2020, 16, 12 ) ;
#19 = CC_DESIGN_PERSON_AND_ORGANIZATION_ASSIGNMENT ( #145, #48, ( #233 ) ) ;
#20 = CARTESIAN_POINT ( 'NONE',  ( 38.00000000000000000, 38.00000000000000000, 0.0000000000000000000 ) ) ;
#21 = ORIENTED_EDGE ( 'NONE', *, *, #3, .F. ) ;
#22 = DIRECTION ( 'NONE',  ( 1.000000000000000000, 6.123233995736766000E-017, 0.0000000000000000000 ) ) ;
#23 = TOROIDAL_SURFACE ( 'NONE', #102, 38.00000000000000000, 16.85000000000000100 ) ;
#24 = CARTESIAN_POINT ( 'NONE',  ( 38.00000000000000000, 0.0000000000000000000, 0.0000000000000000000 ) ) ;
#25 = CARTESIAN_POINT ( 'NONE',  ( -16.84999999999999800, 0.0000000000000000000, 0.0000000000000000000 ) ) ;
#26 = CARTESIAN_POINT ( 'NONE',  ( 38.00000000000000000, 0.0000000000000000000, 0.0000000000000000000 ) ) ;
#27 = PERSON_AND_ORGANIZATION ( #211, #111 ) ;
#28 = CIRCLE ( 'NONE', #133, 54.84999999999998700 ) ;
#29 = AXIS2_PLACEMENT_3D ( 'NONE', #154, #135, #9 ) ;
#30 = ORIENTED_EDGE ( 'NONE', *, *, #32, .T. ) ;
#31 = APPLICATION_PROTOCOL_DEFINITION ( 'international standard', 'config_control_design', 1994, #169 ) ;
#32 = EDGE_CURVE ( 'NONE', #77, #144, #97, .T. ) ;
#33 = PRODUCT_DEFINITION ( 'UNKNOWN', '', #99, #192 ) ;
#34 = FACE_OUTER_BOUND ( 'NONE', #222, .T. ) ;
#35 = PLANE ( 'NONE',  #16 ) ;
#36 = EDGE_LOOP ( 'NONE', ( #252, #182, #15, #146 ) ) ;
#37 = ORIENTED_EDGE ( 'NONE', *, *, #129, .T. ) ;
#38 = ORIENTED_EDGE ( 'NONE', *, *, #72, .F. ) ;
#39 = CARTESIAN_POINT ( 'NONE',  ( 38.00000000000000000, 23.14999999999999900, -1.818600496733819200E-015 ) ) ;
#40 = ADVANCED_FACE ( 'NONE', ( #207 ), #23, .T. ) ;
#41 = CARTESIAN_POINT ( 'NONE',  ( 16.85000000000000100, 0.0000000000000000000, -2.063529856563290200E-015 ) ) ;
#42 = DATE_AND_TIME ( #18, #62 ) ;
#43 = TOROIDAL_SURFACE ( 'NONE', #209, 38.00000000000000000, 14.85000000000000000 ) ;
#44 = ORIENTED_EDGE ( 'NONE', *, *, #83, .T. ) ;
#45 = DIRECTION ( 'NONE',  ( 0.0000000000000000000, 0.0000000000000000000, 1.000000000000000000 ) ) ;
#46 = APPROVAL ( #148, 'UNSPECIFIED' ) ;
#47 = CIRCLE ( 'NONE', #244, 16.85000000000000100 ) ;
#48 = PERSON_AND_ORGANIZATION_ROLE ( 'design_owner' ) ;
#49 = APPROVAL_ROLE ( '' ) ;
#50 =( NAMED_UNIT ( * ) SI_UNIT ( $, .STERADIAN. ) SOLID_ANGLE_UNIT ( ) );
#51 = TOROIDAL_SURFACE ( 'NONE', #178, 38.00000000000000000, 16.85000000000000100 ) ;
#52 = CIRCLE ( 'NONE', #155, 14.85000000000000100 ) ;
#53 = DIRECTION ( 'NONE',  ( 0.0000000000000000000, 1.000000000000000000, 0.0000000000000000000 ) ) ;
#54 = EDGE_CURVE ( 'NONE', #144, #75, #224, .T. ) ;
#55 = LOCAL_TIME ( 2, 40, 35.00000000000000000, #212 ) ;
#56 = CALENDAR_DATE ( 2020, 16, 12 ) ;
#57 = CC_DESIGN_APPROVAL ( #46, ( #33 ) ) ;
#58 = EDGE_LOOP ( 'NONE', ( #249, #105 ) ) ;
#59 = ADVANCED_FACE ( 'NONE', ( #189 ), #43, .F. ) ;
#60 = TOROIDAL_SURFACE ( 'NONE', #243, 38.00000000000000000, 14.85000000000000000 ) ;
#61 = CARTESIAN_POINT ( 'NONE',  ( 38.00000000000000000, 0.0000000000000000000, 0.0000000000000000000 ) ) ;
#62 = LOCAL_TIME ( 2, 40, 35.00000000000000000, #96 ) ;
#63 = APPROVAL_DATE_TIME ( #88, #109 ) ;
#64 = CARTESIAN_POINT ( 'NONE',  ( 37.99999999999999300, 21.14999999999999900, -2.063529856563290200E-015 ) ) ;
#65 = DIRECTION ( 'NONE',  ( 1.000000000000000000, 0.0000000000000000000, 0.0000000000000000000 ) ) ;
#66 = DIRECTION ( 'NONE',  ( 0.0000000000000000000, 0.0000000000000000000, 1.000000000000000000 ) ) ;
#67 = VERTEX_POINT ( 'NONE', #64 ) ;
#68 = AXIS2_PLACEMENT_3D ( 'NONE', #217, #214, #66 ) ;
#69 = FACE_OUTER_BOUND ( 'NONE', #36, .T. ) ;
#70 = APPROVAL_PERSON_ORGANIZATION ( #186, #46, #127 ) ;
#71 = DIRECTION ( 'NONE',  ( 1.000000000000000000, 0.0000000000000000000, 0.0000000000000000000 ) ) ;
#72 = EDGE_CURVE ( 'NONE', #67, #168, #104, .T. ) ;
#73 = PERSON_AND_ORGANIZATION_ROLE ( 'design_supplier' ) ;
#74 = CC_DESIGN_PERSON_AND_ORGANIZATION_ASSIGNMENT ( #12, #14, ( #33 ) ) ;
#75 = VERTEX_POINT ( 'NONE', #141 ) ;
#76 = DIRECTION ( 'NONE',  ( 0.0000000000000000000, 0.0000000000000000000, 1.000000000000000000 ) ) ;
#77 = VERTEX_POINT ( 'NONE', #221 ) ;
#78 = EDGE_CURVE ( 'NONE', #67, #200, #174, .T. ) ;
#79 = APPROVAL_PERSON_ORGANIZATION ( #210, #109, #49 ) ;
#80 = DIRECTION ( 'NONE',  ( 0.0000000000000000000, 1.000000000000000000, 0.0000000000000000000 ) ) ;
#81 = EDGE_LOOP ( 'NONE', ( #167, #44 ) ) ;
#82 = CARTESIAN_POINT ( 'NONE',  ( 38.00000000000000000, 0.0000000000000000000, 0.0000000000000000000 ) ) ;
#83 = EDGE_CURVE ( 'NONE', #200, #67, #142, .T. ) ;
#84 = DIRECTION ( 'NONE',  ( 1.000000000000000000, 0.0000000000000000000, 0.0000000000000000000 ) ) ;
#85 = CIRCLE ( 'NONE', #119, 23.14999999999999900 ) ;
#86 = CC_DESIGN_DATE_AND_TIME_ASSIGNMENT ( #193, #151, ( #33 ) ) ;
#87 = DIRECTION ( 'NONE',  ( 0.0000000000000000000, 0.0000000000000000000, 1.000000000000000000 ) ) ;
#88 = DATE_AND_TIME ( #163, #112 ) ;
#89 = EDGE_CURVE ( 'NONE', #168, #124, #161, .T. ) ;
#90 = CARTESIAN_POINT ( 'NONE',  ( 38.00000000000000000, 0.0000000000000000000, -1.818600496733819600E-015 ) ) ;
#91 = APPROVAL_STATUS ( 'not_yet_approved' ) ;
#92 = DIRECTION ( 'NONE',  ( 0.0000000000000000000, 0.0000000000000000000, 1.000000000000000000 ) ) ;
#93 = ORIENTED_EDGE ( 'NONE', *, *, #195, .F. ) ;
#94 = PERSON_AND_ORGANIZATION_ROLE ( 'classification_officer' ) ;
#95 =( LENGTH_UNIT ( ) NAMED_UNIT ( * ) SI_UNIT ( .MILLI., .METRE. ) );
#96 = COORDINATED_UNIVERSAL_TIME_OFFSET ( 1, 0, .AHEAD. ) ;
#97 = CIRCLE ( 'NONE', #248, 52.85000000000000100 ) ;
#98 = EDGE_CURVE ( 'NONE', #77, #238, #132, .T. ) ;
#99 = PRODUCT_DEFINITION_FORMATION_WITH_SPECIFIED_SOURCE ( 'ANY', '', #233, .NOT_KNOWN. ) ;
#100 = CARTESIAN_POINT ( 'NONE',  ( 37.99999999999999300, 38.00000000000000000, 0.0000000000000000000 ) ) ;
#101 = DIRECTION ( 'NONE',  ( 1.000000000000000000, 0.0000000000000000000, 0.0000000000000000000 ) ) ;
#102 = AXIS2_PLACEMENT_3D ( 'NONE', #61, #5, #240 ) ;
#103 = CARTESIAN_POINT ( 'NONE',  ( 38.00000000000000000, 38.00000000000000000, 0.0000000000000000000 ) ) ;
#104 = CIRCLE ( 'NONE', #143, 21.14999999999999500 ) ;
#105 = ORIENTED_EDGE ( 'NONE', *, *, #54, .T. ) ;
#106 = PERSON_AND_ORGANIZATION ( #211, #111 ) ;
#107 = APPROVAL_PERSON_ORGANIZATION ( #6, #203, #226 ) ;
#108 = AXIS2_PLACEMENT_3D ( 'NONE', #237, #253, #114 ) ;
#109 = APPROVAL ( #171, 'UNSPECIFIED' ) ;
#110 = ORIENTED_EDGE ( 'NONE', *, *, #147, .T. ) ;
#111 = ORGANIZATION ( 'UNSPECIFIED', 'UNSPECIFIED', '' ) ;
#112 = LOCAL_TIME ( 2, 40, 35.00000000000000000, #140 ) ;
#113 = EDGE_LOOP ( 'NONE', ( #130, #194, #123, #172 ) ) ;
#114 = DIRECTION ( 'NONE',  ( 0.0000000000000000000, 0.0000000000000000000, 1.000000000000000000 ) ) ;
#115 = ADVANCED_FACE ( 'NONE', ( #116 ), #51, .T. ) ;
#116 = FACE_OUTER_BOUND ( 'NONE', #113, .T. ) ;
#117 = SHAPE_DEFINITION_REPRESENTATION ( #223, #153 ) ;
#118 = DIRECTION ( 'NONE',  ( 1.000000000000000000, 0.0000000000000000000, 0.0000000000000000000 ) ) ;
#119 = AXIS2_PLACEMENT_3D ( 'NONE', #90, #201, #65 ) ;
#120 = CC_DESIGN_APPROVAL ( #109, ( #99 ) ) ;
#121 = UNCERTAINTY_MEASURE_WITH_UNIT (LENGTH_MEASURE( 1.000000000000000100E-005 ), #95, 'distance_accuracy_value', 'NONE');
#122 = EDGE_LOOP ( 'NONE', ( #37, #30, #21, #93 ) ) ;
#123 = ORIENTED_EDGE ( 'NONE', *, *, #72, .T. ) ;
#124 = VERTEX_POINT ( 'NONE', #25 ) ;
#125 = AXIS2_PLACEMENT_3D ( 'NONE', #234, #160, #197 ) ;
#126 = APPROVAL_DATE_TIME ( #42, #46 ) ;
#127 = APPROVAL_ROLE ( '' ) ;
#128 = MANIFOLD_SOLID_BREP ( 'cut-body', #215 ) ;
#129 = EDGE_CURVE ( 'NONE', #238, #77, #52, .T. ) ;
#130 = ORIENTED_EDGE ( 'NONE', *, *, #17, .F. ) ;
#131 = DIRECTION ( 'NONE',  ( 0.0000000000000000000, 0.0000000000000000000, 1.000000000000000000 ) ) ;
#132 = CIRCLE ( 'NONE', #136, 14.85000000000000100 ) ;
#133 = AXIS2_PLACEMENT_3D ( 'NONE', #185, #218, #84 ) ;
#134 = CC_DESIGN_PERSON_AND_ORGANIZATION_ASSIGNMENT ( #27, #190, ( #99 ) ) ;
#135 = DIRECTION ( 'NONE',  ( 0.0000000000000000000, 1.000000000000000000, 0.0000000000000000000 ) ) ;
#136 = AXIS2_PLACEMENT_3D ( 'NONE', #20, #22, #53 ) ;
#137 = DIRECTION ( 'NONE',  ( 0.0000000000000000000, 1.000000000000000000, 0.0000000000000000000 ) ) ;
#138 = ADVANCED_FACE ( 'NONE', ( #1, #11 ), #239, .T. ) ;
#139 = DIRECTION ( 'NONE',  ( 1.000000000000000000, 6.123233995736766000E-017, 0.0000000000000000000 ) ) ;
#140 = COORDINATED_UNIVERSAL_TIME_OFFSET ( 1, 0, .AHEAD. ) ;
#141 = CARTESIAN_POINT ( 'NONE',  ( 14.85000000000000000, 0.0000000000000000000, -1.818600496733819200E-015 ) ) ;
#142 = CIRCLE ( 'NONE', #184, 16.85000000000000100 ) ;
#143 = AXIS2_PLACEMENT_3D ( 'NONE', #220, #198, #159 ) ;
#144 = VERTEX_POINT ( 'NONE', #181 ) ;
#145 = PERSON_AND_ORGANIZATION ( #211, #111 ) ;
#146 = ORIENTED_EDGE ( 'NONE', *, *, #54, .F. ) ;
#147 = EDGE_CURVE ( 'NONE', #124, #168, #47, .T. ) ;
#148 = APPROVAL_STATUS ( 'not_yet_approved' ) ;
#149 = DATE_TIME_ROLE ( 'classification_date' ) ;
#150 = DIRECTION ( 'NONE',  ( 0.0000000000000000000, 0.0000000000000000000, 1.000000000000000000 ) ) ;
#151 = DATE_TIME_ROLE ( 'creation_date' ) ;
#152 = CC_DESIGN_PERSON_AND_ORGANIZATION_ASSIGNMENT ( #106, #73, ( #99 ) ) ;
#153 = ADVANCED_BREP_SHAPE_REPRESENTATION ( 'OT200-25-33_7x2_OSTP', ( #128, #8 ), #2 ) ;
#154 = CARTESIAN_POINT ( 'NONE',  ( 0.0000000000000000000, 0.0000000000000000000, 0.0000000000000000000 ) ) ;
#155 = AXIS2_PLACEMENT_3D ( 'NONE', #103, #139, #137 ) ;
#156 = FACE_BOUND ( 'NONE', #58, .T. ) ;
#157 = AXIS2_PLACEMENT_3D ( 'NONE', #4, #80, #92 ) ;
#158 = APPROVAL_DATE_TIME ( #7, #203 ) ;
#159 = DIRECTION ( 'NONE',  ( 1.000000000000000000, 0.0000000000000000000, 0.0000000000000000000 ) ) ;
#160 = DIRECTION ( 'NONE',  ( 0.0000000000000000000, 1.000000000000000000, 0.0000000000000000000 ) ) ;
#161 = CIRCLE ( 'NONE', #157, 16.85000000000000100 ) ;
#162 = DIRECTION ( 'NONE',  ( 1.000000000000000000, 0.0000000000000000000, 0.0000000000000000000 ) ) ;
#163 = CALENDAR_DATE ( 2020, 16, 12 ) ;
#164 = DATE_AND_TIME ( #228, #55 ) ;
#165 = DIRECTION ( 'NONE',  ( 0.0000000000000000000, 0.0000000000000000000, 1.000000000000000000 ) ) ;
#166 = SECURITY_CLASSIFICATION ( '', '', #205 ) ;
#167 = ORIENTED_EDGE ( 'NONE', *, *, #78, .T. ) ;
#168 = VERTEX_POINT ( 'NONE', #41 ) ;
#169 = APPLICATION_CONTEXT ( 'configuration controlled 3d designs of mechanical parts and assemblies' ) ;
#170 = CALENDAR_DATE ( 2020, 16, 12 ) ;
#171 = APPROVAL_STATUS ( 'not_yet_approved' ) ;
#172 = ORIENTED_EDGE ( 'NONE', *, *, #89, .T. ) ;
#173 =( NAMED_UNIT ( * ) PLANE_ANGLE_UNIT ( ) SI_UNIT ( $, .RADIAN. ) );
#174 = CIRCLE ( 'NONE', #68, 16.85000000000000100 ) ;
#175 = COORDINATED_UNIVERSAL_TIME_OFFSET ( 1, 0, .AHEAD. ) ;
#176 = ORIENTED_EDGE ( 'NONE', *, *, #129, .F. ) ;
#177 = CC_DESIGN_PERSON_AND_ORGANIZATION_ASSIGNMENT ( #13, #94, ( #166 ) ) ;
#178 = AXIS2_PLACEMENT_3D ( 'NONE', #235, #131, #162 ) ;
#179 = DIRECTION ( 'NONE',  ( 0.0000000000000000000, 1.000000000000000000, 0.0000000000000000000 ) ) ;
#180 = CARTESIAN_POINT ( 'NONE',  ( 37.99999999999999300, 54.84999999999999400, 0.0000000000000000000 ) ) ;
#181 = CARTESIAN_POINT ( 'NONE',  ( -14.85000000000000100, 0.0000000000000000000, 0.0000000000000000000 ) ) ;
#182 = ORIENTED_EDGE ( 'NONE', *, *, #98, .T. ) ;
#183 = EDGE_LOOP ( 'NONE', ( #232, #241, #110, #38 ) ) ;
#184 = AXIS2_PLACEMENT_3D ( 'NONE', #100, #202, #87 ) ;
#185 = CARTESIAN_POINT ( 'NONE',  ( 38.00000000000000000, 0.0000000000000000000, 0.0000000000000000000 ) ) ;
#186 = PERSON_AND_ORGANIZATION ( #211, #111 ) ;
#187 = ORIENTED_EDGE ( 'NONE', *, *, #147, .F. ) ;
#188 = MECHANICAL_CONTEXT ( 'NONE', #227, 'mechanical' ) ;
#189 = FACE_OUTER_BOUND ( 'NONE', #122, .T. ) ;
#190 = PERSON_AND_ORGANIZATION_ROLE ( 'creator' ) ;
#191 = CC_DESIGN_DATE_AND_TIME_ASSIGNMENT ( #164, #149, ( #166 ) ) ;
#192 = DESIGN_CONTEXT ( 'detailed design', #169, 'design' ) ;
#193 = DATE_AND_TIME ( #170, #219 ) ;
#194 = ORIENTED_EDGE ( 'NONE', *, *, #78, .F. ) ;
#195 = EDGE_CURVE ( 'NONE', #238, #75, #85, .T. ) ;
#196 = ORIENTED_EDGE ( 'NONE', *, *, #89, .F. ) ;
#197 = DIRECTION ( 'NONE',  ( 0.0000000000000000000, 0.0000000000000000000, 1.000000000000000000 ) ) ;
#198 = DIRECTION ( 'NONE',  ( 0.0000000000000000000, 0.0000000000000000000, 1.000000000000000000 ) ) ;
#199 = CARTESIAN_POINT ( 'NONE',  ( 0.0000000000000000000, 0.0000000000000000000, 0.0000000000000000000 ) ) ;
#200 = VERTEX_POINT ( 'NONE', #180 ) ;
#201 = DIRECTION ( 'NONE',  ( 0.0000000000000000000, 0.0000000000000000000, 1.000000000000000000 ) ) ;
#202 = DIRECTION ( 'NONE',  ( 1.000000000000000000, 6.123233995736766000E-017, 0.0000000000000000000 ) ) ;
#203 = APPROVAL ( #91, 'UNSPECIFIED' ) ;
#204 = LOCAL_TIME ( 2, 40, 35.00000000000000000, #175 ) ;
#205 = SECURITY_CLASSIFICATION_LEVEL ( 'unclassified' ) ;
#206 = CARTESIAN_POINT ( 'NONE',  ( 0.0000000000000000000, 0.0000000000000000000, 0.0000000000000000000 ) ) ;
#207 = FACE_OUTER_BOUND ( 'NONE', #183, .T. ) ;
#208 = DIRECTION ( 'NONE',  ( 0.0000000000000000000, 1.000000000000000000, 0.0000000000000000000 ) ) ;
#209 = AXIS2_PLACEMENT_3D ( 'NONE', #24, #45, #101 ) ;
#210 = PERSON_AND_ORGANIZATION ( #211, #111 ) ;
#211 = PERSON ( 'UNSPECIFIED', 'UNSPECIFIED', 'UNSPECIFIED', ('UNSPECIFIED'), ('UNSPECIFIED'), ('UNSPECIFIED') ) ;
#212 = COORDINATED_UNIVERSAL_TIME_OFFSET ( 1, 0, .AHEAD. ) ;
#213 = CC_DESIGN_APPROVAL ( #203, ( #166 ) ) ;
#214 = DIRECTION ( 'NONE',  ( 1.000000000000000000, 6.123233995736766000E-017, 0.0000000000000000000 ) ) ;
#215 = CLOSED_SHELL ( 'NONE', ( #59, #40, #115, #138, #236, #216 ) ) ;
#216 = ADVANCED_FACE ( 'NONE', ( #69 ), #60, .F. ) ;
#217 = CARTESIAN_POINT ( 'NONE',  ( 37.99999999999999300, 38.00000000000000000, 0.0000000000000000000 ) ) ;
#218 = DIRECTION ( 'NONE',  ( 0.0000000000000000000, 0.0000000000000000000, 1.000000000000000000 ) ) ;
#219 = LOCAL_TIME ( 2, 40, 35.00000000000000000, #245 ) ;
#220 = CARTESIAN_POINT ( 'NONE',  ( 38.00000000000000000, 0.0000000000000000000, -2.063529856563290200E-015 ) ) ;
#221 = CARTESIAN_POINT ( 'NONE',  ( 38.00000000000000000, 52.85000000000000100, 0.0000000000000000000 ) ) ;
#222 = EDGE_LOOP ( 'NONE', ( #196, #187 ) ) ;
#223 = PRODUCT_DEFINITION_SHAPE ( 'NONE', 'NONE',  #33 ) ;
#224 = CIRCLE ( 'NONE', #125, 14.85000000000000000 ) ;
#225 = DIRECTION ( 'NONE',  ( 1.000000000000000000, 0.0000000000000000000, 0.0000000000000000000 ) ) ;
#226 = APPROVAL_ROLE ( '' ) ;
#227 = APPLICATION_CONTEXT ( 'configuration controlled 3d designs of mechanical parts and assemblies' ) ;
#228 = CALENDAR_DATE ( 2020, 16, 12 ) ;
#229 = EDGE_LOOP ( 'NONE', ( #176, #246 ) ) ;
#230 = CC_DESIGN_SECURITY_CLASSIFICATION ( #166, ( #99 ) ) ;
#231 = DIRECTION ( 'NONE',  ( 0.0000000000000000000, -0.0000000000000000000, 1.000000000000000000 ) ) ;
#232 = ORIENTED_EDGE ( 'NONE', *, *, #83, .F. ) ;
#233 = PRODUCT ( 'OT200-25-33_7x2_OSTP', 'OT200-25-33_7x2_OSTP', '', ( #188 ) ) ;
#234 = CARTESIAN_POINT ( 'NONE',  ( 0.0000000000000000000, 0.0000000000000000000, 0.0000000000000000000 ) ) ;
#235 = CARTESIAN_POINT ( 'NONE',  ( 38.00000000000000000, 0.0000000000000000000, 0.0000000000000000000 ) ) ;
#236 = ADVANCED_FACE ( 'NONE', ( #156, #34 ), #35, .F. ) ;
#237 = CARTESIAN_POINT ( 'NONE',  ( 37.99999999999999300, 38.00000000000000000, 0.0000000000000000000 ) ) ;
#238 = VERTEX_POINT ( 'NONE', #39 ) ;
#239 = PLANE ( 'NONE',  #108 ) ;
#240 = DIRECTION ( 'NONE',  ( 1.000000000000000000, 0.0000000000000000000, 0.0000000000000000000 ) ) ;
#241 = ORIENTED_EDGE ( 'NONE', *, *, #17, .T. ) ;
#242 = PRODUCT_RELATED_PRODUCT_CATEGORY ( 'detail', '', ( #233 ) ) ;
#243 = AXIS2_PLACEMENT_3D ( 'NONE', #82, #250, #225 ) ;
#244 = AXIS2_PLACEMENT_3D ( 'NONE', #199, #208, #150 ) ;
#245 = COORDINATED_UNIVERSAL_TIME_OFFSET ( 1, 0, .AHEAD. ) ;
#246 = ORIENTED_EDGE ( 'NONE', *, *, #98, .F. ) ;
#247 = CARTESIAN_POINT ( 'NONE',  ( 0.0000000000000000000, 0.0000000000000000000, 0.0000000000000000000 ) ) ;
#248 = AXIS2_PLACEMENT_3D ( 'NONE', #26, #165, #118 ) ;
#249 = ORIENTED_EDGE ( 'NONE', *, *, #3, .T. ) ;
#250 = DIRECTION ( 'NONE',  ( 0.0000000000000000000, 0.0000000000000000000, 1.000000000000000000 ) ) ;
#251 = APPLICATION_PROTOCOL_DEFINITION ( 'international standard', 'config_control_design', 1994, #227 ) ;
#252 = ORIENTED_EDGE ( 'NONE', *, *, #32, .F. ) ;
#253 = DIRECTION ( 'NONE',  ( 1.000000000000000000, 6.123233995736766000E-017, -0.0000000000000000000 ) ) ;
ENDSEC;
END-ISO-10303-21;
