ISO-10303-21;
HEADER;
/****************************************************************
 * Generated by software with PDElib inside                    *
 * PDElib Version v51a, created Wed 07/06/2011                  *
 * ITI Transcendata (http://www.transcendata.com/)              *
 ****************************************************************/
FILE_DESCRIPTION(('RE_42,4x2-21,3x1,6_L80_V10'),'2;1');
FILE_NAME('RE_42,4x2-21,3x1,6_L80_V10.stp','2013-11-02T16:29:36',('DOCKWEILER AG'),('DOCKWEILER AG'),'Autodesk Inventor 2012','Autodesk Inventor 2012','');
FILE_SCHEMA(('CONFIG_CONTROL_DESIGN'));
ENDSEC;
DATA;
#5=APPLICATION_CONTEXT('configuration controlled 3D designs of mechanical parts and assemblies');
#6=APPLICATION_PROTOCOL_DEFINITION('International Standard','ap203_configuration_controlled_3d_design_of_mechanical_parts_and_assemblies_mim_lf',2004,#5);
#7=PRODUCT_CONTEXT('',#5,'mechanical');
#8=PRODUCT('N0006_002_001_009','N0006_002_001_009',$,(#7));
#9=PRODUCT_RELATED_PRODUCT_CATEGORY('part',$,(#8));
#10=PRODUCT_DEFINITION_FORMATION('',$,#8);
#11=PRODUCT_DEFINITION_CONTEXT('part definition',#5,'design');
#12=PRODUCT_DEFINITION('',$,#10,#11);
#18=(NAMED_UNIT(*)PLANE_ANGLE_UNIT()SI_UNIT($,.RADIAN.));
#19=DIMENSIONAL_EXPONENTS(0.0,0.0,0.0,0.0,0.0,0.0,0.0);
#20=PLANE_ANGLE_MEASURE_WITH_UNIT(PLANE_ANGLE_MEASURE(0.0174532925),#18);
#24=(CONVERSION_BASED_UNIT('DEGREE',#20)NAMED_UNIT(#19)PLANE_ANGLE_UNIT());
#28=(NAMED_UNIT(*)SI_UNIT($,.STERADIAN.)SOLID_ANGLE_UNIT());
#32=(LENGTH_UNIT()NAMED_UNIT(*)SI_UNIT(.MILLI.,.METRE.));
#34=UNCERTAINTY_MEASURE_WITH_UNIT(LENGTH_MEASURE(0.01),#32,'DISTANCE_ACCURACY_VALUE','');
#36=(GEOMETRIC_REPRESENTATION_CONTEXT(3)GLOBAL_UNCERTAINTY_ASSIGNED_CONTEXT((#34))GLOBAL_UNIT_ASSIGNED_CONTEXT((#24,#28,#32))REPRESENTATION_CONTEXT('None','None'));
#37=AXIS2_PLACEMENT_3D('',#38,#39,#40);
#38=CARTESIAN_POINT('',(0.0,0.0,0.0));
#39=DIRECTION('',(0.0,0.0,1.0));
#40=DIRECTION('',(1.0,0.0,0.0));
#41=SHAPE_REPRESENTATION('',(#37),#36);
#42=PRODUCT_DEFINITION_SHAPE('','',#12);
#43=SHAPE_DEFINITION_REPRESENTATION(#42,#41);
#49=(NAMED_UNIT(*)PLANE_ANGLE_UNIT()SI_UNIT($,.RADIAN.));
#50=DIMENSIONAL_EXPONENTS(0.0,0.0,0.0,0.0,0.0,0.0,0.0);
#51=PLANE_ANGLE_MEASURE_WITH_UNIT(PLANE_ANGLE_MEASURE(0.0174532925),#49);
#55=(CONVERSION_BASED_UNIT('DEGREE',#51)NAMED_UNIT(#50)PLANE_ANGLE_UNIT());
#59=(NAMED_UNIT(*)SI_UNIT($,.STERADIAN.)SOLID_ANGLE_UNIT());
#63=(LENGTH_UNIT()NAMED_UNIT(*)SI_UNIT(.MILLI.,.METRE.));
#65=UNCERTAINTY_MEASURE_WITH_UNIT(LENGTH_MEASURE(0.000001),#63,'DISTANCE_ACCURACY_VALUE','');
#67=(GEOMETRIC_REPRESENTATION_CONTEXT(3)GLOBAL_UNCERTAINTY_ASSIGNED_CONTEXT((#65))GLOBAL_UNIT_ASSIGNED_CONTEXT((#55,#59,#63))REPRESENTATION_CONTEXT('','3D'));
#68=CARTESIAN_POINT('',(11.016141530291993,54.83468402968262,8.606039690290638));
#69=CARTESIAN_POINT('',(-4.834740E-014,5.695681505210262,20.190471605195768));
#70=CARTESIAN_POINT('',(19.199999999999978,53.000000000000036,8.606039690290656));
#71=CARTESIAN_POINT('',(19.19999999999991,1.39136301042052,20.190471605195814));
#72=CARTESIAN_POINT('',(19.199999999999996,53.000000000000028,2.072328E-014));
#73=CARTESIAN_POINT('',(19.199999999999964,1.391363010420509,5.057082E-014));
#74=CARTESIAN_POINT('',(19.200000000000014,53.000000000000036,-8.606039690290613));
#75=CARTESIAN_POINT('',(19.20000000000001,1.391363010420499,-20.190471605195707));
#76=CARTESIAN_POINT('',(11.016141530292032,54.83468402968262,-8.606039690290634));
#77=CARTESIAN_POINT('',(4.879976E-014,5.69568150521024,-20.190471605195761));
#78=CARTESIAN_POINT('',(2.832283060584051,56.669368059365205,-8.60603969029065));
#79=CARTESIAN_POINT('',(-19.19999999999991,9.999999999999982,-20.190471605195807));
#80=CARTESIAN_POINT('',(2.832283060584029,56.669368059365212,-1.628239E-014));
#81=CARTESIAN_POINT('',(-19.199999999999964,9.999999999999995,-4.612992E-014));
#82=CARTESIAN_POINT('',(2.832283060584011,56.669368059365205,8.606039690290618));
#83=CARTESIAN_POINT('',(-19.20000000000001,10.000000000000004,20.190471605195714));
#84=CARTESIAN_POINT('',(11.016141530291993,54.83468402968262,8.606039690290638));
#85=CARTESIAN_POINT('',(-4.834740E-014,5.695681505210262,20.190471605195768));
#93=(BOUNDED_SURFACE()B_SPLINE_SURFACE(1,2,((#68,#70,#72,#74,#76,#78,#80,#82,#84),(#69,#71,#73,#75,#77,#79,#81,#83,#85)),.UNSPECIFIED.,.F.,.T.,.U.)B_SPLINE_SURFACE_WITH_KNOTS((2,2),(3,2,2,2,3),(-2.463766588270297,0.224183254936966),(0.0,30.197451153765343,60.394902307530685,90.592353461296028,120.78980461506137),.UNSPECIFIED.)GEOMETRIC_REPRESENTATION_ITEM()RATIONAL_B_SPLINE_SURFACE(((1.0,0.707106781186548,1.0,0.707106781186548,1.0,0.707106781186548,1.0,0.707106781186548,1.0),(1.0,0.707106781186548,1.0,0.707106781186548,1.0,0.707106781186548,1.0,0.707106781186548,1.0)))REPRESENTATION_ITEM('')SURFACE());
#94=CARTESIAN_POINT('',(19.199999999999999,10.0,-2.351322E-015));
#95=VERTEX_POINT('',#94);
#96=CARTESIAN_POINT('',(0.0,10.0,0.0));
#97=DIRECTION('',(0.0,1.0,0.0));
#98=DIRECTION('',(-1.0,0.0,0.0));
#99=AXIS2_PLACEMENT_3D('',#96,#97,#98);
#100=CIRCLE('',#99,19.199999999999999);
#101=EDGE_CURVE('',#95,#95,#100,.T.);
#102=ORIENTED_EDGE('',*,*,#101,.F.);
#103=EDGE_LOOP('',(#102));
#104=FACE_OUTER_BOUND('',#103,.T.);
#105=CARTESIAN_POINT('',(19.199999999999996,53.000000000000014,-1.108305E-015));
#106=VERTEX_POINT('',#105);
#107=CARTESIAN_POINT('',(10.149999999999997,53.000000000000007,0.0));
#108=DIRECTION('',(0.0,1.0,0.0));
#109=DIRECTION('',(-1.0,0.0,0.0));
#110=AXIS2_PLACEMENT_3D('',#107,#108,#109);
#111=CIRCLE('',#110,9.049999999999997);
#112=EDGE_CURVE('',#106,#106,#111,.T.);
#113=ORIENTED_EDGE('',*,*,#112,.T.);
#114=EDGE_LOOP('',(#113));
#115=FACE_BOUND('',#114,.T.);
#116=ADVANCED_FACE('',(#104,#115),#93,.F.);
#117=CARTESIAN_POINT('',(10.149999999999984,80.0,0.0));
#118=DIRECTION('',(4.934325E-016,-1.0,0.0));
#119=DIRECTION('',(-1.0,0.0,0.0));
#120=AXIS2_PLACEMENT_3D('',#117,#118,#119);
#121=CYLINDRICAL_SURFACE('',#120,9.049999999999997);
#122=ORIENTED_EDGE('',*,*,#112,.F.);
#123=EDGE_LOOP('',(#122));
#124=FACE_OUTER_BOUND('',#123,.T.);
#125=CARTESIAN_POINT('',(19.199999999999982,80.0,1.108305E-015));
#126=VERTEX_POINT('',#125);
#127=CARTESIAN_POINT('',(10.149999999999984,80.0,0.0));
#128=DIRECTION('',(0.0,-1.0,0.0));
#129=DIRECTION('',(-1.0,0.0,0.0));
#130=AXIS2_PLACEMENT_3D('',#127,#128,#129);
#131=CIRCLE('',#130,9.049999999999997);
#132=EDGE_CURVE('',#126,#126,#131,.T.);
#133=ORIENTED_EDGE('',*,*,#132,.F.);
#134=EDGE_LOOP('',(#133));
#135=FACE_BOUND('',#134,.T.);
#136=ADVANCED_FACE('',(#124,#135),#121,.F.);
#137=CARTESIAN_POINT('',(0.0,5.551115E-015,0.0));
#138=DIRECTION('',(0.0,1.0,0.0));
#139=DIRECTION('',(-1.0,0.0,0.0));
#140=AXIS2_PLACEMENT_3D('',#137,#138,#139);
#141=CYLINDRICAL_SURFACE('',#140,19.199999999999999);
#142=CARTESIAN_POINT('',(19.199999999999999,5.551115E-015,2.351322E-015));
#143=VERTEX_POINT('',#142);
#144=CARTESIAN_POINT('',(0.0,5.551115E-015,0.0));
#145=DIRECTION('',(0.0,1.0,0.0));
#146=DIRECTION('',(-1.0,0.0,0.0));
#147=AXIS2_PLACEMENT_3D('',#144,#145,#146);
#148=CIRCLE('',#147,19.199999999999999);
#149=EDGE_CURVE('',#143,#143,#148,.T.);
#150=ORIENTED_EDGE('',*,*,#149,.F.);
#151=EDGE_LOOP('',(#150));
#152=FACE_OUTER_BOUND('',#151,.T.);
#153=ORIENTED_EDGE('',*,*,#101,.T.);
#154=EDGE_LOOP('',(#153));
#155=FACE_BOUND('',#154,.T.);
#156=ADVANCED_FACE('',(#152,#155),#141,.F.);
#157=CARTESIAN_POINT('',(10.14999999999999,67.5,0.0));
#158=DIRECTION('',(-5.551115E-016,1.0,0.0));
#159=DIRECTION('',(-1.0,0.0,0.0));
#160=AXIS2_PLACEMENT_3D('',#157,#158,#159);
#161=CYLINDRICAL_SURFACE('',#160,10.649999999999798);
#162=CARTESIAN_POINT('',(-0.499999999999821,80.0,0.0));
#163=VERTEX_POINT('',#162);
#164=CARTESIAN_POINT('',(10.149999999999984,80.0,0.0));
#165=DIRECTION('',(0.0,1.0,0.0));
#166=DIRECTION('',(-1.0,0.0,0.0));
#167=AXIS2_PLACEMENT_3D('',#164,#165,#166);
#168=CIRCLE('',#167,10.649999999999803);
#169=EDGE_CURVE('',#163,#163,#168,.T.);
#170=ORIENTED_EDGE('',*,*,#169,.F.);
#171=EDGE_LOOP('',(#170));
#172=FACE_OUTER_BOUND('',#171,.T.);
#173=CARTESIAN_POINT('',(-0.499999999999794,55.0,0.0));
#174=VERTEX_POINT('',#173);
#175=CARTESIAN_POINT('',(10.149999999999997,55.0,0.0));
#176=DIRECTION('',(0.0,1.0,0.0));
#177=DIRECTION('',(-1.0,0.0,0.0));
#178=AXIS2_PLACEMENT_3D('',#175,#176,#177);
#179=CIRCLE('',#178,10.649999999999791);
#180=EDGE_CURVE('',#174,#174,#179,.T.);
#181=ORIENTED_EDGE('',*,*,#180,.T.);
#182=EDGE_LOOP('',(#181));
#183=FACE_BOUND('',#182,.T.);
#184=ADVANCED_FACE('',(#172,#183),#161,.T.);
#185=CARTESIAN_POINT('',(4.825000000000081,80.0,0.0));
#186=DIRECTION('',(0.0,1.0,0.0));
#187=DIRECTION('',(0.0,0.0,1.0));
#188=AXIS2_PLACEMENT_3D('',#185,#186,#187);
#189=PLANE('',#188);
#190=ORIENTED_EDGE('',*,*,#169,.T.);
#191=EDGE_LOOP('',(#190));
#192=FACE_OUTER_BOUND('',#191,.T.);
#193=ORIENTED_EDGE('',*,*,#132,.T.);
#194=EDGE_LOOP('',(#193));
#195=FACE_BOUND('',#194,.T.);
#196=ADVANCED_FACE('',(#192,#195),#189,.T.);
#197=CARTESIAN_POINT('',(10.150000000000004,42.500000000000007,0.0));
#198=DIRECTION('',(5.551115E-016,-1.0,0.0));
#199=DIRECTION('',(-1.0,0.0,0.0));
#200=AXIS2_PLACEMENT_3D('',#197,#198,#199);
#201=CONICAL_SURFACE('',#200,20.999999999999901,39.624756609243228);
#202=CARTESIAN_POINT('',(-21.200000000000003,30.000000000000004,0.0));
#203=VERTEX_POINT('',#202);
#204=CARTESIAN_POINT('',(-21.200000000000014,29.999999999999993,5.551115E-016));
#205=CARTESIAN_POINT('',(-21.200000000000014,29.999999999999993,1.874664432510449));
#206=CARTESIAN_POINT('',(-20.934669661479223,30.103261833879472,3.901221671639351));
#207=CARTESIAN_POINT('',(-19.828513813016844,30.53949283618206,7.765949066143346));
#208=CARTESIAN_POINT('',(-18.988406179163228,30.872821955525023,9.604284017893573));
#209=CARTESIAN_POINT('',(-17.029903997318655,31.665069295022636,12.766323373675572));
#210=CARTESIAN_POINT('',(-15.738160774257757,32.194156581816074,14.342562981554241));
#211=CARTESIAN_POINT('',(-12.794654906016977,33.43760092842605,17.020447546063792));
#212=CARTESIAN_POINT('',(-11.1442779622332,34.152948359571475,18.123155409178903));
#213=CARTESIAN_POINT('',(-8.009907110315584,35.559463102256146,19.703845631041506));
#214=CARTESIAN_POINT('',(-6.360025130075534,36.321607207735433,20.298307354291033));
#215=CARTESIAN_POINT('',(-2.963178252462841,37.958530464676819,21.063968679406958));
#216=CARTESIAN_POINT('',(-1.216374692916355,38.833536064712199,21.23539988265123));
#217=CARTESIAN_POINT('',(2.236263802040798,40.651320893273152,21.152332142199491));
#218=CARTESIAN_POINT('',(3.944865115009304,41.595885488870223,20.897824850368032));
#219=CARTESIAN_POINT('',(7.197461252344056,43.498065829017847,20.011936370193794));
#220=CARTESIAN_POINT('',(8.741309908853873,44.455909161094091,19.380507214613981));
#221=CARTESIAN_POINT('',(12.061844593116495,46.642884142627956,17.569691929903929));
#222=CARTESIAN_POINT('',(13.96230997706458,48.01123191937905,16.12957448897938));
#223=CARTESIAN_POINT('',(17.19243970074124,50.587417596665595,12.630494574110996));
#224=CARTESIAN_POINT('',(18.524187638791354,51.795019100039461,10.573282032983904));
#225=CARTESIAN_POINT('',(19.976408287618948,53.213465038069756,7.218121889849435));
#226=CARTESIAN_POINT('',(20.437467393002649,53.692430082819548,5.826976905897864));
#227=CARTESIAN_POINT('',(21.050092232969256,54.347658122887957,2.921874234762124));
#228=CARTESIAN_POINT('',(21.200000000000014,54.516908212560118,1.405989987718263));
#229=CARTESIAN_POINT('',(21.200000000000014,54.516908212560118,-1.405989987718261));
#230=CARTESIAN_POINT('',(21.050092232969256,54.347658122887957,-2.921874234762123));
#231=CARTESIAN_POINT('',(20.437467393002649,53.692430082819548,-5.826976905897864));
#232=CARTESIAN_POINT('',(19.976408287618955,53.213465038069756,-7.218121889849439));
#233=CARTESIAN_POINT('',(18.524187638791357,51.795019100039461,-10.573282032983908));
#234=CARTESIAN_POINT('',(17.192439700741243,50.587417596665603,-12.630494574110994));
#235=CARTESIAN_POINT('',(13.962309977064582,48.011231919379057,-16.12957448897938));
#236=CARTESIAN_POINT('',(12.061844593116501,46.642884142627935,-17.569691929903925));
#237=CARTESIAN_POINT('',(8.741309908853875,44.455909161094091,-19.380507214613981));
#238=CARTESIAN_POINT('',(7.197461252344057,43.498065829017847,-20.011936370193794));
#239=CARTESIAN_POINT('',(3.944865115009304,41.595885488870223,-20.897824850368032));
#240=CARTESIAN_POINT('',(2.2362638020408,40.651320893273152,-21.152332142199491));
#241=CARTESIAN_POINT('',(-1.216374692916347,38.833536064712206,-21.23539988265123));
#242=CARTESIAN_POINT('',(-2.963178252462829,37.958530464676826,-21.063968679406962));
#243=CARTESIAN_POINT('',(-6.360025130075519,36.32160720773544,-20.29830735429104));
#244=CARTESIAN_POINT('',(-8.009907110315574,35.55946310225616,-19.703845631041506));
#245=CARTESIAN_POINT('',(-11.144277962233193,34.152948359571482,-18.123155409178903));
#246=CARTESIAN_POINT('',(-12.794654906016964,33.437600928426065,-17.020447546063792));
#247=CARTESIAN_POINT('',(-15.738160774257743,32.194156581816088,-14.342562981554245));
#248=CARTESIAN_POINT('',(-17.029903997318648,31.665069295022626,-12.766323373675586));
#249=CARTESIAN_POINT('',(-18.988406179163224,30.872821955525012,-9.604284017893587));
#250=CARTESIAN_POINT('',(-19.828513813016837,30.53949283618206,-7.76594906614336));
#251=CARTESIAN_POINT('',(-20.934669661479219,30.103261833879472,-3.901221671639361));
#252=CARTESIAN_POINT('',(-21.200000000000014,29.999999999999993,-1.874664432510455));
#253=CARTESIAN_POINT('',(-21.200000000000014,29.999999999999993,-5.551115E-016));
#254=B_SPLINE_CURVE_WITH_KNOTS('',3,(#204,#205,#206,#207,#208,#209,#210,#211,#212,#213,#214,#215,#216,#217,#218,#219,#220,#221,#222,#223,#224,#225,#226,#227,#228,#229,#230,#231,#232,#233,#234,#235,#236,#237,#238,#239,#240,#241,#242,#243,#244,#245,#246,#247,#248,#249,#250,#251,#252,#253),.UNSPECIFIED.,.T.,.U.,(4,2,2,2,2,2,2,2,2,2,2,2,2,2,2,2,2,2,2,2,2,2,2,2,4),(0.0,0.562399329753135,1.124798659506269,1.703262668530866,2.281726677555463,2.837768346904004,3.393810016252544,3.949851685601085,4.505893354949626,5.260541425361303,6.01518949577298,6.436986492088459,6.858783488403938,7.280580484719416,7.702377481034895,8.457025551446572,9.21167362185825,9.767715291206791,10.323756960555331,10.87979862990387,11.435840299252412,12.014304308277008,12.592768317301605,13.155167647054739,13.717566976807875),.UNSPECIFIED.);
#255=EDGE_CURVE('',#203,#203,#254,.T.);
#256=ORIENTED_EDGE('',*,*,#255,.T.);
#257=EDGE_LOOP('',(#256));
#258=FACE_OUTER_BOUND('',#257,.T.);
#259=ORIENTED_EDGE('',*,*,#180,.F.);
#260=EDGE_LOOP('',(#259));
#261=FACE_BOUND('',#260,.T.);
#262=ADVANCED_FACE('',(#258,#261),#201,.T.);
#263=CARTESIAN_POINT('',(0.0,15.000000000000004,0.0));
#264=DIRECTION('',(0.0,-1.0,0.0));
#265=DIRECTION('',(1.0,0.0,0.0));
#266=AXIS2_PLACEMENT_3D('',#263,#264,#265);
#267=CYLINDRICAL_SURFACE('',#266,21.20000000000001);
#268=CARTESIAN_POINT('',(21.200000000000014,8.881784E-015,0.0));
#269=VERTEX_POINT('',#268);
#270=CARTESIAN_POINT('',(0.0,8.881784E-015,0.0));
#271=DIRECTION('',(0.0,-1.0,0.0));
#272=DIRECTION('',(1.0,0.0,0.0));
#273=AXIS2_PLACEMENT_3D('',#270,#271,#272);
#274=CIRCLE('',#273,21.200000000000014);
#275=EDGE_CURVE('',#269,#269,#274,.T.);
#276=ORIENTED_EDGE('',*,*,#275,.F.);
#277=EDGE_LOOP('',(#276));
#278=FACE_OUTER_BOUND('',#277,.T.);
#279=ORIENTED_EDGE('',*,*,#255,.F.);
#280=EDGE_LOOP('',(#279));
#281=FACE_BOUND('',#280,.T.);
#282=ADVANCED_FACE('',(#278,#281),#267,.T.);
#283=CARTESIAN_POINT('',(10.600000000000007,5.551115E-015,0.0));
#284=DIRECTION('',(0.0,-1.0,0.0));
#285=DIRECTION('',(0.0,0.0,-1.0));
#286=AXIS2_PLACEMENT_3D('',#283,#284,#285);
#287=PLANE('',#286);
#288=ORIENTED_EDGE('',*,*,#275,.T.);
#289=EDGE_LOOP('',(#288));
#290=FACE_OUTER_BOUND('',#289,.T.);
#291=ORIENTED_EDGE('',*,*,#149,.T.);
#292=EDGE_LOOP('',(#291));
#293=FACE_BOUND('',#292,.T.);
#294=ADVANCED_FACE('',(#290,#293),#287,.T.);
#295=CLOSED_SHELL('',(#116,#136,#156,#184,#196,#262,#282,#294));
#296=MANIFOLD_SOLID_BREP('Volumenk\S\vrper2',#295);
#297=COLOUR_RGB('Metall - Stahl',0.639216005802155,0.639216005802155,0.686275005340576);
#298=FILL_AREA_STYLE_COLOUR('Metall - Stahl',#297);
#299=FILL_AREA_STYLE('Metall - Stahl',(#298));
#300=SURFACE_STYLE_FILL_AREA(#299);
#301=SURFACE_SIDE_STYLE('Metall - Stahl',(#300));
#302=SURFACE_STYLE_USAGE(.BOTH.,#301);
#303=PRESENTATION_STYLE_ASSIGNMENT((#302));
#304=STYLED_ITEM('',(#303),#296);
#305=MECHANICAL_DESIGN_GEOMETRIC_PRESENTATION_REPRESENTATION('',(#304),#36);
#306=ADVANCED_BREP_SHAPE_REPRESENTATION('ABSR',(#296),#36);
#307=SHAPE_REPRESENTATION_RELATIONSHIP('SRR','None',#306,#41);
ENDSEC;
END-ISO-10303-21;
