ISO-10303-21;
HEADER;
/* Generated by software containing ST-Developer
 * from STEP Tools, Inc. (www.steptools.com) 
 */

FILE_DESCRIPTION(
/* description */ ('GK_13,5x1,6_Fl25'),
/* implementation_level */ '2;1');

FILE_NAME(
/* name */ 'GK_13,5x1,6_Fl25.stp',
/* time_stamp */ '2014-08-29T11:40:19+02:00',
/* author */ ('DOCKWEILER AG'),
/* organization */ ('DOCKWEILER AG'),
/* preprocessor_version */ 'ST-DEVELOPER v15.6',
/* originating_system */ 'Autodesk Inventor 2015',
/* authorisation */ '');

FILE_SCHEMA (('CONFIG_CONTROL_DESIGN'));
ENDSEC;

DATA;
#10=MECHANICAL_DESIGN_GEOMETRIC_PRESENTATION_REPRESENTATION('',(#13),#183);
#11=SHAPE_REPRESENTATION_RELATIONSHIP('SRR','None',#192,#12);
#12=ADVANCED_BREP_SHAPE_REPRESENTATION($,(#14),#182);
#13=STYLED_ITEM('',(#201),#14);
#14=MANIFOLD_SOLID_BREP('Volumenk\X\F6rper1',#103);
#15=CYLINDRICAL_SURFACE('',#112,10.9);
#16=CYLINDRICAL_SURFACE('',#120,5.25);
#17=TOROIDAL_SURFACE('',#108,8.9,0.4);
#18=TOROIDAL_SURFACE('',#110,10.1,0.8);
#19=TOROIDAL_SURFACE('',#114,10.1,0.8);
#20=TOROIDAL_SURFACE('',#116,8.9,0.4);
#21=FACE_BOUND('',#38,.T.);
#22=FACE_BOUND('',#40,.T.);
#23=FACE_BOUND('',#42,.T.);
#24=FACE_BOUND('',#44,.T.);
#25=FACE_BOUND('',#46,.T.);
#26=FACE_BOUND('',#48,.T.);
#27=FACE_BOUND('',#50,.T.);
#28=FACE_BOUND('',#52,.T.);
#29=FACE_OUTER_BOUND('',#37,.T.);
#30=FACE_OUTER_BOUND('',#39,.T.);
#31=FACE_OUTER_BOUND('',#41,.T.);
#32=FACE_OUTER_BOUND('',#43,.T.);
#33=FACE_OUTER_BOUND('',#45,.T.);
#34=FACE_OUTER_BOUND('',#47,.T.);
#35=FACE_OUTER_BOUND('',#49,.T.);
#36=FACE_OUTER_BOUND('',#51,.T.);
#37=EDGE_LOOP('',(#77));
#38=EDGE_LOOP('',(#78));
#39=EDGE_LOOP('',(#79));
#40=EDGE_LOOP('',(#80));
#41=EDGE_LOOP('',(#81));
#42=EDGE_LOOP('',(#82));
#43=EDGE_LOOP('',(#83));
#44=EDGE_LOOP('',(#84));
#45=EDGE_LOOP('',(#85));
#46=EDGE_LOOP('',(#86));
#47=EDGE_LOOP('',(#87));
#48=EDGE_LOOP('',(#88));
#49=EDGE_LOOP('',(#89));
#50=EDGE_LOOP('',(#90));
#51=EDGE_LOOP('',(#91));
#52=EDGE_LOOP('',(#92));
#53=CIRCLE('',#106,8.9);
#54=CIRCLE('',#107,5.25);
#55=CIRCLE('',#109,9.3);
#56=CIRCLE('',#111,10.9);
#57=CIRCLE('',#113,10.9);
#58=CIRCLE('',#115,9.3);
#59=CIRCLE('',#117,8.9);
#60=CIRCLE('',#119,5.25);
#61=VERTEX_POINT('',#157);
#62=VERTEX_POINT('',#159);
#63=VERTEX_POINT('',#162);
#64=VERTEX_POINT('',#165);
#65=VERTEX_POINT('',#168);
#66=VERTEX_POINT('',#171);
#67=VERTEX_POINT('',#174);
#68=VERTEX_POINT('',#177);
#69=EDGE_CURVE('',#61,#61,#53,.T.);
#70=EDGE_CURVE('',#62,#62,#54,.T.);
#71=EDGE_CURVE('',#63,#63,#55,.T.);
#72=EDGE_CURVE('',#64,#64,#56,.T.);
#73=EDGE_CURVE('',#65,#65,#57,.T.);
#74=EDGE_CURVE('',#66,#66,#58,.T.);
#75=EDGE_CURVE('',#67,#67,#59,.T.);
#76=EDGE_CURVE('',#68,#68,#60,.T.);
#77=ORIENTED_EDGE('',*,*,#69,.F.);
#78=ORIENTED_EDGE('',*,*,#70,.T.);
#79=ORIENTED_EDGE('',*,*,#71,.F.);
#80=ORIENTED_EDGE('',*,*,#69,.T.);
#81=ORIENTED_EDGE('',*,*,#72,.F.);
#82=ORIENTED_EDGE('',*,*,#71,.T.);
#83=ORIENTED_EDGE('',*,*,#73,.F.);
#84=ORIENTED_EDGE('',*,*,#72,.T.);
#85=ORIENTED_EDGE('',*,*,#74,.F.);
#86=ORIENTED_EDGE('',*,*,#73,.T.);
#87=ORIENTED_EDGE('',*,*,#75,.F.);
#88=ORIENTED_EDGE('',*,*,#74,.T.);
#89=ORIENTED_EDGE('',*,*,#75,.T.);
#90=ORIENTED_EDGE('',*,*,#76,.F.);
#91=ORIENTED_EDGE('',*,*,#70,.F.);
#92=ORIENTED_EDGE('',*,*,#76,.T.);
#93=PLANE('',#105);
#94=PLANE('',#118);
#95=ADVANCED_FACE('',(#29,#21),#93,.T.);
#96=ADVANCED_FACE('',(#30,#22),#17,.F.);
#97=ADVANCED_FACE('',(#31,#23),#18,.T.);
#98=ADVANCED_FACE('',(#32,#24),#15,.T.);
#99=ADVANCED_FACE('',(#33,#25),#19,.T.);
#100=ADVANCED_FACE('',(#34,#26),#20,.F.);
#101=ADVANCED_FACE('',(#35,#27),#94,.T.);
#102=ADVANCED_FACE('',(#36,#28),#16,.F.);
#103=CLOSED_SHELL('',(#95,#96,#97,#98,#99,#100,#101,#102));
#104=AXIS2_PLACEMENT_3D('placement',#155,#121,#122);
#105=AXIS2_PLACEMENT_3D('',#156,#123,#124);
#106=AXIS2_PLACEMENT_3D('',#158,#125,#126);
#107=AXIS2_PLACEMENT_3D('',#160,#127,#128);
#108=AXIS2_PLACEMENT_3D('',#161,#129,#130);
#109=AXIS2_PLACEMENT_3D('',#163,#131,#132);
#110=AXIS2_PLACEMENT_3D('',#164,#133,#134);
#111=AXIS2_PLACEMENT_3D('',#166,#135,#136);
#112=AXIS2_PLACEMENT_3D('',#167,#137,#138);
#113=AXIS2_PLACEMENT_3D('',#169,#139,#140);
#114=AXIS2_PLACEMENT_3D('',#170,#141,#142);
#115=AXIS2_PLACEMENT_3D('',#172,#143,#144);
#116=AXIS2_PLACEMENT_3D('',#173,#145,#146);
#117=AXIS2_PLACEMENT_3D('',#175,#147,#148);
#118=AXIS2_PLACEMENT_3D('',#176,#149,#150);
#119=AXIS2_PLACEMENT_3D('',#178,#151,#152);
#120=AXIS2_PLACEMENT_3D('',#179,#153,#154);
#121=DIRECTION('axis',(0.,0.,1.));
#122=DIRECTION('refdir',(1.,0.,0.));
#123=DIRECTION('center_axis',(-2.44929359829471E-16,1.,0.));
#124=DIRECTION('ref_axis',(0.,0.,1.));
#125=DIRECTION('center_axis',(2.44929359829471E-16,-1.,0.));
#126=DIRECTION('ref_axis',(1.,2.64338815386942E-16,0.));
#127=DIRECTION('center_axis',(2.44929359829471E-16,-1.,0.));
#128=DIRECTION('ref_axis',(1.,2.64338815386942E-16,0.));
#129=DIRECTION('center_axis',(2.44929359829471E-16,-1.,0.));
#130=DIRECTION('ref_axis',(0.,0.,-1.));
#131=DIRECTION('center_axis',(2.44929359829471E-16,-1.,0.));
#132=DIRECTION('ref_axis',(1.,2.64338815386942E-16,0.));
#133=DIRECTION('center_axis',(2.44929359829471E-16,-1.,0.));
#134=DIRECTION('ref_axis',(0.,0.,-1.));
#135=DIRECTION('center_axis',(2.44929359829471E-16,-1.,0.));
#136=DIRECTION('ref_axis',(1.,2.64338815386942E-16,0.));
#137=DIRECTION('center_axis',(2.44929359829471E-16,-1.,0.));
#138=DIRECTION('ref_axis',(1.,2.64338815386942E-16,0.));
#139=DIRECTION('center_axis',(2.44929359829471E-16,-1.,0.));
#140=DIRECTION('ref_axis',(1.,2.64338815386942E-16,0.));
#141=DIRECTION('center_axis',(2.44929359829471E-16,-1.,0.));
#142=DIRECTION('ref_axis',(0.,0.,-1.));
#143=DIRECTION('center_axis',(2.44929359829471E-16,-1.,0.));
#144=DIRECTION('ref_axis',(1.,2.64338815386942E-16,0.));
#145=DIRECTION('center_axis',(2.44929359829471E-16,-1.,0.));
#146=DIRECTION('ref_axis',(0.,0.,-1.));
#147=DIRECTION('center_axis',(2.44929359829471E-16,-1.,0.));
#148=DIRECTION('ref_axis',(1.,2.64338815386942E-16,0.));
#149=DIRECTION('center_axis',(2.44929359829471E-16,-1.,0.));
#150=DIRECTION('ref_axis',(0.,0.,-1.));
#151=DIRECTION('center_axis',(2.44929359829471E-16,-1.,0.));
#152=DIRECTION('ref_axis',(1.,2.64338815386942E-16,0.));
#153=DIRECTION('center_axis',(2.44929359829471E-16,-1.,0.));
#154=DIRECTION('ref_axis',(1.,2.64338815386942E-16,0.));
#155=CARTESIAN_POINT('',(0.,0.,0.));
#156=CARTESIAN_POINT('Origin',(7.075,2.1,0.));
#157=CARTESIAN_POINT('',(8.9,2.1,0.));
#158=CARTESIAN_POINT('Origin',(-5.14351655641887E-16,2.1,0.));
#159=CARTESIAN_POINT('',(5.25,2.1,0.));
#160=CARTESIAN_POINT('Origin',(-5.14351655641888E-16,2.1,0.));
#161=CARTESIAN_POINT('Origin',(-1.11022302462516E-15,2.5,0.));
#162=CARTESIAN_POINT('',(9.3,2.5,0.));
#163=CARTESIAN_POINT('Origin',(-6.12323399573675E-16,2.5,0.));
#164=CARTESIAN_POINT('Origin',(0.,2.49999999999999,0.));
#165=CARTESIAN_POINT('',(10.9,2.5,0.));
#166=CARTESIAN_POINT('Origin',(-6.12323399573675E-16,2.5,0.));
#167=CARTESIAN_POINT('Origin',(-2.57175827820943E-16,1.05,0.));
#168=CARTESIAN_POINT('',(10.9,-0.400000000000002,0.));
#169=CARTESIAN_POINT('Origin',(9.79717439317894E-17,-0.400000000000005,
0.));
#170=CARTESIAN_POINT('Origin',(0.,-0.400000000000005,0.));
#171=CARTESIAN_POINT('',(9.3,-0.400000000000002,0.));
#172=CARTESIAN_POINT('Origin',(9.79717439317894E-17,-0.400000000000005,
0.));
#173=CARTESIAN_POINT('Origin',(0.,-0.400000000000004,0.));
#174=CARTESIAN_POINT('',(8.9,-2.49800180540659E-15,0.));
#175=CARTESIAN_POINT('Origin',(1.225974780224E-30,-4.67779027318871E-15,
0.));
#176=CARTESIAN_POINT('Origin',(7.075,-5.55015553792653E-15,0.));
#177=CARTESIAN_POINT('',(5.25,-8.60230927044647E-15,0.));
#178=CARTESIAN_POINT('Origin',(2.50214410962359E-30,-9.8879238130678E-15,
0.));
#179=CARTESIAN_POINT('Origin',(-2.57175827820943E-16,1.04999999999999,0.));
#180=UNCERTAINTY_MEASURE_WITH_UNIT(LENGTH_MEASURE(0.01),#184,
'DISTANCE_ACCURACY_VALUE',
'Maximum model space distance between geometric entities at asserted c
onnectivities');
#181=UNCERTAINTY_MEASURE_WITH_UNIT(LENGTH_MEASURE(1.E-6),#184,
'DISTANCE_ACCURACY_VALUE',
'Maximum model space distance between geometric entities at asserted c
onnectivities');
#182=(
GEOMETRIC_REPRESENTATION_CONTEXT(3)
GLOBAL_UNCERTAINTY_ASSIGNED_CONTEXT((#180))
GLOBAL_UNIT_ASSIGNED_CONTEXT((#184,#187,#185))
REPRESENTATION_CONTEXT('','3D')
);
#183=(
GEOMETRIC_REPRESENTATION_CONTEXT(3)
GLOBAL_UNCERTAINTY_ASSIGNED_CONTEXT((#181))
GLOBAL_UNIT_ASSIGNED_CONTEXT((#184,#187,#185))
REPRESENTATION_CONTEXT('','3D')
);
#184=(
LENGTH_UNIT()
NAMED_UNIT(*)
SI_UNIT(.MILLI.,.METRE.)
);
#185=(
NAMED_UNIT(*)
SI_UNIT($,.STERADIAN.)
SOLID_ANGLE_UNIT()
);
#186=DIMENSIONAL_EXPONENTS(0.,0.,0.,0.,0.,0.,0.);
#187=(
CONVERSION_BASED_UNIT('degree',#189)
NAMED_UNIT(#186)
PLANE_ANGLE_UNIT()
);
#188=(
NAMED_UNIT(*)
PLANE_ANGLE_UNIT()
SI_UNIT($,.RADIAN.)
);
#189=PLANE_ANGLE_MEASURE_WITH_UNIT(PLANE_ANGLE_MEASURE(0.01745329252),#188);
#190=SHAPE_DEFINITION_REPRESENTATION(#191,#192);
#191=PRODUCT_DEFINITION_SHAPE('',$,#194);
#192=SHAPE_REPRESENTATION('',(#104),#182);
#193=DESIGN_CONTEXT('part definition',#198,'design');
#194=PRODUCT_DEFINITION('N0005_004_001','N0005_004_001',#195,#193);
#195=PRODUCT_DEFINITION_FORMATION('',$,#200);
#196=PRODUCT_RELATED_PRODUCT_CATEGORY('N0005_004_001','N0005_004_001',(#200));
#197=APPLICATION_PROTOCOL_DEFINITION('international standard',
'ap203_configuration_controlled_3d_design_of_mechanical_parts_and_asse
mblies_mim_lf',2004,#198);
#198=APPLICATION_CONTEXT(
'Configuration Controlled 3D Design of Mechanical Parts and Assemblies');
#199=MECHANICAL_CONTEXT('part definition',#198,'mechanical');
#200=PRODUCT('N0005_004_001','N0005_004_001',$,(#199));
#201=PRESENTATION_STYLE_ASSIGNMENT((#202));
#202=SURFACE_STYLE_USAGE(.BOTH.,#203);
#203=SURFACE_SIDE_STYLE($,(#204));
#204=SURFACE_STYLE_FILL_AREA(#205);
#205=FILL_AREA_STYLE($,(#206));
#206=FILL_AREA_STYLE_COLOUR($,#207);
#207=COLOUR_RGB('',1.,1.,0.);
ENDSEC;
END-ISO-10303-21;
