ISO-10303-21;
HEADER;
FILE_DESCRIPTION (( 'STEP AP203' ),
    '1' );
FILE_NAME ('3D_R169-K_33-26_17325210.STEP',
    '2024-07-11T10:19:18',
    ( '' ),
    ( '' ),
    'SwSTEP 2.0',
    'SolidWorks 2024',
    '' );
FILE_SCHEMA (( 'CONFIG_CONTROL_DESIGN' ));
ENDSEC;

DATA;
#1 = VERTEX_POINT ( 'NONE', #40 ) ;
#2 = AXIS2_PLACEMENT_3D ( 'NONE', #27, #217, #177 ) ;
#3 = DIRECTION ( 'NONE',  ( -0.9908783423839451210, 1.650327346869109720E-17, -0.1347594545642165353 ) ) ;
#4 = CC_DESIGN_PERSON_AND_ORGANIZATION_ASSIGNMENT ( #202, #201, ( #107 ) ) ;
#5 = LINE ( 'NONE', #103, #180 ) ;
#6 = PLANE ( 'NONE',  #121 ) ;
#7 = PLANE ( 'NONE',  #2 ) ;
#8 = FACE_BOUND ( 'NONE', #152, .T. ) ;
#9 = LOCAL_TIME ( 12, 19, 18.00000000000000000, #143 ) ;
#10 = APPLICATION_PROTOCOL_DEFINITION ( 'international standard', 'config_control_design', 1994, #133 ) ;
#11 = PERSON_AND_ORGANIZATION ( #97, #126 ) ;
#12 = PERSON_AND_ORGANIZATION_ROLE ( 'creator' ) ;
#13 = DATE_TIME_ROLE ( 'classification_date' ) ;
#14 = EDGE_CURVE ( 'NONE', #37, #216, #60, .T. ) ;
#15 = AXIS2_PLACEMENT_3D ( 'NONE', #155, #157, #199 ) ;
#16 = CARTESIAN_POINT ( 'NONE',  ( 0.000000000000000000, -1.031764928281645122E-15, 16.85000000000000142 ) ) ;
#17 = AXIS2_PLACEMENT_3D ( 'NONE', #52, #145, #125 ) ;
#18 = VERTEX_POINT ( 'NONE', #16 ) ;
#19 = ORIENTED_EDGE ( 'NONE', *, *, #128, .F. ) ;
#20 = EDGE_LOOP ( 'NONE', ( #227, #153, #77, #210 ) ) ;
#21 = LINE ( 'NONE', #46, #234 ) ;
#22 = CIRCLE ( 'NONE', #67, 16.85000000000000142 ) ;
#23 = DIRECTION ( 'NONE',  ( 1.000000000000000000, 0.000000000000000000, 0.000000000000000000 ) ) ;
#24 = FACE_OUTER_BOUND ( 'NONE', #78, .T. ) ;
#25 = CONICAL_SURFACE ( 'NONE', #119, 13.44999999999999929, 0.1351706986490089912 ) ;
#26 = DIRECTION ( 'NONE',  ( -1.000000000000000000, -0.000000000000000000, -0.000000000000000000 ) ) ;
#27 = CARTESIAN_POINT ( 'NONE',  ( 0.000000000000000000, 0.000000000000000000, 0.000000000000000000 ) ) ;
#28 = COORDINATED_UNIVERSAL_TIME_OFFSET ( 1, 0, .AHEAD. ) ;
#29 = AXIS2_PLACEMENT_3D ( 'NONE', #220, #159, #98 ) ;
#30 = APPROVAL_STATUS ( 'not_yet_approved' ) ;
#31 = APPROVAL ( #184, 'UNSPECIFIED' ) ;
#32 = PERSON_AND_ORGANIZATION ( #97, #126 ) ;
#33 = DATE_AND_TIME ( #243, #162 ) ;
#34 = DATE_AND_TIME ( #207, #85 ) ;
#35 = ADVANCED_FACE ( 'NONE', ( #154 ), #134, .T. ) ;
#36 = VECTOR ( 'NONE', #47, 1000.000000000000227 ) ;
#37 = VERTEX_POINT ( 'NONE', #188 ) ;
#38 = EDGE_CURVE ( 'NONE', #216, #215, #94, .T. ) ;
#39 = DIRECTION ( 'NONE',  ( 0.000000000000000000, 0.000000000000000000, -1.000000000000000000 ) ) ;
#40 = CARTESIAN_POINT ( 'NONE',  ( 25.00000000000000000, 8.235749724265949955E-16, -13.44999999999999929 ) ) ;
#41 = ADVANCED_BREP_SHAPE_REPRESENTATION ( '3D_R169-K_33-26_17325210', ( #167, #17 ), #242 ) ;
#42 = ORIENTED_EDGE ( 'NONE', *, *, #187, .T. ) ;
#43 = CC_DESIGN_SECURITY_CLASSIFICATION ( #107, ( #225 ) ) ;
#44 = FACE_BOUND ( 'NONE', #150, .T. ) ;
#45 = CARTESIAN_POINT ( 'NONE',  ( 0.000000000000000000, 3.095294784844934972E-15, -16.85000000000000142 ) ) ;
#46 = CARTESIAN_POINT ( 'NONE',  ( 24.73048109087157087, 1.404454746784203497E-15, -11.46824331523210994 ) ) ;
#47 = DIRECTION ( 'NONE',  ( -0.9908783423839451210, 0.000000000000000000, 0.1347594545642165353 ) ) ;
#48 = FACE_OUTER_BOUND ( 'NONE', #132, .T. ) ;
#49 =( NAMED_UNIT ( * ) PLANE_ANGLE_UNIT ( ) SI_UNIT ( $, .RADIAN. ) );
#50 = UNCERTAINTY_MEASURE_WITH_UNIT (LENGTH_MEASURE( 1.000000000000000082E-05 ), #178, 'distance_accuracy_value', 'NONE');
#51 = CONICAL_SURFACE ( 'NONE', #29, 11.46824331523210994, 0.1351706986490089912 ) ;
#52 = CARTESIAN_POINT ( 'NONE',  ( 0.000000000000000000, 0.000000000000000000, 0.000000000000000000 ) ) ;
#53 = APPLICATION_PROTOCOL_DEFINITION ( 'international standard', 'config_control_design', 1994, #104 ) ;
#54 = EDGE_CURVE ( 'NONE', #226, #18, #62, .T. ) ;
#55 = DATE_AND_TIME ( #109, #173 ) ;
#56 = ORIENTED_EDGE ( 'NONE', *, *, #128, .T. ) ;
#57 = ORIENTED_EDGE ( 'NONE', *, *, #38, .T. ) ;
#58 = ORIENTED_EDGE ( 'NONE', *, *, #91, .F. ) ;
#59 = ORIENTED_EDGE ( 'NONE', *, *, #14, .T. ) ;
#60 = CIRCLE ( 'NONE', #90, 11.43158874359064292 ) ;
#61 = DIRECTION ( 'NONE',  ( 1.000000000000000000, 0.000000000000000000, 0.000000000000000000 ) ) ;
#62 = LINE ( 'NONE', #102, #36 ) ;
#63 = DIRECTION ( 'NONE',  ( 0.000000000000000000, 0.000000000000000000, -1.000000000000000000 ) ) ;
#64 = CARTESIAN_POINT ( 'NONE',  ( 0.000000000000000000, 0.000000000000000000, 0.000000000000000000 ) ) ;
#65 = CC_DESIGN_APPROVAL ( #169, ( #107 ) ) ;
#66 = FACE_OUTER_BOUND ( 'NONE', #74, .T. ) ;
#67 = AXIS2_PLACEMENT_3D ( 'NONE', #100, #61, #233 ) ;
#68 = DATE_TIME_ROLE ( 'creation_date' ) ;
#69 = PERSON_AND_ORGANIZATION_ROLE ( 'design_owner' ) ;
#70 = PRODUCT_DEFINITION ( 'UNKNOWN', '', #225, #208 ) ;
#71 = COORDINATED_UNIVERSAL_TIME_OFFSET ( 1, 0, .AHEAD. ) ;
#72 = CIRCLE ( 'NONE', #214, 13.44999999999999929 ) ;
#73 = PRODUCT ( '3D_R169-K_33-26_17325210', '3D_R169-K_33-26_17325210', '', ( #203 ) ) ;
#74 = EDGE_LOOP ( 'NONE', ( #56, #95 ) ) ;
#75 = CC_DESIGN_PERSON_AND_ORGANIZATION_ASSIGNMENT ( #88, #110, ( #225 ) ) ;
#76 = DIRECTION ( 'NONE',  ( -0.9908783423839451210, 0.000000000000000000, 0.1347594545642165353 ) ) ;
#77 = ORIENTED_EDGE ( 'NONE', *, *, #181, .T. ) ;
#78 = EDGE_LOOP ( 'NONE', ( #58, #59, #57, #213 ) ) ;
#79 = DIRECTION ( 'NONE',  ( 0.000000000000000000, 0.000000000000000000, -1.000000000000000000 ) ) ;
#80 = ADVANCED_FACE ( 'NONE', ( #8, #66 ), #6, .T. ) ;
#81 = DIRECTION ( 'NONE',  ( -0.9908783423839451210, 1.650327346869109720E-17, -0.1347594545642165353 ) ) ;
#82 = DIRECTION ( 'NONE',  ( 0.000000000000000000, 0.000000000000000000, -1.000000000000000000 ) ) ;
#83 = CONICAL_SURFACE ( 'NONE', #99, 11.46824331523210994, 0.1351706986490089912 ) ;
#84 = CARTESIAN_POINT ( 'NONE',  ( 25.00000000000000000, 0.000000000000000000, 0.000000000000000000 ) ) ;
#85 = LOCAL_TIME ( 12, 19, 18.00000000000000000, #222 ) ;
#86 = PERSON_AND_ORGANIZATION ( #97, #126 ) ;
#87 = EDGE_CURVE ( 'NONE', #247, #215, #131, .T. ) ;
#88 = PERSON_AND_ORGANIZATION ( #97, #126 ) ;
#89 = ORIENTED_EDGE ( 'NONE', *, *, #38, .F. ) ;
#90 = AXIS2_PLACEMENT_3D ( 'NONE', #116, #192, #39 ) ;
#91 = EDGE_CURVE ( 'NONE', #37, #247, #21, .T. ) ;
#92 = APPROVAL_PERSON_ORGANIZATION ( #146, #169, #237 ) ;
#93 = ORIENTED_EDGE ( 'NONE', *, *, #244, .T. ) ;
#94 = LINE ( 'NONE', #171, #200 ) ;
#95 = ORIENTED_EDGE ( 'NONE', *, *, #101, .T. ) ;
#96 = ORIENTED_EDGE ( 'NONE', *, *, #91, .T. ) ;
#97 = PERSON ( 'UNSPECIFIED', 'UNSPECIFIED', 'UNSPECIFIED', ('UNSPECIFIED'), ('UNSPECIFIED'), ('UNSPECIFIED') ) ;
#98 = DIRECTION ( 'NONE',  ( 0.000000000000000000, 0.000000000000000000, 1.000000000000000000 ) ) ;
#99 = AXIS2_PLACEMENT_3D ( 'NONE', #230, #124, #122 ) ;
#100 = CARTESIAN_POINT ( 'NONE',  ( 0.000000000000000000, 0.000000000000000000, 0.000000000000000000 ) ) ;
#101 = EDGE_CURVE ( 'NONE', #1, #226, #189, .T. ) ;
#102 = CARTESIAN_POINT ( 'NONE',  ( 25.00000000000000000, 0.000000000000000000, 13.44999999999999929 ) ) ;
#103 = CARTESIAN_POINT ( 'NONE',  ( 25.00000000000000000, 1.647149944853189991E-15, -13.44999999999999929 ) ) ;
#104 = APPLICATION_CONTEXT ( 'configuration controlled 3d designs of mechanical parts and assemblies' ) ;
#105 = DIRECTION ( 'NONE',  ( 1.000000000000000000, 0.000000000000000000, 0.000000000000000000 ) ) ;
#106 = APPROVAL_DATE_TIME ( #127, #235 ) ;
#107 = SECURITY_CLASSIFICATION ( '', '', #164 ) ;
#108 = CIRCLE ( 'NONE', #223, 16.85000000000000142 ) ;
#109 = CALENDAR_DATE ( 2024, 11, 7 ) ;
#110 = PERSON_AND_ORGANIZATION_ROLE ( 'design_supplier' ) ;
#111 = APPROVAL_DATE_TIME ( #33, #31 ) ;
#112 = SHAPE_DEFINITION_REPRESENTATION ( #209, #41 ) ;
#113 = ORIENTED_EDGE ( 'NONE', *, *, #181, .F. ) ;
#114 = DIRECTION ( 'NONE',  ( 0.000000000000000000, 0.000000000000000000, 1.000000000000000000 ) ) ;
#115 = ADVANCED_FACE ( 'NONE', ( #48 ), #83, .F. ) ;
#116 = CARTESIAN_POINT ( 'NONE',  ( 25.00000000000000000, 0.000000000000000000, 0.000000000000000000 ) ) ;
#117 = APPROVAL_PERSON_ORGANIZATION ( #86, #235, #221 ) ;
#118 = DIRECTION ( 'NONE',  ( -1.000000000000000000, -0.000000000000000000, -0.000000000000000000 ) ) ;
#119 = AXIS2_PLACEMENT_3D ( 'NONE', #140, #26, #179 ) ;
#120 = DIRECTION ( 'NONE',  ( 0.000000000000000000, 0.000000000000000000, -1.000000000000000000 ) ) ;
#121 = AXIS2_PLACEMENT_3D ( 'NONE', #195, #105, #79 ) ;
#122 = DIRECTION ( 'NONE',  ( 0.000000000000000000, 0.000000000000000000, 1.000000000000000000 ) ) ;
#123 = CC_DESIGN_DATE_AND_TIME_ASSIGNMENT ( #34, #68, ( #70 ) ) ;
#124 = DIRECTION ( 'NONE',  ( -1.000000000000000000, -0.000000000000000000, -0.000000000000000000 ) ) ;
#125 = DIRECTION ( 'NONE',  ( 1.000000000000000000, 0.000000000000000000, 0.000000000000000000 ) ) ;
#126 = ORGANIZATION ( 'UNSPECIFIED', 'UNSPECIFIED', '' ) ;
#127 = DATE_AND_TIME ( #160, #9 ) ;
#128 = EDGE_CURVE ( 'NONE', #226, #1, #72, .T. ) ;
#129 = APPROVAL_DATE_TIME ( #55, #169 ) ;
#130 = AXIS2_PLACEMENT_3D ( 'NONE', #176, #198, #120 ) ;
#131 = CIRCLE ( 'NONE', #238, 14.83158874359064328 ) ;
#132 = EDGE_LOOP ( 'NONE', ( #228, #96, #168, #89 ) ) ;
#133 = APPLICATION_CONTEXT ( 'configuration controlled 3d designs of mechanical parts and assemblies' ) ;
#134 = CONICAL_SURFACE ( 'NONE', #165, 13.44999999999999929, 0.1351706986490089912 ) ;
#135 = ADVANCED_FACE ( 'NONE', ( #44, #136 ), #7, .F. ) ;
#136 = FACE_OUTER_BOUND ( 'NONE', #151, .T. ) ;
#137 = FACE_OUTER_BOUND ( 'NONE', #20, .T. ) ;
#138 = CARTESIAN_POINT ( 'NONE',  ( 0.000000000000000000, 1.816345768110819726E-15, -14.83158874359064328 ) ) ;
#139 = CC_DESIGN_PERSON_AND_ORGANIZATION_ASSIGNMENT ( #32, #12, ( #225 ) ) ;
#140 = CARTESIAN_POINT ( 'NONE',  ( 25.00000000000000000, 0.000000000000000000, 0.000000000000000000 ) ) ;
#141 = DIRECTION ( 'NONE',  ( 0.000000000000000000, 0.000000000000000000, -1.000000000000000000 ) ) ;
#142 = PERSON_AND_ORGANIZATION ( #97, #126 ) ;
#143 = COORDINATED_UNIVERSAL_TIME_OFFSET ( 1, 0, .AHEAD. ) ;
#144 = CC_DESIGN_DATE_AND_TIME_ASSIGNMENT ( #166, #13, ( #107 ) ) ;
#145 = DIRECTION ( 'NONE',  ( 0.000000000000000000, 0.000000000000000000, 1.000000000000000000 ) ) ;
#146 = PERSON_AND_ORGANIZATION ( #97, #126 ) ;
#147 = EDGE_CURVE ( 'NONE', #216, #37, #175, .T. ) ;
#148 = CC_DESIGN_APPROVAL ( #235, ( #225 ) ) ;
#149 = CIRCLE ( 'NONE', #130, 14.83158874359064328 ) ;
#150 = EDGE_LOOP ( 'NONE', ( #42, #172 ) ) ;
#151 = EDGE_LOOP ( 'NONE', ( #248, #113 ) ) ;
#152 = EDGE_LOOP ( 'NONE', ( #190, #212 ) ) ;
#153 = ORIENTED_EDGE ( 'NONE', *, *, #204, .T. ) ;
#154 = FACE_OUTER_BOUND ( 'NONE', #170, .T. ) ;
#155 = CARTESIAN_POINT ( 'NONE',  ( 25.00000000000000000, 0.000000000000000000, 0.000000000000000000 ) ) ;
#156 = CARTESIAN_POINT ( 'NONE',  ( 0.000000000000000000, 0.000000000000000000, 14.83158874359064328 ) ) ;
#157 = DIRECTION ( 'NONE',  ( 1.000000000000000000, 0.000000000000000000, 0.000000000000000000 ) ) ;
#158 = CARTESIAN_POINT ( 'NONE',  ( 25.00000000000000000, 0.000000000000000000, 11.43158874359064292 ) ) ;
#159 = DIRECTION ( 'NONE',  ( -1.000000000000000000, -0.000000000000000000, -0.000000000000000000 ) ) ;
#160 = CALENDAR_DATE ( 2024, 11, 7 ) ;
#161 = PERSON_AND_ORGANIZATION ( #97, #126 ) ;
#162 = LOCAL_TIME ( 12, 19, 18.00000000000000000, #239 ) ;
#163 =( NAMED_UNIT ( * ) SI_UNIT ( $, .STERADIAN. ) SOLID_ANGLE_UNIT ( ) );
#164 = SECURITY_CLASSIFICATION_LEVEL ( 'unclassified' ) ;
#165 = AXIS2_PLACEMENT_3D ( 'NONE', #229, #118, #114 ) ;
#166 = DATE_AND_TIME ( #182, #249 ) ;
#167 = MANIFOLD_SOLID_BREP ( 'Wandung2', #206 ) ;
#168 = ORIENTED_EDGE ( 'NONE', *, *, #187, .F. ) ;
#169 = APPROVAL ( #224, 'UNSPECIFIED' ) ;
#170 = EDGE_LOOP ( 'NONE', ( #186, #19, #245, #93 ) ) ;
#171 = CARTESIAN_POINT ( 'NONE',  ( 24.73048109087157087, 0.000000000000000000, 11.46824331523210994 ) ) ;
#172 = ORIENTED_EDGE ( 'NONE', *, *, #87, .T. ) ;
#173 = LOCAL_TIME ( 12, 19, 18.00000000000000000, #28 ) ;
#174 = CARTESIAN_POINT ( 'NONE',  ( 0.000000000000000000, 0.000000000000000000, 0.000000000000000000 ) ) ;
#175 = CIRCLE ( 'NONE', #15, 11.43158874359064292 ) ;
#176 = CARTESIAN_POINT ( 'NONE',  ( 0.000000000000000000, 0.000000000000000000, 0.000000000000000000 ) ) ;
#177 = DIRECTION ( 'NONE',  ( 0.000000000000000000, 0.000000000000000000, -1.000000000000000000 ) ) ;
#178 =( LENGTH_UNIT ( ) NAMED_UNIT ( * ) SI_UNIT ( .MILLI., .METRE. ) );
#179 = DIRECTION ( 'NONE',  ( 0.000000000000000000, 0.000000000000000000, 1.000000000000000000 ) ) ;
#180 = VECTOR ( 'NONE', #81, 1000.000000000000227 ) ;
#181 = EDGE_CURVE ( 'NONE', #246, #18, #22, .T. ) ;
#182 = CALENDAR_DATE ( 2024, 11, 7 ) ;
#183 = PERSON_AND_ORGANIZATION_ROLE ( 'creator' ) ;
#184 = APPROVAL_STATUS ( 'not_yet_approved' ) ;
#185 = AXIS2_PLACEMENT_3D ( 'NONE', #219, #194, #82 ) ;
#186 = ORIENTED_EDGE ( 'NONE', *, *, #204, .F. ) ;
#187 = EDGE_CURVE ( 'NONE', #215, #247, #149, .T. ) ;
#188 = CARTESIAN_POINT ( 'NONE',  ( 25.00000000000000000, 1.608155812255769501E-15, -11.43158874359064292 ) ) ;
#189 = CIRCLE ( 'NONE', #185, 13.44999999999999929 ) ;
#190 = ORIENTED_EDGE ( 'NONE', *, *, #147, .F. ) ;
#191 = ADVANCED_FACE ( 'NONE', ( #137 ), #25, .T. ) ;
#192 = DIRECTION ( 'NONE',  ( 1.000000000000000000, 0.000000000000000000, 0.000000000000000000 ) ) ;
#193 = CC_DESIGN_APPROVAL ( #31, ( #70 ) ) ;
#194 = DIRECTION ( 'NONE',  ( 1.000000000000000000, 0.000000000000000000, 0.000000000000000000 ) ) ;
#195 = CARTESIAN_POINT ( 'NONE',  ( 25.00000000000000000, 0.000000000000000000, 0.000000000000000000 ) ) ;
#196 = CC_DESIGN_PERSON_AND_ORGANIZATION_ASSIGNMENT ( #11, #183, ( #70 ) ) ;
#197 = DIRECTION ( 'NONE',  ( 0.000000000000000000, 0.000000000000000000, -1.000000000000000000 ) ) ;
#198 = DIRECTION ( 'NONE',  ( 1.000000000000000000, 0.000000000000000000, 0.000000000000000000 ) ) ;
#199 = DIRECTION ( 'NONE',  ( 0.000000000000000000, 0.000000000000000000, -1.000000000000000000 ) ) ;
#200 = VECTOR ( 'NONE', #76, 1000.000000000000227 ) ;
#201 = PERSON_AND_ORGANIZATION_ROLE ( 'classification_officer' ) ;
#202 = PERSON_AND_ORGANIZATION ( #97, #126 ) ;
#203 = MECHANICAL_CONTEXT ( 'NONE', #104, 'mechanical' ) ;
#204 = EDGE_CURVE ( 'NONE', #1, #246, #5, .T. ) ;
#205 = APPROVAL_ROLE ( '' ) ;
#206 = CLOSED_SHELL ( 'NONE', ( #115, #191, #80, #135, #35, #231 ) ) ;
#207 = CALENDAR_DATE ( 2024, 11, 7 ) ;
#208 = DESIGN_CONTEXT ( 'detailed design', #133, 'design' ) ;
#209 = PRODUCT_DEFINITION_SHAPE ( 'NONE', 'NONE',  #70 ) ;
#210 = ORIENTED_EDGE ( 'NONE', *, *, #54, .F. ) ;
#211 = PRODUCT_RELATED_PRODUCT_CATEGORY ( 'detail', '', ( #73 ) ) ;
#212 = ORIENTED_EDGE ( 'NONE', *, *, #14, .F. ) ;
#213 = ORIENTED_EDGE ( 'NONE', *, *, #87, .F. ) ;
#214 = AXIS2_PLACEMENT_3D ( 'NONE', #84, #236, #141 ) ;
#215 = VERTEX_POINT ( 'NONE', #156 ) ;
#216 = VERTEX_POINT ( 'NONE', #158 ) ;
#217 = DIRECTION ( 'NONE',  ( 1.000000000000000000, 0.000000000000000000, 0.000000000000000000 ) ) ;
#218 = DIRECTION ( 'NONE',  ( 1.000000000000000000, 0.000000000000000000, 0.000000000000000000 ) ) ;
#219 = CARTESIAN_POINT ( 'NONE',  ( 25.00000000000000000, 0.000000000000000000, 0.000000000000000000 ) ) ;
#220 = CARTESIAN_POINT ( 'NONE',  ( 24.73048109087157087, 0.000000000000000000, 0.000000000000000000 ) ) ;
#221 = APPROVAL_ROLE ( '' ) ;
#222 = COORDINATED_UNIVERSAL_TIME_OFFSET ( 1, 0, .AHEAD. ) ;
#223 = AXIS2_PLACEMENT_3D ( 'NONE', #174, #218, #63 ) ;
#224 = APPROVAL_STATUS ( 'not_yet_approved' ) ;
#225 = PRODUCT_DEFINITION_FORMATION_WITH_SPECIFIED_SOURCE ( 'ANY', '', #73, .NOT_KNOWN. ) ;
#226 = VERTEX_POINT ( 'NONE', #232 ) ;
#227 = ORIENTED_EDGE ( 'NONE', *, *, #101, .F. ) ;
#228 = ORIENTED_EDGE ( 'NONE', *, *, #147, .T. ) ;
#229 = CARTESIAN_POINT ( 'NONE',  ( 25.00000000000000000, 0.000000000000000000, 0.000000000000000000 ) ) ;
#230 = CARTESIAN_POINT ( 'NONE',  ( 24.73048109087157087, 0.000000000000000000, 0.000000000000000000 ) ) ;
#231 = ADVANCED_FACE ( 'NONE', ( #24 ), #51, .F. ) ;
#232 = CARTESIAN_POINT ( 'NONE',  ( 25.00000000000000000, 8.235749724265949955E-16, 13.44999999999999929 ) ) ;
#233 = DIRECTION ( 'NONE',  ( 0.000000000000000000, 0.000000000000000000, -1.000000000000000000 ) ) ;
#234 = VECTOR ( 'NONE', #3, 1000.000000000000227 ) ;
#235 = APPROVAL ( #30, 'UNSPECIFIED' ) ;
#236 = DIRECTION ( 'NONE',  ( 1.000000000000000000, 0.000000000000000000, 0.000000000000000000 ) ) ;
#237 = APPROVAL_ROLE ( '' ) ;
#238 = AXIS2_PLACEMENT_3D ( 'NONE', #64, #23, #197 ) ;
#239 = COORDINATED_UNIVERSAL_TIME_OFFSET ( 1, 0, .AHEAD. ) ;
#240 = CC_DESIGN_PERSON_AND_ORGANIZATION_ASSIGNMENT ( #161, #69, ( #73 ) ) ;
#241 = APPROVAL_PERSON_ORGANIZATION ( #142, #31, #205 ) ;
#242 =( GEOMETRIC_REPRESENTATION_CONTEXT ( 3 ) GLOBAL_UNCERTAINTY_ASSIGNED_CONTEXT ( ( #50 ) ) GLOBAL_UNIT_ASSIGNED_CONTEXT ( ( #178, #49, #163 ) ) REPRESENTATION_CONTEXT ( 'NONE', 'WORKASPACE' ) );
#243 = CALENDAR_DATE ( 2024, 11, 7 ) ;
#244 = EDGE_CURVE ( 'NONE', #18, #246, #108, .T. ) ;
#245 = ORIENTED_EDGE ( 'NONE', *, *, #54, .T. ) ;
#246 = VERTEX_POINT ( 'NONE', #45 ) ;
#247 = VERTEX_POINT ( 'NONE', #138 ) ;
#248 = ORIENTED_EDGE ( 'NONE', *, *, #244, .F. ) ;
#249 = LOCAL_TIME ( 12, 19, 18.00000000000000000, #71 ) ;
ENDSEC;
END-ISO-10303-21;
