ISO-10303-21;
HEADER;
FILE_DESCRIPTION (( 'STEP AP203' ),
    '1' );
FILE_NAME ('3D_R175_DN54x2_17336240.STEP',
    '2024-07-18T10:09:59',
    ( '' ),
    ( '' ),
    'SwSTEP 2.0',
    'SolidWorks 2024',
    '' );
FILE_SCHEMA (( 'CONFIG_CONTROL_DESIGN' ));
ENDSEC;

DATA;
#1 = DATE_TIME_ROLE ( 'classification_date' ) ;
#2 = ORIENTED_EDGE ( 'NONE', *, *, #364, .F. ) ;
#3 = CYLINDRICAL_SURFACE ( 'NONE', #55, 27.00000000000000355 ) ;
#4 = AXIS2_PLACEMENT_3D ( 'NONE', #397, #338, #207 ) ;
#5 = PERSON_AND_ORGANIZATION ( #331, #261 ) ;
#6 = DIRECTION ( 'NONE',  ( -1.000000000000000000, 0.000000000000000000, 0.000000000000000000 ) ) ;
#7 = LOCAL_TIME ( 12, 9, 59.00000000000000000, #132 ) ;
#8 = PERSON_AND_ORGANIZATION_ROLE ( 'classification_officer' ) ;
#9 = ADVANCED_FACE ( 'NONE', ( #200 ), #189, .T. ) ;
#10 = EDGE_LOOP ( 'NONE', ( #242, #312, #240, #343 ) ) ;
#11 = DIRECTION ( 'NONE',  ( 1.000000000000000000, -4.596983092540343816E-18, 0.000000000000000000 ) ) ;
#12 = DIRECTION ( 'NONE',  ( -1.000000000000000000, 0.000000000000000000, 0.000000000000000000 ) ) ;
#13 = EDGE_CURVE ( 'NONE', #185, #126, #211, .T. ) ;
#14 = CARTESIAN_POINT ( 'NONE',  ( 23.34131054131049154, 12.29322502085342173, 2.960051561050205162E-15 ) ) ;
#15 = AXIS2_PLACEMENT_3D ( 'NONE', #387, #410, #379 ) ;
#16 = CARTESIAN_POINT ( 'NONE',  ( 2.589703429741511609E-15, 22.00000000000000000, 0.000000000000000000 ) ) ;
#17 = CIRCLE ( 'NONE', #360, 4.100000000000003197 ) ;
#18 = AXIS2_PLACEMENT_3D ( 'NONE', #249, #58, #368 ) ;
#19 = CARTESIAN_POINT ( 'NONE',  ( 27.00000000000000000, -1.241185434985892645E-16, 3.306546357697853733E-15 ) ) ;
#20 =( GEOMETRIC_REPRESENTATION_CONTEXT ( 3 ) GLOBAL_UNCERTAINTY_ASSIGNED_CONTEXT ( ( #33 ) ) GLOBAL_UNIT_ASSIGNED_CONTEXT ( ( #124, #28, #404 ) ) REPRESENTATION_CONTEXT ( 'NONE', 'WORKASPACE' ) );
#21 = DIRECTION ( 'NONE',  ( -1.000000000000000000, 0.000000000000000000, 0.000000000000000000 ) ) ;
#22 = EDGE_LOOP ( 'NONE', ( #377, #188 ) ) ;
#23 = FACE_OUTER_BOUND ( 'NONE', #352, .T. ) ;
#24 = CIRCLE ( 'NONE', #248, 6.100000000000004974 ) ;
#25 = EDGE_LOOP ( 'NONE', ( #246, #154, #405, #160 ) ) ;
#26 = EDGE_CURVE ( 'NONE', #309, #251, #90, .T. ) ;
#27 = LOCAL_TIME ( 12, 9, 59.00000000000000000, #38 ) ;
#28 =( NAMED_UNIT ( * ) PLANE_ANGLE_UNIT ( ) SI_UNIT ( $, .RADIAN. ) );
#29 = ORIENTED_EDGE ( 'NONE', *, *, #203, .T. ) ;
#30 = AXIS2_PLACEMENT_3D ( 'NONE', #193, #358, #258 ) ;
#31 = FACE_OUTER_BOUND ( 'NONE', #407, .T. ) ;
#32 = ORIENTED_EDGE ( 'NONE', *, *, #380, .F. ) ;
#33 = UNCERTAINTY_MEASURE_WITH_UNIT (LENGTH_MEASURE( 1.000000000000000082E-05 ), #124, 'distance_accuracy_value', 'NONE');
#34 = EDGE_CURVE ( 'NONE', #309, #99, #125, .T. ) ;
#35 = PERSON_AND_ORGANIZATION ( #331, #261 ) ;
#36 = ORIENTED_EDGE ( 'NONE', *, *, #303, .F. ) ;
#37 = LOCAL_TIME ( 12, 9, 59.00000000000000000, #322 ) ;
#38 = COORDINATED_UNIVERSAL_TIME_OFFSET ( 1, 0, .AHEAD. ) ;
#39 = ORIENTED_EDGE ( 'NONE', *, *, #232, .T. ) ;
#40 = AXIS2_PLACEMENT_3D ( 'NONE', #137, #105, #227 ) ;
#41 = DIRECTION ( 'NONE',  ( 4.596983092540343816E-18, 1.000000000000000000, -0.000000000000000000 ) ) ;
#42 = PERSON_AND_ORGANIZATION_ROLE ( 'design_supplier' ) ;
#43 = DIRECTION ( 'NONE',  ( 1.000000000000000000, -4.596983092540343816E-18, 0.000000000000000000 ) ) ;
#44 = AXIS2_PLACEMENT_3D ( 'NONE', #365, #299, #11 ) ;
#45 = EDGE_CURVE ( 'NONE', #221, #62, #315, .T. ) ;
#46 = LOCAL_TIME ( 12, 9, 59.00000000000000000, #318 ) ;
#47 = DATE_AND_TIME ( #357, #7 ) ;
#48 = CARTESIAN_POINT ( 'NONE',  ( 2.702974143471166526E-15, 19.99999999999999645, 0.000000000000000000 ) ) ;
#49 = CIRCLE ( 'NONE', #264, 23.34131054131048799 ) ;
#50 = DIRECTION ( 'NONE',  ( 4.596983092540343816E-18, 1.000000000000000000, -0.000000000000000000 ) ) ;
#51 = EDGE_CURVE ( 'NONE', #62, #221, #243, .T. ) ;
#52 = DIRECTION ( 'NONE',  ( 4.596983092540343816E-18, 1.000000000000000000, -0.000000000000000000 ) ) ;
#53 = DIRECTION ( 'NONE',  ( -1.000000000000000000, 0.000000000000000000, 0.000000000000000000 ) ) ;
#54 = CARTESIAN_POINT ( 'NONE',  ( -24.99999999999998579, 2817.965330118411202, 0.000000000000000000 ) ) ;
#55 = AXIS2_PLACEMENT_3D ( 'NONE', #107, #229, #78 ) ;
#56 = ADVANCED_BREP_SHAPE_REPRESENTATION ( '3D_R175_DN54x2_17336240', ( #184, #388 ), #20 ) ;
#57 = AXIS2_PLACEMENT_3D ( 'NONE', #245, #212, #60 ) ;
#58 = DIRECTION ( 'NONE',  ( 0.000000000000000000, 0.000000000000000000, 1.000000000000000000 ) ) ;
#59 = ORIENTED_EDGE ( 'NONE', *, *, #411, .T. ) ;
#60 = DIRECTION ( 'NONE',  ( 1.000000000000000000, 0.000000000000000000, 1.224646799147353700E-16 ) ) ;
#61 = CC_DESIGN_PERSON_AND_ORGANIZATION_ASSIGNMENT ( #159, #100, ( #109 ) ) ;
#62 = VERTEX_POINT ( 'NONE', #197 ) ;
#63 = CIRCLE ( 'NONE', #268, 24.53219373219373267 ) ;
#64 = EDGE_LOOP ( 'NONE', ( #29, #213 ) ) ;
#65 = ORIENTED_EDGE ( 'NONE', *, *, #175, .F. ) ;
#66 = EDGE_CURVE ( 'NONE', #373, #273, #277, .T. ) ;
#67 = CALENDAR_DATE ( 2024, 18, 7 ) ;
#68 = ORIENTED_EDGE ( 'NONE', *, *, #13, .T. ) ;
#69 = APPROVAL_ROLE ( '' ) ;
#70 = CARTESIAN_POINT ( 'NONE',  ( 0.000000000000000000, 8.999290771223304120, 0.000000000000000000 ) ) ;
#71 = APPROVAL_STATUS ( 'not_yet_approved' ) ;
#72 = CARTESIAN_POINT ( 'NONE',  ( 0.000000000000000000, 8.999290771223304120, 0.000000000000000000 ) ) ;
#73 = DATE_AND_TIME ( #103, #46 ) ;
#74 = DIRECTION ( 'NONE',  ( -0.000000000000000000, 0.000000000000000000, -1.000000000000000000 ) ) ;
#75 = ADVANCED_FACE ( 'NONE', ( #349 ), #255, .T. ) ;
#76 = APPLICATION_CONTEXT ( 'configuration controlled 3d designs of mechanical parts and assemblies' ) ;
#77 = APPROVAL_DATE_TIME ( #354, #289 ) ;
#78 = DIRECTION ( 'NONE',  ( -1.000000000000000000, 0.000000000000000000, 0.000000000000000000 ) ) ;
#79 = CYLINDRICAL_SURFACE ( 'NONE', #86, 25.00000000000000000 ) ;
#80 = CARTESIAN_POINT ( 'NONE',  ( 5.067853955522829181E-15, 12.29322502085342173, 0.000000000000000000 ) ) ;
#81 = CARTESIAN_POINT ( 'NONE',  ( -23.34131054131048444, 12.29322502085342173, 0.000000000000000000 ) ) ;
#82 = AXIS2_PLACEMENT_3D ( 'NONE', #139, #140, #110 ) ;
#83 = FACE_OUTER_BOUND ( 'NONE', #25, .T. ) ;
#84 = LINE ( 'NONE', #326, #143 ) ;
#85 = CARTESIAN_POINT ( 'NONE',  ( -20.89999999999999858, 8.999290771223304120, 0.000000000000000000 ) ) ;
#86 = AXIS2_PLACEMENT_3D ( 'NONE', #225, #195, #316 ) ;
#87 = DIRECTION ( 'NONE',  ( 1.000000000000000000, 0.000000000000000000, 0.000000000000000000 ) ) ;
#88 = VERTEX_POINT ( 'NONE', #386 ) ;
#89 = ADVANCED_FACE ( 'NONE', ( #106 ), #79, .F. ) ;
#90 = CIRCLE ( 'NONE', #176, 23.34131054131048799 ) ;
#91 = ORIENTED_EDGE ( 'NONE', *, *, #409, .F. ) ;
#92 = DIRECTION ( 'NONE',  ( -1.224646799147353207E-16, 5.629680630014033300E-34, 1.000000000000000000 ) ) ;
#93 = ORIENTED_EDGE ( 'NONE', *, *, #409, .T. ) ;
#94 = CIRCLE ( 'NONE', #320, 41.20000000000000284 ) ;
#95 = FACE_OUTER_BOUND ( 'NONE', #276, .T. ) ;
#96 = AXIS2_PLACEMENT_3D ( 'NONE', #325, #392, #328 ) ;
#97 = ORIENTED_EDGE ( 'NONE', *, *, #26, .T. ) ;
#98 = AXIS2_PLACEMENT_3D ( 'NONE', #275, #92, #147 ) ;
#99 = VERTEX_POINT ( 'NONE', #48 ) ;
#100 = PERSON_AND_ORGANIZATION_ROLE ( 'creator' ) ;
#101 = CARTESIAN_POINT ( 'NONE',  ( -25.00000000000000000, 8.999290771223302343, 0.000000000000000000 ) ) ;
#102 = DIRECTION ( 'NONE',  ( -1.000000000000000000, 4.596983092540343816E-18, 0.000000000000000000 ) ) ;
#103 = CALENDAR_DATE ( 2024, 18, 7 ) ;
#104 = ADVANCED_FACE ( 'NONE', ( #288 ), #3, .T. ) ;
#105 = DIRECTION ( 'NONE',  ( 4.596983092540343816E-18, 1.000000000000000000, -0.000000000000000000 ) ) ;
#106 = FACE_OUTER_BOUND ( 'NONE', #367, .T. ) ;
#107 = CARTESIAN_POINT ( 'NONE',  ( 1.387778780781445676E-14, 2817.965330118411202, 0.000000000000000000 ) ) ;
#108 = ADVANCED_FACE ( 'NONE', ( #230 ), #158, .F. ) ;
#109 = PRODUCT_DEFINITION_FORMATION_WITH_SPECIFIED_SOURCE ( 'ANY', '', #165, .NOT_KNOWN. ) ;
#110 = DIRECTION ( 'NONE',  ( 1.000000000000000000, -4.596983092540343816E-18, 0.000000000000000000 ) ) ;
#111 = VECTOR ( 'NONE', #396, 1000.000000000000000 ) ;
#112 = CARTESIAN_POINT ( 'NONE',  ( 25.00000000000001421, 2817.965330118411202, 3.061616997868383043E-15 ) ) ;
#113 = DIRECTION ( 'NONE',  ( 4.596983092540343816E-18, 1.000000000000000000, -0.000000000000000000 ) ) ;
#114 = TOROIDAL_SURFACE ( 'NONE', #344, 20.89999999999999858, 4.100000000000004974 ) ;
#115 = APPLICATION_CONTEXT ( 'configuration controlled 3d designs of mechanical parts and assemblies' ) ;
#116 = FACE_OUTER_BOUND ( 'NONE', #10, .T. ) ;
#117 = APPROVAL ( #71, 'UNSPECIFIED' ) ;
#118 = CC_DESIGN_SECURITY_CLASSIFICATION ( #310, ( #109 ) ) ;
#119 = CARTESIAN_POINT ( 'NONE',  ( -1.033631382687161889E-32, 8.999290771223302343, 0.000000000000000000 ) ) ;
#120 = CARTESIAN_POINT ( 'NONE',  ( 0.000000000000000000, 0.000000000000000000, 0.000000000000000000 ) ) ;
#121 = ORIENTED_EDGE ( 'NONE', *, *, #346, .F. ) ;
#122 = EDGE_CURVE ( 'NONE', #88, #219, #94, .T. ) ;
#123 = VERTEX_POINT ( 'NONE', #101 ) ;
#124 =( LENGTH_UNIT ( ) NAMED_UNIT ( * ) SI_UNIT ( .MILLI., .METRE. ) );
#125 = CIRCLE ( 'NONE', #402, 39.19999999999999574 ) ;
#126 = VERTEX_POINT ( 'NONE', #257 ) ;
#127 = DIRECTION ( 'NONE',  ( 4.596983092540343816E-18, 1.000000000000000000, -0.000000000000000000 ) ) ;
#128 = ORIENTED_EDGE ( 'NONE', *, *, #192, .T. ) ;
#129 = ORIENTED_EDGE ( 'NONE', *, *, #66, .F. ) ;
#130 = PERSON_AND_ORGANIZATION ( #331, #261 ) ;
#131 = CARTESIAN_POINT ( 'NONE',  ( 9.236488298952508525E-16, 0.000000000000000000, 0.000000000000000000 ) ) ;
#132 = COORDINATED_UNIVERSAL_TIME_OFFSET ( 1, 0, .AHEAD. ) ;
#133 = DIRECTION ( 'NONE',  ( 4.596983092540343816E-18, 1.000000000000000000, -0.000000000000000000 ) ) ;
#134 = CC_DESIGN_PERSON_AND_ORGANIZATION_ASSIGNMENT ( #35, #378, ( #290 ) ) ;
#135 = DIRECTION ( 'NONE',  ( 4.596983092540343816E-18, 1.000000000000000000, -0.000000000000000000 ) ) ;
#136 = CIRCLE ( 'NONE', #374, 39.19999999999999574 ) ;
#137 = CARTESIAN_POINT ( 'NONE',  ( 9.236488298952508525E-16, 0.000000000000000000, 0.000000000000000000 ) ) ;
#138 = VERTEX_POINT ( 'NONE', #298 ) ;
#139 = CARTESIAN_POINT ( 'NONE',  ( -2.852854229668740672E-34, -6.205927174929464460E-17, 0.000000000000000000 ) ) ;
#140 = DIRECTION ( 'NONE',  ( -4.596983092540343816E-18, -1.000000000000000000, 0.000000000000000000 ) ) ;
#141 = EDGE_CURVE ( 'NONE', #123, #309, #17, .T. ) ;
#142 = DIRECTION ( 'NONE',  ( -0.000000000000000000, 0.000000000000000000, -1.000000000000000000 ) ) ;
#143 = VECTOR ( 'NONE', #178, 1000.000000000000000 ) ;
#144 = CC_DESIGN_APPROVAL ( #117, ( #109 ) ) ;
#145 = DIRECTION ( 'NONE',  ( -1.000000000000000000, 0.000000000000000000, 0.000000000000000000 ) ) ;
#146 = EDGE_CURVE ( 'NONE', #138, #88, #285, .T. ) ;
#147 = DIRECTION ( 'NONE',  ( 1.000000000000000000, 0.000000000000000000, 1.224646799147352961E-16 ) ) ;
#148 = EDGE_CURVE ( 'NONE', #373, #168, #269, .T. ) ;
#149 = ORIENTED_EDGE ( 'NONE', *, *, #262, .T. ) ;
#150 = SPHERICAL_SURFACE ( 'NONE', #199, 39.19999999999999574 ) ;
#151 = ORIENTED_EDGE ( 'NONE', *, *, #303, .T. ) ;
#152 = FACE_OUTER_BOUND ( 'NONE', #398, .T. ) ;
#153 = ORIENTED_EDGE ( 'NONE', *, *, #364, .T. ) ;
#154 = ORIENTED_EDGE ( 'NONE', *, *, #380, .T. ) ;
#155 = PRODUCT_RELATED_PRODUCT_CATEGORY ( 'detail', '', ( #165 ) ) ;
#156 = DIRECTION ( 'NONE',  ( -1.000000000000000000, 0.000000000000000000, 0.000000000000000000 ) ) ;
#157 = EDGE_LOOP ( 'NONE', ( #59, #217, #2, #339 ) ) ;
#158 = TOROIDAL_SURFACE ( 'NONE', #311, 20.89999999999999858, 4.100000000000004974 ) ;
#159 = PERSON_AND_ORGANIZATION ( #331, #261 ) ;
#160 = ORIENTED_EDGE ( 'NONE', *, *, #141, .F. ) ;
#161 = CIRCLE ( 'NONE', #98, 41.20000000000000284 ) ;
#162 = CALENDAR_DATE ( 2024, 18, 7 ) ;
#163 = DIRECTION ( 'NONE',  ( 4.596983092540343816E-18, 1.000000000000000000, -0.000000000000000000 ) ) ;
#164 = CC_DESIGN_PERSON_AND_ORGANIZATION_ASSIGNMENT ( #5, #254, ( #165 ) ) ;
#165 = PRODUCT ( '3D_R175_DN54x2_17336240', '3D_R175_DN54x2_17336240', '', ( #271 ) ) ;
#166 = APPROVAL_ROLE ( '' ) ;
#167 = DIRECTION ( 'NONE',  ( -1.000000000000000000, 0.000000000000000000, 0.000000000000000000 ) ) ;
#168 = VERTEX_POINT ( 'NONE', #236 ) ;
#169 = AXIS2_PLACEMENT_3D ( 'NONE', #234, #142, #53 ) ;
#170 = CARTESIAN_POINT ( 'NONE',  ( 4.923080132572396816E-15, -19.20000000000000284, 0.000000000000000000 ) ) ;
#171 = DIRECTION ( 'NONE',  ( 4.596983092540343816E-18, 1.000000000000000000, -0.000000000000000000 ) ) ;
#172 = FACE_OUTER_BOUND ( 'NONE', #22, .T. ) ;
#173 = DIRECTION ( 'NONE',  ( -1.000000000000000000, 0.000000000000000000, 0.000000000000000000 ) ) ;
#174 = CC_DESIGN_APPROVAL ( #372, ( #310 ) ) ;
#175 = EDGE_CURVE ( 'NONE', #251, #309, #49, .T. ) ;
#176 = AXIS2_PLACEMENT_3D ( 'NONE', #356, #133, #6 ) ;
#177 = DIRECTION ( 'NONE',  ( -1.000000000000000000, 4.596983092540344586E-18, 0.000000000000000000 ) ) ;
#178 = DIRECTION ( 'NONE',  ( 4.596983092540343816E-18, 1.000000000000000000, -0.000000000000000000 ) ) ;
#179 = CARTESIAN_POINT ( 'NONE',  ( 20.89999999999999858, 8.999290771223304120, 2.559511810217968304E-15 ) ) ;
#180 = ORIENTED_EDGE ( 'NONE', *, *, #34, .F. ) ;
#181 = ORIENTED_EDGE ( 'NONE', *, *, #122, .T. ) ;
#182 = VECTOR ( 'NONE', #127, 1000.000000000000000 ) ;
#183 = CARTESIAN_POINT ( 'NONE',  ( 9.875469970071962179E-16, 13.90002221579500485, 0.000000000000000000 ) ) ;
#184 = MANIFOLD_SOLID_BREP ( 'Wandung1', #206 ) ;
#185 = VERTEX_POINT ( 'NONE', #296 ) ;
#186 = ADVANCED_FACE ( 'NONE', ( #300 ), #235, .T. ) ;
#187 = CARTESIAN_POINT ( 'NONE',  ( 25.00000000000000000, -1.149245773135085892E-16, 3.061616997868383043E-15 ) ) ;
#188 = ORIENTED_EDGE ( 'NONE', *, *, #45, .F. ) ;
#189 = TOROIDAL_SURFACE ( 'NONE', #238, 20.89999999999999858, 6.100000000000004974 ) ;
#190 = ORIENTED_EDGE ( 'NONE', *, *, #122, .F. ) ;
#191 = APPROVAL_ROLE ( '' ) ;
#192 = EDGE_CURVE ( 'NONE', #168, #123, #218, .T. ) ;
#193 = CARTESIAN_POINT ( 'NONE',  ( 1.387778780781445676E-14, 2817.965330118411202, 0.000000000000000000 ) ) ;
#194 = APPLICATION_PROTOCOL_DEFINITION ( 'international standard', 'config_control_design', 1994, #115 ) ;
#195 = DIRECTION ( 'NONE',  ( 4.596983092540343816E-18, 1.000000000000000000, -0.000000000000000000 ) ) ;
#196 = PERSON_AND_ORGANIZATION ( #331, #261 ) ;
#197 = CARTESIAN_POINT ( 'NONE',  ( -27.00000000000000000, 1.241185434985892892E-16, 0.000000000000000000 ) ) ;
#198 = AXIS2_PLACEMENT_3D ( 'NONE', #361, #202, #332 ) ;
#199 = AXIS2_PLACEMENT_3D ( 'NONE', #342, #214, #156 ) ;
#200 = FACE_OUTER_BOUND ( 'NONE', #210, .T. ) ;
#201 = CYLINDRICAL_SURFACE ( 'NONE', #198, 25.00000000000000000 ) ;
#202 = DIRECTION ( 'NONE',  ( 4.596983092540343816E-18, 1.000000000000000000, -0.000000000000000000 ) ) ;
#203 = EDGE_CURVE ( 'NONE', #273, #373, #256, .T. ) ;
#204 = FACE_BOUND ( 'NONE', #64, .T. ) ;
#205 = PLANE ( 'NONE',  #82 ) ;
#206 = CLOSED_SHELL ( 'NONE', ( #403, #215, #89, #395, #186, #75, #270, #104, #9, #337, #317, #108, #351 ) ) ;
#207 = DIRECTION ( 'NONE',  ( -1.000000000000000000, 0.000000000000000000, 0.000000000000000000 ) ) ;
#208 = CIRCLE ( 'NONE', #250, 27.00000000000000355 ) ;
#209 = DIRECTION ( 'NONE',  ( -1.000000000000000000, 0.000000000000000000, 0.000000000000000000 ) ) ;
#210 = EDGE_LOOP ( 'NONE', ( #121, #68, #149, #223 ) ) ;
#211 = CIRCLE ( 'NONE', #15, 27.00000000000000355 ) ;
#212 = DIRECTION ( 'NONE',  ( -1.224646799147353207E-16, 5.629680630014033300E-34, 1.000000000000000000 ) ) ;
#213 = ORIENTED_EDGE ( 'NONE', *, *, #66, .T. ) ;
#214 = DIRECTION ( 'NONE',  ( 0.000000000000000000, 0.000000000000000000, 1.000000000000000000 ) ) ;
#215 = ADVANCED_FACE ( 'NONE', ( #83 ), #114, .F. ) ;
#216 = CC_DESIGN_PERSON_AND_ORGANIZATION_ASSIGNMENT ( #282, #8, ( #310 ) ) ;
#217 = ORIENTED_EDGE ( 'NONE', *, *, #346, .T. ) ;
#218 = CIRCLE ( 'NONE', #291, 25.00000000000000000 ) ;
#219 = VERTEX_POINT ( 'NONE', #16 ) ;
#220 = DATE_AND_TIME ( #286, #323 ) ;
#221 = VERTEX_POINT ( 'NONE', #19 ) ;
#222 = PERSON_AND_ORGANIZATION ( #331, #261 ) ;
#223 = ORIENTED_EDGE ( 'NONE', *, *, #146, .F. ) ;
#224 = PERSON_AND_ORGANIZATION ( #331, #261 ) ;
#225 = CARTESIAN_POINT ( 'NONE',  ( 1.387778780781445676E-14, 2817.965330118411202, 0.000000000000000000 ) ) ;
#226 = APPROVAL_STATUS ( 'not_yet_approved' ) ;
#227 = DIRECTION ( 'NONE',  ( -1.000000000000000000, 4.596983092540343816E-18, 0.000000000000000000 ) ) ;
#228 = DATE_AND_TIME ( #162, #27 ) ;
#229 = DIRECTION ( 'NONE',  ( 4.596983092540343816E-18, 1.000000000000000000, -0.000000000000000000 ) ) ;
#230 = FACE_OUTER_BOUND ( 'NONE', #382, .T. ) ;
#231 = CARTESIAN_POINT ( 'NONE',  ( -26.99999999999998934, 2817.965330118411202, 0.000000000000000000 ) ) ;
#232 = EDGE_CURVE ( 'NONE', #221, #185, #84, .T. ) ;
#233 = LINE ( 'NONE', #231, #393 ) ;
#234 = CARTESIAN_POINT ( 'NONE',  ( -20.89999999999999858, 8.999290771223304120, 0.000000000000000000 ) ) ;
#235 = TOROIDAL_SURFACE ( 'NONE', #306, 20.89999999999999858, 6.100000000000004974 ) ;
#236 = CARTESIAN_POINT ( 'NONE',  ( 25.00000000000000000, 8.999290771223302343, 3.061616997868383043E-15 ) ) ;
#237 = CARTESIAN_POINT ( 'NONE',  ( 0.000000000000000000, 8.999290771223304120, 0.000000000000000000 ) ) ;
#238 = AXIS2_PLACEMENT_3D ( 'NONE', #72, #41, #284 ) ;
#239 = DIRECTION ( 'NONE',  ( 0.000000000000000000, 0.000000000000000000, 1.000000000000000000 ) ) ;
#240 = ORIENTED_EDGE ( 'NONE', *, *, #335, .T. ) ;
#241 = DIRECTION ( 'NONE',  ( -1.224646799147353207E-16, 5.629680630014033300E-34, 1.000000000000000000 ) ) ;
#242 = ORIENTED_EDGE ( 'NONE', *, *, #148, .F. ) ;
#243 = CIRCLE ( 'NONE', #40, 27.00000000000000000 ) ;
#244 = CC_DESIGN_PERSON_AND_ORGANIZATION_ASSIGNMENT ( #196, #42, ( #109 ) ) ;
#245 = CARTESIAN_POINT ( 'NONE',  ( 20.89999999999999858, 8.999290771223304120, 2.559511810217968304E-15 ) ) ;
#246 = ORIENTED_EDGE ( 'NONE', *, *, #192, .F. ) ;
#247 = ORIENTED_EDGE ( 'NONE', *, *, #411, .F. ) ;
#248 = AXIS2_PLACEMENT_3D ( 'NONE', #179, #241, #301 ) ;
#249 = CARTESIAN_POINT ( 'NONE',  ( 4.923080132572396816E-15, -19.20000000000000284, 0.000000000000000000 ) ) ;
#250 = AXIS2_PLACEMENT_3D ( 'NONE', #333, #406, #376 ) ;
#251 = VERTEX_POINT ( 'NONE', #14 ) ;
#252 = APPROVAL_DATE_TIME ( #47, #372 ) ;
#253 = DIRECTION ( 'NONE',  ( -1.000000000000000000, 0.000000000000000000, 0.000000000000000000 ) ) ;
#254 = PERSON_AND_ORGANIZATION_ROLE ( 'design_owner' ) ;
#255 = CYLINDRICAL_SURFACE ( 'NONE', #30, 27.00000000000000355 ) ;
#256 = CIRCLE ( 'NONE', #44, 25.00000000000000000 ) ;
#257 = CARTESIAN_POINT ( 'NONE',  ( -27.00000000000000355, 8.999290771223300567, 0.000000000000000000 ) ) ;
#258 = DIRECTION ( 'NONE',  ( -1.000000000000000000, 0.000000000000000000, 0.000000000000000000 ) ) ;
#259 = ORIENTED_EDGE ( 'NONE', *, *, #335, .F. ) ;
#260 = DIRECTION ( 'NONE',  ( -0.000000000000000000, 0.000000000000000000, -1.000000000000000000 ) ) ;
#261 = ORGANIZATION ( 'UNSPECIFIED', 'UNSPECIFIED', '' ) ;
#262 = EDGE_CURVE ( 'NONE', #126, #88, #321, .T. ) ;
#263 = DIRECTION ( 'NONE',  ( 4.596983092540343816E-18, 1.000000000000000000, -0.000000000000000000 ) ) ;
#264 = AXIS2_PLACEMENT_3D ( 'NONE', #80, #171, #297 ) ;
#265 = DIRECTION ( 'NONE',  ( 4.596983092540343816E-18, 1.000000000000000000, -0.000000000000000000 ) ) ;
#266 = DIRECTION ( 'NONE',  ( -1.224646799147353207E-16, 5.629680630014033300E-34, 1.000000000000000000 ) ) ;
#267 = CIRCLE ( 'NONE', #96, 25.00000000000000000 ) ;
#268 = AXIS2_PLACEMENT_3D ( 'NONE', #183, #278, #209 ) ;
#269 = LINE ( 'NONE', #112, #111 ) ;
#270 = ADVANCED_FACE ( 'NONE', ( #204, #172 ), #205, .T. ) ;
#271 = MECHANICAL_CONTEXT ( 'NONE', #76, 'mechanical' ) ;
#272 = ORIENTED_EDGE ( 'NONE', *, *, #34, .T. ) ;
#273 = VERTEX_POINT ( 'NONE', #389 ) ;
#274 = EDGE_CURVE ( 'NONE', #62, #126, #233, .T. ) ;
#275 = CARTESIAN_POINT ( 'NONE',  ( 4.923080132572396816E-15, -19.20000000000000284, 0.000000000000000000 ) ) ;
#276 = EDGE_LOOP ( 'NONE', ( #91, #400, #181 ) ) ;
#277 = CIRCLE ( 'NONE', #329, 25.00000000000000000 ) ;
#278 = DIRECTION ( 'NONE',  ( 4.596983092540343816E-18, 1.000000000000000000, -0.000000000000000000 ) ) ;
#279 = EDGE_LOOP ( 'NONE', ( #304, #307, #369, #293 ) ) ;
#280 = EDGE_LOOP ( 'NONE', ( #401, #39, #247, #287 ) ) ;
#281 = DESIGN_CONTEXT ( 'detailed design', #115, 'design' ) ;
#282 = PERSON_AND_ORGANIZATION ( #331, #261 ) ;
#283 = CC_DESIGN_APPROVAL ( #289, ( #290 ) ) ;
#284 = DIRECTION ( 'NONE',  ( -1.000000000000000000, 4.596983092540344586E-18, 0.000000000000000000 ) ) ;
#285 = CIRCLE ( 'NONE', #336, 24.53219373219373267 ) ;
#286 = CALENDAR_DATE ( 2024, 18, 7 ) ;
#287 = ORIENTED_EDGE ( 'NONE', *, *, #274, .F. ) ;
#288 = FACE_OUTER_BOUND ( 'NONE', #279, .T. ) ;
#289 = APPROVAL ( #348, 'UNSPECIFIED' ) ;
#290 = PRODUCT_DEFINITION ( 'UNKNOWN', '', #109, #281 ) ;
#291 = AXIS2_PLACEMENT_3D ( 'NONE', #119, #52, #173 ) ;
#292 = SECURITY_CLASSIFICATION_LEVEL ( 'unclassified' ) ;
#293 = ORIENTED_EDGE ( 'NONE', *, *, #13, .F. ) ;
#294 = DIRECTION ( 'NONE',  ( -0.000000000000000000, 0.000000000000000000, -1.000000000000000000 ) ) ;
#295 = EDGE_CURVE ( 'NONE', #123, #168, #267, .T. ) ;
#296 = CARTESIAN_POINT ( 'NONE',  ( 27.00000000000000355, 8.999290771223300567, 3.306546357697854128E-15 ) ) ;
#297 = DIRECTION ( 'NONE',  ( -1.000000000000000000, 0.000000000000000000, 0.000000000000000000 ) ) ;
#298 = CARTESIAN_POINT ( 'NONE',  ( 24.53219373219373267, 13.90002221579500485, 3.155436805358618176E-15 ) ) ;
#299 = DIRECTION ( 'NONE',  ( 4.596983092540343816E-18, 1.000000000000000000, -0.000000000000000000 ) ) ;
#300 = FACE_OUTER_BOUND ( 'NONE', #157, .T. ) ;
#301 = DIRECTION ( 'NONE',  ( 1.000000000000000000, 0.000000000000000000, 1.224646799147352961E-16 ) ) ;
#302 = SPHERICAL_SURFACE ( 'NONE', #375, 41.20000000000000284 ) ;
#303 = EDGE_CURVE ( 'NONE', #251, #99, #136, .T. ) ;
#304 = ORIENTED_EDGE ( 'NONE', *, *, #232, .F. ) ;
#305 = CARTESIAN_POINT ( 'NONE',  ( 4.923080132572396816E-15, -19.20000000000000284, 0.000000000000000000 ) ) ;
#306 = AXIS2_PLACEMENT_3D ( 'NONE', #237, #263, #177 ) ;
#307 = ORIENTED_EDGE ( 'NONE', *, *, #45, .T. ) ;
#308 = APPLICATION_PROTOCOL_DEFINITION ( 'international standard', 'config_control_design', 1994, #76 ) ;
#309 = VERTEX_POINT ( 'NONE', #81 ) ;
#310 = SECURITY_CLASSIFICATION ( '', '', #292 ) ;
#311 = AXIS2_PLACEMENT_3D ( 'NONE', #70, #135, #324 ) ;
#312 = ORIENTED_EDGE ( 'NONE', *, *, #203, .F. ) ;
#313 = APPROVAL_DATE_TIME ( #220, #117 ) ;
#314 = CARTESIAN_POINT ( 'NONE',  ( 9.236488298952508525E-16, 0.000000000000000000, 0.000000000000000000 ) ) ;
#315 = CIRCLE ( 'NONE', #355, 27.00000000000000000 ) ;
#316 = DIRECTION ( 'NONE',  ( -1.000000000000000000, 0.000000000000000000, 0.000000000000000000 ) ) ;
#317 = ADVANCED_FACE ( 'NONE', ( #116 ), #201, .F. ) ;
#318 = COORDINATED_UNIVERSAL_TIME_OFFSET ( 1, 0, .AHEAD. ) ;
#319 = DIRECTION ( 'NONE',  ( 4.596983092540343816E-18, 1.000000000000000000, -0.000000000000000000 ) ) ;
#320 = AXIS2_PLACEMENT_3D ( 'NONE', #170, #294, #253 ) ;
#321 = CIRCLE ( 'NONE', #169, 6.100000000000004974 ) ;
#322 = COORDINATED_UNIVERSAL_TIME_OFFSET ( 1, 0, .AHEAD. ) ;
#323 = LOCAL_TIME ( 12, 9, 59.00000000000000000, #350 ) ;
#324 = DIRECTION ( 'NONE',  ( -1.000000000000000000, 4.596983092540343816E-18, 0.000000000000000000 ) ) ;
#325 = CARTESIAN_POINT ( 'NONE',  ( -1.033631382687161889E-32, 8.999290771223302343, 0.000000000000000000 ) ) ;
#326 = CARTESIAN_POINT ( 'NONE',  ( 27.00000000000001776, 2817.965330118411202, 3.306546357697854128E-15 ) ) ;
#327 = LINE ( 'NONE', #54, #182 ) ;
#328 = DIRECTION ( 'NONE',  ( -1.000000000000000000, 0.000000000000000000, 0.000000000000000000 ) ) ;
#329 = AXIS2_PLACEMENT_3D ( 'NONE', #314, #319, #43 ) ;
#330 = CC_DESIGN_DATE_AND_TIME_ASSIGNMENT ( #228, #1, ( #310 ) ) ;
#331 = PERSON ( 'UNSPECIFIED', 'UNSPECIFIED', 'UNSPECIFIED', ('UNSPECIFIED'), ('UNSPECIFIED'), ('UNSPECIFIED') ) ;
#332 = DIRECTION ( 'NONE',  ( -1.000000000000000000, 0.000000000000000000, 0.000000000000000000 ) ) ;
#333 = CARTESIAN_POINT ( 'NONE',  ( 9.650184174154198516E-16, 8.999290771223300567, 0.000000000000000000 ) ) ;
#334 = APPROVAL_PERSON_ORGANIZATION ( #224, #117, #191 ) ;
#335 = EDGE_CURVE ( 'NONE', #273, #123, #327, .T. ) ;
#336 = AXIS2_PLACEMENT_3D ( 'NONE', #363, #113, #145 ) ;
#337 = ADVANCED_FACE ( 'NONE', ( #95 ), #370, .T. ) ;
#338 = DIRECTION ( 'NONE',  ( 0.000000000000000000, 0.000000000000000000, 1.000000000000000000 ) ) ;
#339 = ORIENTED_EDGE ( 'NONE', *, *, #262, .F. ) ;
#340 = SPHERICAL_SURFACE ( 'NONE', #4, 39.19999999999999574 ) ;
#341 = ORIENTED_EDGE ( 'NONE', *, *, #295, .F. ) ;
#342 = CARTESIAN_POINT ( 'NONE',  ( 4.923080132572396816E-15, -19.20000000000000284, 0.000000000000000000 ) ) ;
#343 = ORIENTED_EDGE ( 'NONE', *, *, #295, .T. ) ;
#344 = AXIS2_PLACEMENT_3D ( 'NONE', #390, #50, #366 ) ;
#345 = ORIENTED_EDGE ( 'NONE', *, *, #26, .F. ) ;
#346 = EDGE_CURVE ( 'NONE', #185, #138, #24, .T. ) ;
#347 = ORIENTED_EDGE ( 'NONE', *, *, #148, .T. ) ;
#348 = APPROVAL_STATUS ( 'not_yet_approved' ) ;
#349 = FACE_OUTER_BOUND ( 'NONE', #280, .T. ) ;
#350 = COORDINATED_UNIVERSAL_TIME_OFFSET ( 1, 0, .AHEAD. ) ;
#351 = ADVANCED_FACE ( 'NONE', ( #152 ), #340, .F. ) ;
#352 = EDGE_LOOP ( 'NONE', ( #65, #151, #180 ) ) ;
#353 = APPROVAL_PERSON_ORGANIZATION ( #130, #372, #166 ) ;
#354 = DATE_AND_TIME ( #67, #37 ) ;
#355 = AXIS2_PLACEMENT_3D ( 'NONE', #131, #163, #102 ) ;
#356 = CARTESIAN_POINT ( 'NONE',  ( 5.067853955522829181E-15, 12.29322502085342173, 0.000000000000000000 ) ) ;
#357 = CALENDAR_DATE ( 2024, 18, 7 ) ;
#358 = DIRECTION ( 'NONE',  ( 4.596983092540343816E-18, 1.000000000000000000, -0.000000000000000000 ) ) ;
#359 = CIRCLE ( 'NONE', #57, 4.100000000000003197 ) ;
#360 = AXIS2_PLACEMENT_3D ( 'NONE', #85, #260, #12 ) ;
#361 = CARTESIAN_POINT ( 'NONE',  ( 1.387778780781445676E-14, 2817.965330118411202, 0.000000000000000000 ) ) ;
#362 = CARTESIAN_POINT ( 'NONE',  ( 4.923080132572396816E-15, -19.20000000000000284, 0.000000000000000000 ) ) ;
#363 = CARTESIAN_POINT ( 'NONE',  ( 9.875469970071962179E-16, 13.90002221579500485, 0.000000000000000000 ) ) ;
#364 = EDGE_CURVE ( 'NONE', #88, #138, #63, .T. ) ;
#365 = CARTESIAN_POINT ( 'NONE',  ( 9.236488298952508525E-16, 0.000000000000000000, 0.000000000000000000 ) ) ;
#366 = DIRECTION ( 'NONE',  ( -1.000000000000000000, 4.596983092540343816E-18, 0.000000000000000000 ) ) ;
#367 = EDGE_LOOP ( 'NONE', ( #129, #347, #128, #259 ) ) ;
#368 = DIRECTION ( 'NONE',  ( -1.000000000000000000, 0.000000000000000000, 0.000000000000000000 ) ) ;
#369 = ORIENTED_EDGE ( 'NONE', *, *, #274, .T. ) ;
#370 = SPHERICAL_SURFACE ( 'NONE', #18, 41.20000000000000284 ) ;
#371 = ORIENTED_EDGE ( 'NONE', *, *, #141, .T. ) ;
#372 = APPROVAL ( #226, 'UNSPECIFIED' ) ;
#373 = VERTEX_POINT ( 'NONE', #187 ) ;
#374 = AXIS2_PLACEMENT_3D ( 'NONE', #362, #266, #394 ) ;
#375 = AXIS2_PLACEMENT_3D ( 'NONE', #305, #399, #21 ) ;
#376 = DIRECTION ( 'NONE',  ( -1.000000000000000000, 0.000000000000000000, 0.000000000000000000 ) ) ;
#377 = ORIENTED_EDGE ( 'NONE', *, *, #51, .F. ) ;
#378 = PERSON_AND_ORGANIZATION_ROLE ( 'creator' ) ;
#379 = DIRECTION ( 'NONE',  ( -1.000000000000000000, 0.000000000000000000, 0.000000000000000000 ) ) ;
#380 = EDGE_CURVE ( 'NONE', #168, #251, #359, .T. ) ;
#381 = DATE_TIME_ROLE ( 'creation_date' ) ;
#382 = EDGE_LOOP ( 'NONE', ( #32, #341, #371, #97 ) ) ;
#383 = PRODUCT_DEFINITION_SHAPE ( 'NONE', 'NONE',  #290 ) ;
#384 = SHAPE_DEFINITION_REPRESENTATION ( #383, #56 ) ;
#385 = CARTESIAN_POINT ( 'NONE',  ( 4.923080132572396816E-15, -19.20000000000000284, 0.000000000000000000 ) ) ;
#386 = CARTESIAN_POINT ( 'NONE',  ( -24.53219373219373267, 13.90002221579500485, 0.000000000000000000 ) ) ;
#387 = CARTESIAN_POINT ( 'NONE',  ( 9.650184174154198516E-16, 8.999290771223300567, 0.000000000000000000 ) ) ;
#388 = AXIS2_PLACEMENT_3D ( 'NONE', #120, #239, #87 ) ;
#389 = CARTESIAN_POINT ( 'NONE',  ( -25.00000000000000000, 1.149245773135085892E-16, 0.000000000000000000 ) ) ;
#390 = CARTESIAN_POINT ( 'NONE',  ( 0.000000000000000000, 8.999290771223304120, 0.000000000000000000 ) ) ;
#391 = CC_DESIGN_DATE_AND_TIME_ASSIGNMENT ( #73, #381, ( #290 ) ) ;
#392 = DIRECTION ( 'NONE',  ( 4.596983092540343816E-18, 1.000000000000000000, -0.000000000000000000 ) ) ;
#393 = VECTOR ( 'NONE', #265, 1000.000000000000000 ) ;
#394 = DIRECTION ( 'NONE',  ( 1.000000000000000000, 0.000000000000000000, 1.224646799147353454E-16 ) ) ;
#395 = ADVANCED_FACE ( 'NONE', ( #31 ), #302, .T. ) ;
#396 = DIRECTION ( 'NONE',  ( 4.596983092540343816E-18, 1.000000000000000000, -0.000000000000000000 ) ) ;
#397 = CARTESIAN_POINT ( 'NONE',  ( 4.923080132572396816E-15, -19.20000000000000284, 0.000000000000000000 ) ) ;
#398 = EDGE_LOOP ( 'NONE', ( #36, #345, #272 ) ) ;
#399 = DIRECTION ( 'NONE',  ( 0.000000000000000000, 0.000000000000000000, 1.000000000000000000 ) ) ;
#400 = ORIENTED_EDGE ( 'NONE', *, *, #146, .T. ) ;
#401 = ORIENTED_EDGE ( 'NONE', *, *, #51, .T. ) ;
#402 = AXIS2_PLACEMENT_3D ( 'NONE', #385, #74, #167 ) ;
#403 = ADVANCED_FACE ( 'NONE', ( #23 ), #150, .F. ) ;
#404 =( NAMED_UNIT ( * ) SI_UNIT ( $, .STERADIAN. ) SOLID_ANGLE_UNIT ( ) );
#405 = ORIENTED_EDGE ( 'NONE', *, *, #175, .T. ) ;
#406 = DIRECTION ( 'NONE',  ( 4.596983092540343816E-18, 1.000000000000000000, -0.000000000000000000 ) ) ;
#407 = EDGE_LOOP ( 'NONE', ( #153, #93, #190 ) ) ;
#408 = APPROVAL_PERSON_ORGANIZATION ( #222, #289, #69 ) ;
#409 = EDGE_CURVE ( 'NONE', #138, #219, #161, .T. ) ;
#410 = DIRECTION ( 'NONE',  ( 4.596983092540343816E-18, 1.000000000000000000, -0.000000000000000000 ) ) ;
#411 = EDGE_CURVE ( 'NONE', #126, #185, #208, .T. ) ;
ENDSEC;
END-ISO-10303-21;
