ISO-10303-21;
HEADER;
FILE_DESCRIPTION (( 'STEP AP203' ),
    '1' );
FILE_NAME ('3D_R365_69x2_173371130.STEP',
    '2024-07-16T06:33:38',
    ( '' ),
    ( '' ),
    'SwSTEP 2.0',
    'SolidWorks 2024',
    '' );
FILE_SCHEMA (( 'CONFIG_CONTROL_DESIGN' ));
ENDSEC;

DATA;
#1 = DIRECTION ( 'NONE',  ( 4.596983092540343816E-18, 1.000000000000000000, -0.000000000000000000 ) ) ;
#2 = PERSON_AND_ORGANIZATION_ROLE ( 'design_supplier' ) ;
#3 = DIRECTION ( 'NONE',  ( 4.596983092540343816E-18, 1.000000000000000000, -0.000000000000000000 ) ) ;
#4 = CIRCLE ( 'NONE', #213, 6.350000000000012079 ) ;
#5 = APPROVAL_ROLE ( '' ) ;
#6 = ADVANCED_FACE ( 'NONE', ( #144 ), #135, .F. ) ;
#7 = DIRECTION ( 'NONE',  ( -1.000000000000000000, 0.000000000000000000, 0.000000000000000000 ) ) ;
#8 = CARTESIAN_POINT ( 'NONE',  ( 34.50000000000000711, 2817.965330118411202, 4.225031457058367344E-15 ) ) ;
#9 = DIRECTION ( 'NONE',  ( 4.596983092540343816E-18, 1.000000000000000000, -0.000000000000000000 ) ) ;
#10 = CIRCLE ( 'NONE', #190, 34.49999999999999289 ) ;
#11 = EDGE_CURVE ( 'NONE', #24, #61, #180, .T. ) ;
#12 = CARTESIAN_POINT ( 'NONE',  ( 9.236488298952508525E-16, 0.000000000000000000, 0.000000000000000000 ) ) ;
#13 = DIRECTION ( 'NONE',  ( -1.000000000000000000, 0.000000000000000000, 0.000000000000000000 ) ) ;
#14 = CARTESIAN_POINT ( 'NONE',  ( 0.000000000000000000, 0.7376179243374770822, 0.000000000000000000 ) ) ;
#15 = VERTEX_POINT ( 'NONE', #375 ) ;
#16 = ADVANCED_FACE ( 'NONE', ( #149 ), #186, .F. ) ;
#17 = ORIENTED_EDGE ( 'NONE', *, *, #390, .F. ) ;
#18 = DIRECTION ( 'NONE',  ( 4.596983092540343816E-18, 1.000000000000000000, -0.000000000000000000 ) ) ;
#19 = VERTEX_POINT ( 'NONE', #58 ) ;
#20 = ORIENTED_EDGE ( 'NONE', *, *, #355, .T. ) ;
#21 = ADVANCED_FACE ( 'NONE', ( #216 ), #146, .F. ) ;
#22 = AXIS2_PLACEMENT_3D ( 'NONE', #68, #289, #7 ) ;
#23 = VERTEX_POINT ( 'NONE', #257 ) ;
#24 = VERTEX_POINT ( 'NONE', #179 ) ;
#25 = CARTESIAN_POINT ( 'NONE',  ( -34.49999999999997868, 2817.965330118411202, 0.000000000000000000 ) ) ;
#26 = PERSON_AND_ORGANIZATION_ROLE ( 'design_owner' ) ;
#27 = TOROIDAL_SURFACE ( 'NONE', #261, 26.14999999999998792, 8.350000000000010303 ) ;
#28 = ORIENTED_EDGE ( 'NONE', *, *, #401, .F. ) ;
#29 = CALENDAR_DATE ( 2024, 16, 7 ) ;
#30 = DIRECTION ( 'NONE',  ( 1.000000000000000000, 0.000000000000000000, 1.224646799147352714E-16 ) ) ;
#31 = COORDINATED_UNIVERSAL_TIME_OFFSET ( 1, 0, .AHEAD. ) ;
#32 = EDGE_CURVE ( 'NONE', #104, #141, #386, .T. ) ;
#33 = CARTESIAN_POINT ( 'NONE',  ( 31.01850613154960712, 7.521433078589989663, 4.011851440945923543E-15 ) ) ;
#34 = AXIS2_PLACEMENT_3D ( 'NONE', #220, #349, #404 ) ;
#35 = FACE_OUTER_BOUND ( 'NONE', #79, .T. ) ;
#36 = CC_DESIGN_DATE_AND_TIME_ASSIGNMENT ( #348, #158, ( #297 ) ) ;
#37 = CARTESIAN_POINT ( 'NONE',  ( 9.270396470221852111E-16, 0.7376179243374636485, 0.000000000000000000 ) ) ;
#38 = CARTESIAN_POINT ( 'NONE',  ( 9.236488298952508525E-16, 0.000000000000000000, 0.000000000000000000 ) ) ;
#39 = LINE ( 'NONE', #8, #82 ) ;
#40 = CC_DESIGN_PERSON_AND_ORGANIZATION_ASSIGNMENT ( #319, #2, ( #389 ) ) ;
#41 =( NAMED_UNIT ( * ) PLANE_ANGLE_UNIT ( ) SI_UNIT ( $, .RADIAN. ) );
#42 = ORIENTED_EDGE ( 'NONE', *, *, #176, .F. ) ;
#43 = CC_DESIGN_PERSON_AND_ORGANIZATION_ASSIGNMENT ( #311, #26, ( #138 ) ) ;
#44 = DIRECTION ( 'NONE',  ( -1.000000000000000000, 0.000000000000000000, 0.000000000000000000 ) ) ;
#45 = ORIENTED_EDGE ( 'NONE', *, *, #316, .F. ) ;
#46 = SPHERICAL_SURFACE ( 'NONE', #112, 53.20000000000000995 ) ;
#47 = VERTEX_POINT ( 'NONE', #312 ) ;
#48 = CARTESIAN_POINT ( 'NONE',  ( 6.025262251804980018E-15, -35.70000000000000284, 0.000000000000000000 ) ) ;
#49 = ORIENTED_EDGE ( 'NONE', *, *, #384, .F. ) ;
#50 = EDGE_CURVE ( 'NONE', #61, #380, #313, .T. ) ;
#51 = EDGE_LOOP ( 'NONE', ( #244, #337, #362 ) ) ;
#52 = AXIS2_PLACEMENT_3D ( 'NONE', #287, #372, #251 ) ;
#53 = ADVANCED_BREP_SHAPE_REPRESENTATION ( '3D_R365_69x2_173371130', ( #357, #367 ), #62 ) ;
#54 = DIRECTION ( 'NONE',  ( -1.000000000000000000, 0.000000000000000000, 0.000000000000000000 ) ) ;
#55 = CC_DESIGN_PERSON_AND_ORGANIZATION_ASSIGNMENT ( #290, #285, ( #389 ) ) ;
#56 = FACE_OUTER_BOUND ( 'NONE', #134, .T. ) ;
#57 = ADVANCED_FACE ( 'NONE', ( #56 ), #153, .T. ) ;
#58 = CARTESIAN_POINT ( 'NONE',  ( -29.85239687848376278, 5.896567173379746230, 0.000000000000000000 ) ) ;
#59 = CALENDAR_DATE ( 2024, 16, 7 ) ;
#60 = DIRECTION ( 'NONE',  ( -1.000000000000000000, 0.000000000000000000, 0.000000000000000000 ) ) ;
#61 = VERTEX_POINT ( 'NONE', #252 ) ;
#62 =( GEOMETRIC_REPRESENTATION_CONTEXT ( 3 ) GLOBAL_UNCERTAINTY_ASSIGNED_CONTEXT ( ( #208 ) ) GLOBAL_UNIT_ASSIGNED_CONTEXT ( ( #178, #41, #333 ) ) REPRESENTATION_CONTEXT ( 'NONE', 'WORKASPACE' ) );
#63 = EDGE_CURVE ( 'NONE', #23, #19, #377, .T. ) ;
#64 = APPROVAL_STATUS ( 'not_yet_approved' ) ;
#65 = DIRECTION ( 'NONE',  ( 4.596983092540343816E-18, 1.000000000000000000, -0.000000000000000000 ) ) ;
#66 = CARTESIAN_POINT ( 'NONE',  ( 9.236488298952508525E-16, 0.000000000000000000, 0.000000000000000000 ) ) ;
#67 = VECTOR ( 'NONE', #383, 1000.000000000000000 ) ;
#68 = CARTESIAN_POINT ( 'NONE',  ( 6.025262251804980018E-15, -35.70000000000000284, 0.000000000000000000 ) ) ;
#69 = DIRECTION ( 'NONE',  ( -1.000000000000000000, 0.000000000000000000, 0.000000000000000000 ) ) ;
#70 = LINE ( 'NONE', #162, #271 ) ;
#71 = CIRCLE ( 'NONE', #332, 8.350000000000013856 ) ;
#72 = DIRECTION ( 'NONE',  ( 0.000000000000000000, 0.000000000000000000, 1.000000000000000000 ) ) ;
#73 = CARTESIAN_POINT ( 'NONE',  ( -4.682396875543500749E-32, 0.7376179243374668681, 0.000000000000000000 ) ) ;
#74 = ORIENTED_EDGE ( 'NONE', *, *, #390, .T. ) ;
#75 = DIRECTION ( 'NONE',  ( 4.596983092540343816E-18, 1.000000000000000000, -0.000000000000000000 ) ) ;
#76 = ORIENTED_EDGE ( 'NONE', *, *, #316, .T. ) ;
#77 = PRODUCT_DEFINITION_SHAPE ( 'NONE', 'NONE',  #297 ) ;
#78 = CARTESIAN_POINT ( 'NONE',  ( 9.582247305892037153E-16, 7.521433078589989663, 0.000000000000000000 ) ) ;
#79 = EDGE_LOOP ( 'NONE', ( #241, #199, #173, #201 ) ) ;
#80 = ORIENTED_EDGE ( 'NONE', *, *, #401, .T. ) ;
#81 = ORIENTED_EDGE ( 'NONE', *, *, #202, .F. ) ;
#82 = VECTOR ( 'NONE', #223, 1000.000000000000000 ) ;
#83 = DIRECTION ( 'NONE',  ( 0.000000000000000000, 0.000000000000000000, 1.000000000000000000 ) ) ;
#84 = ADVANCED_FACE ( 'NONE', ( #218 ), #278, .F. ) ;
#85 = APPLICATION_PROTOCOL_DEFINITION ( 'international standard', 'config_control_design', 1994, #304 ) ;
#86 = ORIENTED_EDGE ( 'NONE', *, *, #63, .T. ) ;
#87 = DIRECTION ( 'NONE',  ( -1.000000000000000000, 4.596983092540343816E-18, 0.000000000000000000 ) ) ;
#88 = CALENDAR_DATE ( 2024, 16, 7 ) ;
#89 = EDGE_CURVE ( 'NONE', #141, #23, #4, .T. ) ;
#90 = DIRECTION ( 'NONE',  ( 4.596983092540343816E-18, 1.000000000000000000, -0.000000000000000000 ) ) ;
#91 = SECURITY_CLASSIFICATION_LEVEL ( 'unclassified' ) ;
#92 = DIRECTION ( 'NONE',  ( -1.000000000000000000, 0.000000000000000000, 0.000000000000000000 ) ) ;
#93 = CC_DESIGN_APPROVAL ( #118, ( #157 ) ) ;
#94 = CARTESIAN_POINT ( 'NONE',  ( -31.01850613154960357, 7.521433078589989663, 0.000000000000000000 ) ) ;
#95 = CARTESIAN_POINT ( 'NONE',  ( 32.50000000000000711, 2817.965330118411202, 3.980102097228897837E-15 ) ) ;
#96 = AXIS2_PLACEMENT_3D ( 'NONE', #66, #9, #385 ) ;
#97 = FACE_BOUND ( 'NONE', #274, .T. ) ;
#98 = DIRECTION ( 'NONE',  ( -4.596983092540343816E-18, -1.000000000000000000, 0.000000000000000000 ) ) ;
#99 = PERSON ( 'UNSPECIFIED', 'UNSPECIFIED', 'UNSPECIFIED', ('UNSPECIFIED'), ('UNSPECIFIED'), ('UNSPECIFIED') ) ;
#100 = CARTESIAN_POINT ( 'NONE',  ( 6.025262251804980018E-15, -35.70000000000000284, 0.000000000000000000 ) ) ;
#101 = ADVANCED_FACE ( 'NONE', ( #286 ), #376, .F. ) ;
#102 = ORIENTED_EDGE ( 'NONE', *, *, #309, .F. ) ;
#103 = DIRECTION ( 'NONE',  ( -1.000000000000000000, 4.596983092540343816E-18, 0.000000000000000000 ) ) ;
#104 = VERTEX_POINT ( 'NONE', #113 ) ;
#105 = APPROVAL_PERSON_ORGANIZATION ( #283, #119, #227 ) ;
#106 = CARTESIAN_POINT ( 'NONE',  ( 0.000000000000000000, 0.000000000000000000, 0.000000000000000000 ) ) ;
#107 = ORIENTED_EDGE ( 'NONE', *, *, #32, .F. ) ;
#108 = CARTESIAN_POINT ( 'NONE',  ( 1.387778780781445676E-14, 2817.965330118411202, 0.000000000000000000 ) ) ;
#109 = ORIENTED_EDGE ( 'NONE', *, *, #155, .F. ) ;
#110 = EDGE_LOOP ( 'NONE', ( #166, #168, #86, #45 ) ) ;
#111 = VERTEX_POINT ( 'NONE', #253 ) ;
#112 = AXIS2_PLACEMENT_3D ( 'NONE', #100, #72, #242 ) ;
#113 = CARTESIAN_POINT ( 'NONE',  ( -32.50000000000000000, 0.7376179243374669792, 0.000000000000000000 ) ) ;
#114 = EDGE_CURVE ( 'NONE', #204, #307, #169, .T. ) ;
#115 = CIRCLE ( 'NONE', #254, 51.20000000000000995 ) ;
#116 = SHAPE_DEFINITION_REPRESENTATION ( #77, #53 ) ;
#117 = CARTESIAN_POINT ( 'NONE',  ( 9.270396470221852111E-16, 0.7376179243374636485, 0.000000000000000000 ) ) ;
#118 = APPROVAL ( #314, 'UNSPECIFIED' ) ;
#119 = APPROVAL ( #165, 'UNSPECIFIED' ) ;
#120 = CIRCLE ( 'NONE', #403, 8.350000000000013856 ) ;
#121 = COORDINATED_UNIVERSAL_TIME_OFFSET ( 1, 0, .AHEAD. ) ;
#122 = CARTESIAN_POINT ( 'NONE',  ( 0.000000000000000000, 0.7376179243374770822, 0.000000000000000000 ) ) ;
#123 = DATE_AND_TIME ( #345, #291 ) ;
#124 = CARTESIAN_POINT ( 'NONE',  ( 6.025262251804980018E-15, -35.70000000000000284, 0.000000000000000000 ) ) ;
#125 = LOCAL_TIME ( 8, 33, 38.00000000000000000, #126 ) ;
#126 = COORDINATED_UNIVERSAL_TIME_OFFSET ( 1, 0, .AHEAD. ) ;
#127 = DIRECTION ( 'NONE',  ( 0.000000000000000000, 0.000000000000000000, 1.000000000000000000 ) ) ;
#128 = EDGE_CURVE ( 'NONE', #342, #141, #259, .T. ) ;
#129 = FACE_OUTER_BOUND ( 'NONE', #400, .T. ) ;
#130 = AXIS2_PLACEMENT_3D ( 'NONE', #12, #226, #325 ) ;
#131 = DIRECTION ( 'NONE',  ( 1.000000000000000000, 0.000000000000000000, 1.224646799147352714E-16 ) ) ;
#132 = EDGE_CURVE ( 'NONE', #19, #111, #115, .T. ) ;
#133 = DIRECTION ( 'NONE',  ( -0.000000000000000000, 0.000000000000000000, -1.000000000000000000 ) ) ;
#134 = EDGE_LOOP ( 'NONE', ( #369, #339, #20, #17 ) ) ;
#135 = TOROIDAL_SURFACE ( 'NONE', #52, 26.14999999999998792, 6.350000000000010303 ) ;
#136 = ORIENTED_EDGE ( 'NONE', *, *, #239, .F. ) ;
#137 = AXIS2_PLACEMENT_3D ( 'NONE', #154, #133, #265 ) ;
#138 = PRODUCT ( '3D_R365_69x2_173371130', '3D_R365_69x2_173371130', '', ( #215 ) ) ;
#139 = CARTESIAN_POINT ( 'NONE',  ( 34.49999999999999289, 0.7376179243374635375, 4.225031457058367344E-15 ) ) ;
#140 = ORIENTED_EDGE ( 'NONE', *, *, #143, .T. ) ;
#141 = VERTEX_POINT ( 'NONE', #189 ) ;
#142 = ORIENTED_EDGE ( 'NONE', *, *, #155, .T. ) ;
#143 = EDGE_CURVE ( 'NONE', #47, #380, #39, .T. ) ;
#144 = FACE_OUTER_BOUND ( 'NONE', #152, .T. ) ;
#145 = CARTESIAN_POINT ( 'NONE',  ( -26.14999999999998792, 0.7376179243374771932, 0.000000000000000000 ) ) ;
#146 = CYLINDRICAL_SURFACE ( 'NONE', #250, 32.49999999999999289 ) ;
#147 = APPLICATION_PROTOCOL_DEFINITION ( 'international standard', 'config_control_design', 1994, #275 ) ;
#148 = AXIS2_PLACEMENT_3D ( 'NONE', #183, #83, #60 ) ;
#149 = FACE_OUTER_BOUND ( 'NONE', #334, .T. ) ;
#150 = COORDINATED_UNIVERSAL_TIME_OFFSET ( 1, 0, .AHEAD. ) ;
#151 = DIRECTION ( 'NONE',  ( -1.224646799147353207E-16, 5.629680630014033300E-34, 1.000000000000000000 ) ) ;
#152 = EDGE_LOOP ( 'NONE', ( #303, #107, #76, #407 ) ) ;
#153 = TOROIDAL_SURFACE ( 'NONE', #406, 26.14999999999998792, 8.350000000000010303 ) ;
#154 = CARTESIAN_POINT ( 'NONE',  ( -26.14999999999998792, 0.7376179243374771932, 0.000000000000000000 ) ) ;
#155 = EDGE_CURVE ( 'NONE', #47, #24, #322, .T. ) ;
#156 = CARTESIAN_POINT ( 'NONE',  ( 0.000000000000000000, 0.7376179243374770822, 0.000000000000000000 ) ) ;
#157 = SECURITY_CLASSIFICATION ( '', '', #91 ) ;
#158 = DATE_TIME_ROLE ( 'creation_date' ) ;
#159 = DIRECTION ( 'NONE',  ( 1.000000000000000000, 0.000000000000000000, 1.224646799147353207E-16 ) ) ;
#160 = DIRECTION ( 'NONE',  ( -1.000000000000000000, 0.000000000000000000, 0.000000000000000000 ) ) ;
#161 = ADVANCED_FACE ( 'NONE', ( #197 ), #393, .T. ) ;
#162 = CARTESIAN_POINT ( 'NONE',  ( -32.49999999999997868, 2817.965330118411202, 0.000000000000000000 ) ) ;
#163 = CIRCLE ( 'NONE', #317, 32.50000000000000000 ) ;
#164 = CIRCLE ( 'NONE', #246, 32.49999999999999289 ) ;
#165 = APPROVAL_STATUS ( 'not_yet_approved' ) ;
#166 = ORIENTED_EDGE ( 'NONE', *, *, #370, .F. ) ;
#167 = DIRECTION ( 'NONE',  ( 4.596983092540343816E-18, 1.000000000000000000, -0.000000000000000000 ) ) ;
#168 = ORIENTED_EDGE ( 'NONE', *, *, #89, .T. ) ;
#169 = CIRCLE ( 'NONE', #282, 31.01850613154960357 ) ;
#170 = DIRECTION ( 'NONE',  ( -1.000000000000000000, 0.000000000000000000, 0.000000000000000000 ) ) ;
#171 = ORIENTED_EDGE ( 'NONE', *, *, #256, .F. ) ;
#172 = CIRCLE ( 'NONE', #295, 31.01850613154960357 ) ;
#173 = ORIENTED_EDGE ( 'NONE', *, *, #114, .F. ) ;
#174 = ORIENTED_EDGE ( 'NONE', *, *, #309, .T. ) ;
#175 = VECTOR ( 'NONE', #374, 1000.000000000000000 ) ;
#176 = EDGE_CURVE ( 'NONE', #207, #342, #300, .T. ) ;
#177 = CARTESIAN_POINT ( 'NONE',  ( 26.14999999999998792, 0.7376179243374769712, 3.202451379770327043E-15 ) ) ;
#178 =( LENGTH_UNIT ( ) NAMED_UNIT ( * ) SI_UNIT ( .MILLI., .METRE. ) );
#179 = CARTESIAN_POINT ( 'NONE',  ( -34.49999999999999289, 1.585959166926418586E-16, 0.000000000000000000 ) ) ;
#180 = LINE ( 'NONE', #25, #175 ) ;
#181 = DATE_AND_TIME ( #258, #125 ) ;
#182 = CIRCLE ( 'NONE', #306, 53.20000000000000995 ) ;
#183 = CARTESIAN_POINT ( 'NONE',  ( 6.025262251804980018E-15, -35.70000000000000284, 0.000000000000000000 ) ) ;
#184 = PERSON_AND_ORGANIZATION ( #99, #277 ) ;
#185 = LOCAL_TIME ( 8, 33, 38.00000000000000000, #31 ) ;
#186 = SPHERICAL_SURFACE ( 'NONE', #148, 51.20000000000000995 ) ;
#187 = APPROVAL_DATE_TIME ( #225, #405 ) ;
#188 = TOROIDAL_SURFACE ( 'NONE', #392, 26.14999999999998792, 6.350000000000010303 ) ;
#189 = CARTESIAN_POINT ( 'NONE',  ( 32.50000000000000000, 0.7376179243374667571, 3.980102097228898626E-15 ) ) ;
#190 = AXIS2_PLACEMENT_3D ( 'NONE', #37, #358, #294 ) ;
#191 = CARTESIAN_POINT ( 'NONE',  ( 26.14999999999998792, 0.7376179243374769712, 3.202451379770327043E-15 ) ) ;
#192 = APPROVAL_DATE_TIME ( #382, #118 ) ;
#193 = DIRECTION ( 'NONE',  ( -1.224646799147353207E-16, 5.629680630014033300E-34, 1.000000000000000000 ) ) ;
#194 = CARTESIAN_POINT ( 'NONE',  ( 6.025262251804980018E-15, -35.70000000000000284, 0.000000000000000000 ) ) ;
#195 = EDGE_CURVE ( 'NONE', #204, #15, #196, .T. ) ;
#196 = CIRCLE ( 'NONE', #22, 53.20000000000000995 ) ;
#197 = FACE_OUTER_BOUND ( 'NONE', #51, .T. ) ;
#198 = DIRECTION ( 'NONE',  ( 1.000000000000000000, 0.000000000000000000, 1.224646799147353207E-16 ) ) ;
#199 = ORIENTED_EDGE ( 'NONE', *, *, #211, .T. ) ;
#200 = APPROVAL_PERSON_ORGANIZATION ( #184, #118, #5 ) ;
#201 = ORIENTED_EDGE ( 'NONE', *, *, #355, .F. ) ;
#202 = EDGE_CURVE ( 'NONE', #24, #47, #371, .T. ) ;
#203 = DIRECTION ( 'NONE',  ( 1.000000000000000000, -4.596983092540343816E-18, 0.000000000000000000 ) ) ;
#204 = VERTEX_POINT ( 'NONE', #94 ) ;
#205 = AXIS2_PLACEMENT_3D ( 'NONE', #117, #3, #214 ) ;
#206 = DIRECTION ( 'NONE',  ( 4.596983092540343816E-18, 1.000000000000000000, -0.000000000000000000 ) ) ;
#207 = VERTEX_POINT ( 'NONE', #356 ) ;
#208 = UNCERTAINTY_MEASURE_WITH_UNIT (LENGTH_MEASURE( 1.000000000000000082E-05 ), #178, 'distance_accuracy_value', 'NONE');
#209 = AXIS2_PLACEMENT_3D ( 'NONE', #48, #365, #198 ) ;
#210 = ORIENTED_EDGE ( 'NONE', *, *, #132, .F. ) ;
#211 = EDGE_CURVE ( 'NONE', #380, #307, #71, .T. ) ;
#212 = EDGE_LOOP ( 'NONE', ( #28, #238, #396, #102 ) ) ;
#213 = AXIS2_PLACEMENT_3D ( 'NONE', #177, #151, #30 ) ;
#214 = DIRECTION ( 'NONE',  ( -1.000000000000000000, 3.142614992711607530E-18, 0.000000000000000000 ) ) ;
#215 = MECHANICAL_CONTEXT ( 'NONE', #304, 'mechanical' ) ;
#216 = FACE_OUTER_BOUND ( 'NONE', #243, .T. ) ;
#217 = COORDINATED_UNIVERSAL_TIME_OFFSET ( 1, 0, .AHEAD. ) ;
#218 = FACE_OUTER_BOUND ( 'NONE', #212, .T. ) ;
#219 = PERSON_AND_ORGANIZATION_ROLE ( 'creator' ) ;
#220 = CARTESIAN_POINT ( 'NONE',  ( 6.025262251804980018E-15, -35.70000000000000284, 0.000000000000000000 ) ) ;
#221 = PERSON_AND_ORGANIZATION_ROLE ( 'classification_officer' ) ;
#222 = CIRCLE ( 'NONE', #209, 51.20000000000000995 ) ;
#223 = DIRECTION ( 'NONE',  ( 4.596983092540343816E-18, 1.000000000000000000, -0.000000000000000000 ) ) ;
#224 = ADVANCED_FACE ( 'NONE', ( #35 ), #27, .T. ) ;
#225 = DATE_AND_TIME ( #29, #336 ) ;
#226 = DIRECTION ( 'NONE',  ( 4.596983092540343816E-18, 1.000000000000000000, -0.000000000000000000 ) ) ;
#227 = APPROVAL_ROLE ( '' ) ;
#228 = AXIS2_PLACEMENT_3D ( 'NONE', #194, #127, #69 ) ;
#229 = DIRECTION ( 'NONE',  ( -1.000000000000000000, 0.000000000000000000, 0.000000000000000000 ) ) ;
#230 = CC_DESIGN_APPROVAL ( #119, ( #297 ) ) ;
#231 = FACE_OUTER_BOUND ( 'NONE', #305, .T. ) ;
#232 = AXIS2_PLACEMENT_3D ( 'NONE', #388, #320, #160 ) ;
#233 = DIRECTION ( 'NONE',  ( 1.000000000000000000, -4.596983092540343816E-18, 0.000000000000000000 ) ) ;
#234 = AXIS2_PLACEMENT_3D ( 'NONE', #280, #1, #54 ) ;
#235 = DIRECTION ( 'NONE',  ( -1.000000000000000000, 0.000000000000000000, 0.000000000000000000 ) ) ;
#236 = ORIENTED_EDGE ( 'NONE', *, *, #202, .T. ) ;
#237 = FACE_OUTER_BOUND ( 'NONE', #268, .T. ) ;
#238 = ORIENTED_EDGE ( 'NONE', *, *, #128, .T. ) ;
#239 = EDGE_CURVE ( 'NONE', #307, #15, #182, .T. ) ;
#240 = DIRECTION ( 'NONE',  ( 1.000000000000000000, 0.000000000000000000, 0.000000000000000000 ) ) ;
#241 = ORIENTED_EDGE ( 'NONE', *, *, #50, .T. ) ;
#242 = DIRECTION ( 'NONE',  ( -1.000000000000000000, 0.000000000000000000, 0.000000000000000000 ) ) ;
#243 = EDGE_LOOP ( 'NONE', ( #330, #42, #174, #301 ) ) ;
#244 = ORIENTED_EDGE ( 'NONE', *, *, #114, .T. ) ;
#245 = DESIGN_CONTEXT ( 'detailed design', #275, 'design' ) ;
#246 = AXIS2_PLACEMENT_3D ( 'NONE', #266, #335, #203 ) ;
#247 = ORIENTED_EDGE ( 'NONE', *, *, #50, .F. ) ;
#248 = AXIS2_PLACEMENT_3D ( 'NONE', #108, #398, #44 ) ;
#249 = CARTESIAN_POINT ( 'NONE',  ( 9.582247305892037153E-16, 7.521433078589989663, 0.000000000000000000 ) ) ;
#250 = AXIS2_PLACEMENT_3D ( 'NONE', #284, #315, #318 ) ;
#251 = DIRECTION ( 'NONE',  ( -1.000000000000000000, 4.596983092540343816E-18, 0.000000000000000000 ) ) ;
#252 = CARTESIAN_POINT ( 'NONE',  ( -34.49999999999999289, 0.7376179243374637595, 0.000000000000000000 ) ) ;
#253 = CARTESIAN_POINT ( 'NONE',  ( 3.125531980325821016E-15, 15.50000000000000711, 0.000000000000000000 ) ) ;
#254 = AXIS2_PLACEMENT_3D ( 'NONE', #353, #351, #229 ) ;
#255 = APPROVAL_ROLE ( '' ) ;
#256 = EDGE_CURVE ( 'NONE', #380, #61, #10, .T. ) ;
#257 = CARTESIAN_POINT ( 'NONE',  ( 29.85239687848377699, 5.896567173379746230, 3.817983162820028632E-15 ) ) ;
#258 = CALENDAR_DATE ( 2024, 16, 7 ) ;
#259 = LINE ( 'NONE', #95, #67 ) ;
#260 = DIRECTION ( 'NONE',  ( -1.224646799147353207E-16, 5.629680630014033300E-34, 1.000000000000000000 ) ) ;
#261 = AXIS2_PLACEMENT_3D ( 'NONE', #156, #292, #324 ) ;
#262 = CYLINDRICAL_SURFACE ( 'NONE', #232, 34.49999999999999289 ) ;
#263 = APPROVAL_PERSON_ORGANIZATION ( #410, #405, #255 ) ;
#264 = PLANE ( 'NONE',  #411 ) ;
#265 = DIRECTION ( 'NONE',  ( -1.000000000000000000, 0.000000000000000000, 0.000000000000000000 ) ) ;
#266 = CARTESIAN_POINT ( 'NONE',  ( 9.236488298952508525E-16, 0.000000000000000000, 0.000000000000000000 ) ) ;
#267 = ADVANCED_FACE ( 'NONE', ( #129 ), #262, .T. ) ;
#268 = EDGE_LOOP ( 'NONE', ( #136, #74, #276 ) ) ;
#269 = CARTESIAN_POINT ( 'NONE',  ( 32.49999999999999289, -1.494019505075611340E-16, 3.980102097228897837E-15 ) ) ;
#270 = ORIENTED_EDGE ( 'NONE', *, *, #63, .F. ) ;
#271 = VECTOR ( 'NONE', #296, 1000.000000000000000 ) ;
#272 = FACE_OUTER_BOUND ( 'NONE', #110, .T. ) ;
#273 = ORIENTED_EDGE ( 'NONE', *, *, #176, .T. ) ;
#274 = EDGE_LOOP ( 'NONE', ( #273, #80 ) ) ;
#275 = APPLICATION_CONTEXT ( 'configuration controlled 3d designs of mechanical parts and assemblies' ) ;
#276 = ORIENTED_EDGE ( 'NONE', *, *, #195, .T. ) ;
#277 = ORGANIZATION ( 'UNSPECIFIED', 'UNSPECIFIED', '' ) ;
#278 = CYLINDRICAL_SURFACE ( 'NONE', #288, 32.49999999999999289 ) ;
#279 = DIRECTION ( 'NONE',  ( -0.000000000000000000, 0.000000000000000000, -1.000000000000000000 ) ) ;
#280 = CARTESIAN_POINT ( 'NONE',  ( 6.216480967808726055E-15, 5.896567173379746230, 0.000000000000000000 ) ) ;
#281 = ADVANCED_FACE ( 'NONE', ( #97, #231 ), #264, .T. ) ;
#282 = AXIS2_PLACEMENT_3D ( 'NONE', #249, #323, #13 ) ;
#283 = PERSON_AND_ORGANIZATION ( #99, #277 ) ;
#284 = CARTESIAN_POINT ( 'NONE',  ( 1.387778780781445676E-14, 2817.965330118411202, 0.000000000000000000 ) ) ;
#285 = PERSON_AND_ORGANIZATION_ROLE ( 'creator' ) ;
#286 = FACE_OUTER_BOUND ( 'NONE', #331, .T. ) ;
#287 = CARTESIAN_POINT ( 'NONE',  ( 0.000000000000000000, 0.7376179243374770822, 0.000000000000000000 ) ) ;
#288 = AXIS2_PLACEMENT_3D ( 'NONE', #347, #90, #92 ) ;
#289 = DIRECTION ( 'NONE',  ( -0.000000000000000000, 0.000000000000000000, -1.000000000000000000 ) ) ;
#290 = PERSON_AND_ORGANIZATION ( #99, #277 ) ;
#291 = LOCAL_TIME ( 8, 33, 38.00000000000000000, #150 ) ;
#292 = DIRECTION ( 'NONE',  ( 4.596983092540343816E-18, 1.000000000000000000, -0.000000000000000000 ) ) ;
#293 = CIRCLE ( 'NONE', #387, 29.85239687848376988 ) ;
#294 = DIRECTION ( 'NONE',  ( -1.000000000000000000, 3.142614992711607530E-18, 0.000000000000000000 ) ) ;
#295 = AXIS2_PLACEMENT_3D ( 'NONE', #78, #206, #329 ) ;
#296 = DIRECTION ( 'NONE',  ( 4.596983092540343816E-18, 1.000000000000000000, -0.000000000000000000 ) ) ;
#297 = PRODUCT_DEFINITION ( 'UNKNOWN', '', #389, #245 ) ;
#298 = DIRECTION ( 'NONE',  ( -1.000000000000000000, 3.336006684570782963E-18, 0.000000000000000000 ) ) ;
#299 = ORIENTED_EDGE ( 'NONE', *, *, #132, .T. ) ;
#300 = CIRCLE ( 'NONE', #96, 32.49999999999999289 ) ;
#301 = ORIENTED_EDGE ( 'NONE', *, *, #32, .T. ) ;
#302 = CC_DESIGN_PERSON_AND_ORGANIZATION_ASSIGNMENT ( #378, #221, ( #157 ) ) ;
#303 = ORIENTED_EDGE ( 'NONE', *, *, #89, .F. ) ;
#304 = APPLICATION_CONTEXT ( 'configuration controlled 3d designs of mechanical parts and assemblies' ) ;
#305 = EDGE_LOOP ( 'NONE', ( #81, #109 ) ) ;
#306 = AXIS2_PLACEMENT_3D ( 'NONE', #124, #260, #159 ) ;
#307 = VERTEX_POINT ( 'NONE', #33 ) ;
#308 = CARTESIAN_POINT ( 'NONE',  ( -4.682396875543500749E-32, 0.7376179243374668681, 0.000000000000000000 ) ) ;
#309 = EDGE_CURVE ( 'NONE', #207, #104, #70, .T. ) ;
#310 = DIRECTION ( 'NONE',  ( 4.596983092540343816E-18, 1.000000000000000000, -0.000000000000000000 ) ) ;
#311 = PERSON_AND_ORGANIZATION ( #99, #277 ) ;
#312 = CARTESIAN_POINT ( 'NONE',  ( 34.49999999999999289, -1.585959166926418586E-16, 4.225031457058367344E-15 ) ) ;
#313 = CIRCLE ( 'NONE', #205, 34.49999999999999289 ) ;
#314 = APPROVAL_STATUS ( 'not_yet_approved' ) ;
#315 = DIRECTION ( 'NONE',  ( 4.596983092540343816E-18, 1.000000000000000000, -0.000000000000000000 ) ) ;
#316 = EDGE_CURVE ( 'NONE', #104, #19, #338, .T. ) ;
#317 = AXIS2_PLACEMENT_3D ( 'NONE', #73, #167, #298 ) ;
#318 = DIRECTION ( 'NONE',  ( -1.000000000000000000, 0.000000000000000000, 0.000000000000000000 ) ) ;
#319 = PERSON_AND_ORGANIZATION ( #99, #277 ) ;
#320 = DIRECTION ( 'NONE',  ( 4.596983092540343816E-18, 1.000000000000000000, -0.000000000000000000 ) ) ;
#321 = CC_DESIGN_DATE_AND_TIME_ASSIGNMENT ( #123, #408, ( #157 ) ) ;
#322 = CIRCLE ( 'NONE', #130, 34.49999999999999289 ) ;
#323 = DIRECTION ( 'NONE',  ( 4.596983092540343816E-18, 1.000000000000000000, -0.000000000000000000 ) ) ;
#324 = DIRECTION ( 'NONE',  ( -1.000000000000000000, 4.596983092540343816E-18, 0.000000000000000000 ) ) ;
#325 = DIRECTION ( 'NONE',  ( -1.000000000000000000, 4.596983092540344586E-18, 0.000000000000000000 ) ) ;
#326 = DIRECTION ( 'NONE',  ( -1.000000000000000000, 4.596983092540344586E-18, 0.000000000000000000 ) ) ;
#327 = ADVANCED_FACE ( 'NONE', ( #272 ), #188, .F. ) ;
#328 = CC_DESIGN_SECURITY_CLASSIFICATION ( #157, ( #389 ) ) ;
#329 = DIRECTION ( 'NONE',  ( -1.000000000000000000, 0.000000000000000000, 0.000000000000000000 ) ) ;
#330 = ORIENTED_EDGE ( 'NONE', *, *, #128, .F. ) ;
#331 = EDGE_LOOP ( 'NONE', ( #49, #399, #299 ) ) ;
#332 = AXIS2_PLACEMENT_3D ( 'NONE', #191, #193, #131 ) ;
#333 =( NAMED_UNIT ( * ) SI_UNIT ( $, .STERADIAN. ) SOLID_ANGLE_UNIT ( ) );
#334 = EDGE_LOOP ( 'NONE', ( #270, #368, #210 ) ) ;
#335 = DIRECTION ( 'NONE',  ( 4.596983092540343816E-18, 1.000000000000000000, -0.000000000000000000 ) ) ;
#336 = LOCAL_TIME ( 8, 33, 38.00000000000000000, #121 ) ;
#337 = ORIENTED_EDGE ( 'NONE', *, *, #239, .T. ) ;
#338 = CIRCLE ( 'NONE', #137, 6.350000000000012079 ) ;
#339 = ORIENTED_EDGE ( 'NONE', *, *, #256, .T. ) ;
#340 = CLOSED_SHELL ( 'NONE', ( #16, #327, #84, #161, #224, #341, #281, #267, #57, #346, #21, #6, #101 ) ) ;
#341 = ADVANCED_FACE ( 'NONE', ( #360 ), #361, .T. ) ;
#342 = VERTEX_POINT ( 'NONE', #269 ) ;
#343 = CC_DESIGN_APPROVAL ( #405, ( #389 ) ) ;
#344 = DIRECTION ( 'NONE',  ( 4.596983092540343816E-18, 1.000000000000000000, -0.000000000000000000 ) ) ;
#345 = CALENDAR_DATE ( 2024, 16, 7 ) ;
#346 = ADVANCED_FACE ( 'NONE', ( #237 ), #46, .T. ) ;
#347 = CARTESIAN_POINT ( 'NONE',  ( 1.387778780781445676E-14, 2817.965330118411202, 0.000000000000000000 ) ) ;
#348 = DATE_AND_TIME ( #59, #381 ) ;
#349 = DIRECTION ( 'NONE',  ( 0.000000000000000000, 0.000000000000000000, 1.000000000000000000 ) ) ;
#350 = PERSON_AND_ORGANIZATION ( #99, #277 ) ;
#351 = DIRECTION ( 'NONE',  ( -0.000000000000000000, 0.000000000000000000, -1.000000000000000000 ) ) ;
#352 = APPROVAL_DATE_TIME ( #181, #119 ) ;
#353 = CARTESIAN_POINT ( 'NONE',  ( 6.025262251804980018E-15, -35.70000000000000284, 0.000000000000000000 ) ) ;
#354 = AXIS2_PLACEMENT_3D ( 'NONE', #308, #344, #409 ) ;
#355 = EDGE_CURVE ( 'NONE', #61, #204, #120, .T. ) ;
#356 = CARTESIAN_POINT ( 'NONE',  ( -32.49999999999999289, 1.494019505075611340E-16, 0.000000000000000000 ) ) ;
#357 = MANIFOLD_SOLID_BREP ( 'Wandung1', #340 ) ;
#358 = DIRECTION ( 'NONE',  ( 4.596983092540343816E-18, 1.000000000000000000, -0.000000000000000000 ) ) ;
#359 = EDGE_CURVE ( 'NONE', #19, #23, #293, .T. ) ;
#360 = FACE_OUTER_BOUND ( 'NONE', #366, .T. ) ;
#361 = CYLINDRICAL_SURFACE ( 'NONE', #248, 34.49999999999999289 ) ;
#362 = ORIENTED_EDGE ( 'NONE', *, *, #195, .F. ) ;
#363 = ORIENTED_EDGE ( 'NONE', *, *, #143, .F. ) ;
#364 = AXIS2_PLACEMENT_3D ( 'NONE', #38, #65, #326 ) ;
#365 = DIRECTION ( 'NONE',  ( -1.224646799147353207E-16, 5.629680630014033300E-34, 1.000000000000000000 ) ) ;
#366 = EDGE_LOOP ( 'NONE', ( #236, #140, #247, #402 ) ) ;
#367 = AXIS2_PLACEMENT_3D ( 'NONE', #106, #373, #240 ) ;
#368 = ORIENTED_EDGE ( 'NONE', *, *, #384, .T. ) ;
#369 = ORIENTED_EDGE ( 'NONE', *, *, #211, .F. ) ;
#370 = EDGE_CURVE ( 'NONE', #141, #104, #163, .T. ) ;
#371 = CIRCLE ( 'NONE', #364, 34.49999999999999289 ) ;
#372 = DIRECTION ( 'NONE',  ( 4.596983092540343816E-18, 1.000000000000000000, -0.000000000000000000 ) ) ;
#373 = DIRECTION ( 'NONE',  ( 0.000000000000000000, 0.000000000000000000, 1.000000000000000000 ) ) ;
#374 = DIRECTION ( 'NONE',  ( 4.596983092540343816E-18, 1.000000000000000000, -0.000000000000000000 ) ) ;
#375 = CARTESIAN_POINT ( 'NONE',  ( 3.012261266596166494E-15, 17.50000000000000711, 0.000000000000000000 ) ) ;
#376 = SPHERICAL_SURFACE ( 'NONE', #34, 51.20000000000000995 ) ;
#377 = CIRCLE ( 'NONE', #234, 29.85239687848376988 ) ;
#378 = PERSON_AND_ORGANIZATION ( #99, #277 ) ;
#379 = PRODUCT_RELATED_PRODUCT_CATEGORY ( 'detail', '', ( #138 ) ) ;
#380 = VERTEX_POINT ( 'NONE', #139 ) ;
#381 = LOCAL_TIME ( 8, 33, 38.00000000000000000, #217 ) ;
#382 = DATE_AND_TIME ( #88, #185 ) ;
#383 = DIRECTION ( 'NONE',  ( 4.596983092540343816E-18, 1.000000000000000000, -0.000000000000000000 ) ) ;
#384 = EDGE_CURVE ( 'NONE', #23, #111, #222, .T. ) ;
#385 = DIRECTION ( 'NONE',  ( 1.000000000000000000, -4.596983092540343816E-18, 0.000000000000000000 ) ) ;
#386 = CIRCLE ( 'NONE', #354, 32.50000000000000000 ) ;
#387 = AXIS2_PLACEMENT_3D ( 'NONE', #395, #18, #235 ) ;
#388 = CARTESIAN_POINT ( 'NONE',  ( 1.387778780781445676E-14, 2817.965330118411202, 0.000000000000000000 ) ) ;
#389 = PRODUCT_DEFINITION_FORMATION_WITH_SPECIFIED_SOURCE ( 'ANY', '', #138, .NOT_KNOWN. ) ;
#390 = EDGE_CURVE ( 'NONE', #307, #204, #172, .T. ) ;
#391 = CARTESIAN_POINT ( 'NONE',  ( -3.645313737910057193E-34, -7.929795834632092929E-17, 0.000000000000000000 ) ) ;
#392 = AXIS2_PLACEMENT_3D ( 'NONE', #14, #75, #103 ) ;
#393 = SPHERICAL_SURFACE ( 'NONE', #228, 53.20000000000000995 ) ;
#394 = CC_DESIGN_PERSON_AND_ORGANIZATION_ASSIGNMENT ( #350, #219, ( #297 ) ) ;
#395 = CARTESIAN_POINT ( 'NONE',  ( 6.216480967808726055E-15, 5.896567173379746230, 0.000000000000000000 ) ) ;
#396 = ORIENTED_EDGE ( 'NONE', *, *, #370, .T. ) ;
#397 = ORIENTED_EDGE ( 'NONE', *, *, #11, .T. ) ;
#398 = DIRECTION ( 'NONE',  ( 4.596983092540343816E-18, 1.000000000000000000, -0.000000000000000000 ) ) ;
#399 = ORIENTED_EDGE ( 'NONE', *, *, #359, .F. ) ;
#400 = EDGE_LOOP ( 'NONE', ( #363, #142, #397, #171 ) ) ;
#401 = EDGE_CURVE ( 'NONE', #342, #207, #164, .T. ) ;
#402 = ORIENTED_EDGE ( 'NONE', *, *, #11, .F. ) ;
#403 = AXIS2_PLACEMENT_3D ( 'NONE', #145, #279, #170 ) ;
#404 = DIRECTION ( 'NONE',  ( -1.000000000000000000, 0.000000000000000000, 0.000000000000000000 ) ) ;
#405 = APPROVAL ( #64, 'UNSPECIFIED' ) ;
#406 = AXIS2_PLACEMENT_3D ( 'NONE', #122, #310, #87 ) ;
#407 = ORIENTED_EDGE ( 'NONE', *, *, #359, .T. ) ;
#408 = DATE_TIME_ROLE ( 'classification_date' ) ;
#409 = DIRECTION ( 'NONE',  ( -1.000000000000000000, 3.336006684570782963E-18, 0.000000000000000000 ) ) ;
#410 = PERSON_AND_ORGANIZATION ( #99, #277 ) ;
#411 = AXIS2_PLACEMENT_3D ( 'NONE', #391, #98, #233 ) ;
ENDSEC;
END-ISO-10303-21;
