ISO-10303-21;
HEADER;
FILE_DESCRIPTION (( 'STEP AP203' ),
    '1' );
FILE_NAME ('OT200-50-60_3x1_6_OSTP.step',
    '2020-12-16T02:27:30',
    ( '' ),
    ( '' ),
    'SwSTEP 2.0',
    'SolidWorks 2014',
    '' );
FILE_SCHEMA (( 'CONFIG_CONTROL_DESIGN' ));
ENDSEC;

DATA;
#1 = AXIS2_PLACEMENT_3D ( 'NONE', #145, #230, #141 ) ;
#2 = ORIENTED_EDGE ( 'NONE', *, *, #183, .F. ) ;
#3 = DIRECTION ( 'NONE',  ( 0.0000000000000000000, 0.0000000000000000000, 1.000000000000000000 ) ) ;
#4 = CARTESIAN_POINT ( 'NONE',  ( 75.99999999999998600, 45.84999999999999400, -3.692310099429271200E-015 ) ) ;
#5 =( GEOMETRIC_REPRESENTATION_CONTEXT ( 3 ) GLOBAL_UNCERTAINTY_ASSIGNED_CONTEXT ( ( #246 ) ) GLOBAL_UNIT_ASSIGNED_CONTEXT ( ( #211, #14, #176 ) ) REPRESENTATION_CONTEXT ( 'NONE', 'WORKASPACE' ) );
#6 = AXIS2_PLACEMENT_3D ( 'NONE', #107, #126, #75 ) ;
#7 = VERTEX_POINT ( 'NONE', #18 ) ;
#8 = ORIENTED_EDGE ( 'NONE', *, *, #249, .F. ) ;
#9 = PERSON_AND_ORGANIZATION_ROLE ( 'creator' ) ;
#10 = PERSON_AND_ORGANIZATION ( #173, #89 ) ;
#11 = DIRECTION ( 'NONE',  ( 1.000000000000000000, 0.0000000000000000000, 0.0000000000000000000 ) ) ;
#12 = CC_DESIGN_PERSON_AND_ORGANIZATION_ASSIGNMENT ( #84, #85, ( #217 ) ) ;
#13 = DATE_TIME_ROLE ( 'classification_date' ) ;
#14 =( NAMED_UNIT ( * ) PLANE_ANGLE_UNIT ( ) SI_UNIT ( $, .RADIAN. ) );
#15 = ORIENTED_EDGE ( 'NONE', *, *, #236, .T. ) ;
#16 = DIRECTION ( 'NONE',  ( 1.000000000000000000, 0.0000000000000000000, 0.0000000000000000000 ) ) ;
#17 = CARTESIAN_POINT ( 'NONE',  ( 76.00000000000000000, 0.0000000000000000000, 0.0000000000000000000 ) ) ;
#18 = CARTESIAN_POINT ( 'NONE',  ( -28.55000000000000100, 0.0000000000000000000, 0.0000000000000000000 ) ) ;
#19 = PERSON_AND_ORGANIZATION ( #173, #89 ) ;
#20 = ADVANCED_FACE ( 'NONE', ( #244 ), #185, .F. ) ;
#21 = EDGE_LOOP ( 'NONE', ( #218, #76 ) ) ;
#22 = AXIS2_PLACEMENT_3D ( 'NONE', #229, #95, #195 ) ;
#23 = DIRECTION ( 'NONE',  ( 0.0000000000000000000, 0.0000000000000000000, 1.000000000000000000 ) ) ;
#24 = CARTESIAN_POINT ( 'NONE',  ( 76.00000000000000000, 0.0000000000000000000, 0.0000000000000000000 ) ) ;
#25 = CIRCLE ( 'NONE', #22, 30.14999999999999900 ) ;
#26 = APPROVAL_PERSON_ORGANIZATION ( #147, #73, #36 ) ;
#27 = DIRECTION ( 'NONE',  ( 0.0000000000000000000, 1.000000000000000000, 0.0000000000000000000 ) ) ;
#28 = CC_DESIGN_PERSON_AND_ORGANIZATION_ASSIGNMENT ( #10, #219, ( #217 ) ) ;
#29 = DIRECTION ( 'NONE',  ( 0.0000000000000000000, 0.0000000000000000000, 1.000000000000000000 ) ) ;
#30 = EDGE_LOOP ( 'NONE', ( #194, #143 ) ) ;
#31 = ORIENTED_EDGE ( 'NONE', *, *, #128, .F. ) ;
#32 = CALENDAR_DATE ( 2020, 16, 12 ) ;
#33 = EDGE_LOOP ( 'NONE', ( #8, #220 ) ) ;
#34 = APPROVAL_STATUS ( 'not_yet_approved' ) ;
#35 = AXIS2_PLACEMENT_3D ( 'NONE', #163, #58, #78 ) ;
#36 = APPROVAL_ROLE ( '' ) ;
#37 = AXIS2_PLACEMENT_3D ( 'NONE', #110, #207, #237 ) ;
#38 = SECURITY_CLASSIFICATION ( '', '', #103 ) ;
#39 = CALENDAR_DATE ( 2020, 16, 12 ) ;
#40 = CARTESIAN_POINT ( 'NONE',  ( 75.99999999999998600, 76.00000000000000000, 0.0000000000000000000 ) ) ;
#41 = ADVANCED_BREP_SHAPE_REPRESENTATION ( 'OT200-50-60_3x1_6_OSTP', ( #129, #124 ), #5 ) ;
#42 = DIRECTION ( 'NONE',  ( 0.0000000000000000000, 0.0000000000000000000, 1.000000000000000000 ) ) ;
#43 = LOCAL_TIME ( 3, 27, 30.00000000000000000, #232 ) ;
#44 = DIRECTION ( 'NONE',  ( 1.000000000000000000, 0.0000000000000000000, 0.0000000000000000000 ) ) ;
#45 = PLANE ( 'NONE',  #66 ) ;
#46 = DIRECTION ( 'NONE',  ( 0.0000000000000000000, 1.000000000000000000, 0.0000000000000000000 ) ) ;
#47 = EDGE_CURVE ( 'NONE', #80, #7, #164, .T. ) ;
#48 = SHAPE_DEFINITION_REPRESENTATION ( #169, #41 ) ;
#49 = CIRCLE ( 'NONE', #6, 47.45000000000000300 ) ;
#50 = FACE_OUTER_BOUND ( 'NONE', #33, .T. ) ;
#51 = CC_DESIGN_PERSON_AND_ORGANIZATION_ASSIGNMENT ( #165, #119, ( #38 ) ) ;
#52 = CARTESIAN_POINT ( 'NONE',  ( 0.0000000000000000000, 0.0000000000000000000, 0.0000000000000000000 ) ) ;
#53 = CARTESIAN_POINT ( 'NONE',  ( 0.0000000000000000000, 0.0000000000000000000, 0.0000000000000000000 ) ) ;
#54 = FACE_OUTER_BOUND ( 'NONE', #87, .T. ) ;
#55 = CARTESIAN_POINT ( 'NONE',  ( 0.0000000000000000000, 0.0000000000000000000, 0.0000000000000000000 ) ) ;
#56 = DIRECTION ( 'NONE',  ( 0.0000000000000000000, 0.0000000000000000000, 1.000000000000000000 ) ) ;
#57 = APPROVAL_DATE_TIME ( #158, #73 ) ;
#58 = DIRECTION ( 'NONE',  ( 0.0000000000000000000, 0.0000000000000000000, 1.000000000000000000 ) ) ;
#59 = ORIENTED_EDGE ( 'NONE', *, *, #192, .F. ) ;
#60 = ORIENTED_EDGE ( 'NONE', *, *, #249, .T. ) ;
#61 = CARTESIAN_POINT ( 'NONE',  ( 76.00000000000000000, 47.44999999999999600, -3.496366611565693100E-015 ) ) ;
#62 = DIRECTION ( 'NONE',  ( 0.0000000000000000000, 1.000000000000000000, 0.0000000000000000000 ) ) ;
#63 = DATE_AND_TIME ( #32, #82 ) ;
#64 = CC_DESIGN_DATE_AND_TIME_ASSIGNMENT ( #72, #13, ( #38 ) ) ;
#65 = DIRECTION ( 'NONE',  ( 1.000000000000000000, 6.123233995736766000E-017, 0.0000000000000000000 ) ) ;
#66 = AXIS2_PLACEMENT_3D ( 'NONE', #55, #166, #209 ) ;
#67 = ORIENTED_EDGE ( 'NONE', *, *, #236, .F. ) ;
#68 = DIRECTION ( 'NONE',  ( 1.000000000000000000, 0.0000000000000000000, 0.0000000000000000000 ) ) ;
#69 = APPLICATION_CONTEXT ( 'configuration controlled 3d designs of mechanical parts and assemblies' ) ;
#70 = ORIENTED_EDGE ( 'NONE', *, *, #113, .F. ) ;
#71 = CIRCLE ( 'NONE', #242, 30.14999999999999900 ) ;
#72 = DATE_AND_TIME ( #39, #201 ) ;
#73 = APPROVAL ( #140, 'UNSPECIFIED' ) ;
#74 = DIRECTION ( 'NONE',  ( 0.0000000000000000000, 1.000000000000000000, 0.0000000000000000000 ) ) ;
#75 = DIRECTION ( 'NONE',  ( 1.000000000000000000, 0.0000000000000000000, 0.0000000000000000000 ) ) ;
#76 = ORIENTED_EDGE ( 'NONE', *, *, #125, .F. ) ;
#77 = DATE_AND_TIME ( #123, #179 ) ;
#78 = DIRECTION ( 'NONE',  ( 1.000000000000000000, 0.0000000000000000000, 0.0000000000000000000 ) ) ;
#79 = ADVANCED_FACE ( 'NONE', ( #247 ), #198, .T. ) ;
#80 = VERTEX_POINT ( 'NONE', #189 ) ;
#81 = AXIS2_PLACEMENT_3D ( 'NONE', #40, #134, #172 ) ;
#82 = LOCAL_TIME ( 3, 27, 30.00000000000000000, #133 ) ;
#83 = CC_DESIGN_APPROVAL ( #73, ( #38 ) ) ;
#84 = PERSON_AND_ORGANIZATION ( #173, #89 ) ;
#85 = PERSON_AND_ORGANIZATION_ROLE ( 'creator' ) ;
#86 = PERSON_AND_ORGANIZATION ( #173, #89 ) ;
#87 = EDGE_LOOP ( 'NONE', ( #2, #161, #214, #67 ) ) ;
#88 = AXIS2_PLACEMENT_3D ( 'NONE', #127, #65, #42 ) ;
#89 = ORGANIZATION ( 'UNSPECIFIED', 'UNSPECIFIED', '' ) ;
#90 = ADVANCED_FACE ( 'NONE', ( #99, #50 ), #45, .F. ) ;
#91 = DIRECTION ( 'NONE',  ( 0.0000000000000000000, 0.0000000000000000000, 1.000000000000000000 ) ) ;
#92 = AXIS2_PLACEMENT_3D ( 'NONE', #178, #23, #11 ) ;
#93 = CARTESIAN_POINT ( 'NONE',  ( 76.00000000000000000, 0.0000000000000000000, -3.692310099429270400E-015 ) ) ;
#94 = CIRCLE ( 'NONE', #160, 106.1499999999999800 ) ;
#95 = DIRECTION ( 'NONE',  ( 1.000000000000000000, 6.123233995736766000E-017, 0.0000000000000000000 ) ) ;
#96 = ORIENTED_EDGE ( 'NONE', *, *, #47, .F. ) ;
#97 = CC_DESIGN_SECURITY_CLASSIFICATION ( #38, ( #217 ) ) ;
#98 = CARTESIAN_POINT ( 'NONE',  ( 76.00000000000000000, 0.0000000000000000000, 0.0000000000000000000 ) ) ;
#99 = FACE_BOUND ( 'NONE', #30, .T. ) ;
#100 = APPROVAL_ROLE ( '' ) ;
#101 = LOCAL_TIME ( 3, 27, 30.00000000000000000, #235 ) ;
#102 = EDGE_CURVE ( 'NONE', #108, #7, #144, .T. ) ;
#103 = SECURITY_CLASSIFICATION_LEVEL ( 'unclassified' ) ;
#104 = VERTEX_POINT ( 'NONE', #4 ) ;
#105 = APPROVAL_PERSON_ORGANIZATION ( #130, #233, #100 ) ;
#106 = PRODUCT_RELATED_PRODUCT_CATEGORY ( 'detail', '', ( #213 ) ) ;
#107 = CARTESIAN_POINT ( 'NONE',  ( 76.00000000000000000, 0.0000000000000000000, -3.496366611565693100E-015 ) ) ;
#108 = VERTEX_POINT ( 'NONE', #181 ) ;
#109 = TOROIDAL_SURFACE ( 'NONE', #35, 76.00000000000000000, 30.14999999999999900 ) ;
#110 = CARTESIAN_POINT ( 'NONE',  ( 76.00000000000000000, 76.00000000000000000, 0.0000000000000000000 ) ) ;
#111 = CARTESIAN_POINT ( 'NONE',  ( 0.0000000000000000000, 0.0000000000000000000, 0.0000000000000000000 ) ) ;
#112 = DIRECTION ( 'NONE',  ( 0.0000000000000000000, 0.0000000000000000000, 1.000000000000000000 ) ) ;
#113 = EDGE_CURVE ( 'NONE', #204, #200, #94, .T. ) ;
#114 = CARTESIAN_POINT ( 'NONE',  ( 75.99999999999998600, 106.1499999999999900, 0.0000000000000000000 ) ) ;
#115 = ORIENTED_EDGE ( 'NONE', *, *, #128, .T. ) ;
#116 = CIRCLE ( 'NONE', #37, 28.55000000000000400 ) ;
#117 = COORDINATED_UNIVERSAL_TIME_OFFSET ( 1, 0, .AHEAD. ) ;
#118 = DATE_TIME_ROLE ( 'creation_date' ) ;
#119 = PERSON_AND_ORGANIZATION_ROLE ( 'classification_officer' ) ;
#120 = FACE_BOUND ( 'NONE', #21, .T. ) ;
#121 = DIRECTION ( 'NONE',  ( 0.0000000000000000000, 0.0000000000000000000, 1.000000000000000000 ) ) ;
#122 = CLOSED_SHELL ( 'NONE', ( #182, #162, #79, #250, #90, #20 ) ) ;
#123 = CALENDAR_DATE ( 2020, 16, 12 ) ;
#124 = AXIS2_PLACEMENT_3D ( 'NONE', #53, #121, #16 ) ;
#125 = EDGE_CURVE ( 'NONE', #80, #240, #116, .T. ) ;
#126 = DIRECTION ( 'NONE',  ( 0.0000000000000000000, 0.0000000000000000000, 1.000000000000000000 ) ) ;
#127 = CARTESIAN_POINT ( 'NONE',  ( 75.99999999999998600, 76.00000000000000000, 0.0000000000000000000 ) ) ;
#128 = EDGE_CURVE ( 'NONE', #240, #108, #49, .T. ) ;
#129 = MANIFOLD_SOLID_BREP ( 'cut-body', #122 ) ;
#130 = PERSON_AND_ORGANIZATION ( #173, #89 ) ;
#131 = CARTESIAN_POINT ( 'NONE',  ( -30.14999999999999500, 0.0000000000000000000, 0.0000000000000000000 ) ) ;
#132 = CARTESIAN_POINT ( 'NONE',  ( 0.0000000000000000000, 0.0000000000000000000, 0.0000000000000000000 ) ) ;
#133 = COORDINATED_UNIVERSAL_TIME_OFFSET ( 1, 0, .AHEAD. ) ;
#134 = DIRECTION ( 'NONE',  ( 1.000000000000000000, 6.123233995736766000E-017, -0.0000000000000000000 ) ) ;
#135 = ORIENTED_EDGE ( 'NONE', *, *, #125, .T. ) ;
#136 = CC_DESIGN_PERSON_AND_ORGANIZATION_ASSIGNMENT ( #19, #196, ( #213 ) ) ;
#137 = APPROVAL_ROLE ( '' ) ;
#138 = CIRCLE ( 'NONE', #88, 30.14999999999999900 ) ;
#139 = DIRECTION ( 'NONE',  ( 0.0000000000000000000, 0.0000000000000000000, 1.000000000000000000 ) ) ;
#140 = APPROVAL_STATUS ( 'not_yet_approved' ) ;
#141 = DIRECTION ( 'NONE',  ( 0.0000000000000000000, 1.000000000000000000, 0.0000000000000000000 ) ) ;
#142 = MECHANICAL_CONTEXT ( 'NONE', #155, 'mechanical' ) ;
#143 = ORIENTED_EDGE ( 'NONE', *, *, #192, .T. ) ;
#144 = CIRCLE ( 'NONE', #245, 28.55000000000000100 ) ;
#145 = CARTESIAN_POINT ( 'NONE',  ( 76.00000000000000000, 76.00000000000000000, 0.0000000000000000000 ) ) ;
#146 = PRODUCT_DEFINITION ( 'UNKNOWN', '', #217, #222 ) ;
#147 = PERSON_AND_ORGANIZATION ( #173, #89 ) ;
#148 = DIRECTION ( 'NONE',  ( 0.0000000000000000000, 0.0000000000000000000, 1.000000000000000000 ) ) ;
#149 = EDGE_CURVE ( 'NONE', #200, #156, #71, .T. ) ;
#150 = PLANE ( 'NONE',  #81 ) ;
#151 = DIRECTION ( 'NONE',  ( 1.000000000000000000, 0.0000000000000000000, 0.0000000000000000000 ) ) ;
#152 = EDGE_LOOP ( 'NONE', ( #231, #190, #193, #31 ) ) ;
#153 = COORDINATED_UNIVERSAL_TIME_OFFSET ( 1, 0, .AHEAD. ) ;
#154 = EDGE_LOOP ( 'NONE', ( #212, #226 ) ) ;
#155 = APPLICATION_CONTEXT ( 'configuration controlled 3d designs of mechanical parts and assemblies' ) ;
#156 = VERTEX_POINT ( 'NONE', #167 ) ;
#157 = FACE_OUTER_BOUND ( 'NONE', #154, .T. ) ;
#158 = DATE_AND_TIME ( #216, #101 ) ;
#159 = APPROVAL ( #34, 'UNSPECIFIED' ) ;
#160 = AXIS2_PLACEMENT_3D ( 'NONE', #17, #251, #253 ) ;
#161 = ORIENTED_EDGE ( 'NONE', *, *, #113, .T. ) ;
#162 = ADVANCED_FACE ( 'NONE', ( #54 ), #109, .T. ) ;
#163 = CARTESIAN_POINT ( 'NONE',  ( 76.00000000000000000, 0.0000000000000000000, 0.0000000000000000000 ) ) ;
#164 = CIRCLE ( 'NONE', #239, 104.5500000000000000 ) ;
#165 = PERSON_AND_ORGANIZATION ( #173, #89 ) ;
#166 = DIRECTION ( 'NONE',  ( 0.0000000000000000000, 1.000000000000000000, 0.0000000000000000000 ) ) ;
#167 = CARTESIAN_POINT ( 'NONE',  ( 30.15000000000000200, 0.0000000000000000000, -3.692310099429271200E-015 ) ) ;
#168 = EDGE_CURVE ( 'NONE', #240, #80, #252, .T. ) ;
#169 = PRODUCT_DEFINITION_SHAPE ( 'NONE', 'NONE',  #146 ) ;
#170 = EDGE_LOOP ( 'NONE', ( #70, #224, #15, #60 ) ) ;
#171 = DATE_AND_TIME ( #208, #43 ) ;
#172 = DIRECTION ( 'NONE',  ( 0.0000000000000000000, 0.0000000000000000000, 1.000000000000000000 ) ) ;
#173 = PERSON ( 'UNSPECIFIED', 'UNSPECIFIED', 'UNSPECIFIED', ('UNSPECIFIED'), ('UNSPECIFIED'), ('UNSPECIFIED') ) ;
#174 = CC_DESIGN_APPROVAL ( #159, ( #146 ) ) ;
#175 = APPLICATION_PROTOCOL_DEFINITION ( 'international standard', 'config_control_design', 1994, #69 ) ;
#176 =( NAMED_UNIT ( * ) SI_UNIT ( $, .STERADIAN. ) SOLID_ANGLE_UNIT ( ) );
#177 = EDGE_CURVE ( 'NONE', #104, #204, #25, .T. ) ;
#178 = CARTESIAN_POINT ( 'NONE',  ( 76.00000000000000000, 0.0000000000000000000, 0.0000000000000000000 ) ) ;
#179 = LOCAL_TIME ( 3, 27, 30.00000000000000000, #153 ) ;
#180 = PERSON_AND_ORGANIZATION ( #173, #89 ) ;
#181 = CARTESIAN_POINT ( 'NONE',  ( 28.55000000000000100, 0.0000000000000000000, -3.496366611565693100E-015 ) ) ;
#182 = ADVANCED_FACE ( 'NONE', ( #188 ), #191, .F. ) ;
#183 = EDGE_CURVE ( 'NONE', #204, #104, #138, .T. ) ;
#184 = CARTESIAN_POINT ( 'NONE',  ( 0.0000000000000000000, 0.0000000000000000000, 0.0000000000000000000 ) ) ;
#185 = TOROIDAL_SURFACE ( 'NONE', #92, 76.00000000000000000, 28.55000000000000100 ) ;
#186 = CARTESIAN_POINT ( 'NONE',  ( 76.00000000000000000, 0.0000000000000000000, 0.0000000000000000000 ) ) ;
#187 = CC_DESIGN_PERSON_AND_ORGANIZATION_ASSIGNMENT ( #180, #9, ( #146 ) ) ;
#188 = FACE_OUTER_BOUND ( 'NONE', #152, .T. ) ;
#189 = CARTESIAN_POINT ( 'NONE',  ( 76.00000000000000000, 104.5500000000000000, 0.0000000000000000000 ) ) ;
#190 = ORIENTED_EDGE ( 'NONE', *, *, #47, .T. ) ;
#191 = TOROIDAL_SURFACE ( 'NONE', #206, 76.00000000000000000, 28.55000000000000100 ) ;
#192 = EDGE_CURVE ( 'NONE', #7, #108, #228, .T. ) ;
#193 = ORIENTED_EDGE ( 'NONE', *, *, #102, .F. ) ;
#194 = ORIENTED_EDGE ( 'NONE', *, *, #102, .T. ) ;
#195 = DIRECTION ( 'NONE',  ( 0.0000000000000000000, 0.0000000000000000000, 1.000000000000000000 ) ) ;
#196 = PERSON_AND_ORGANIZATION_ROLE ( 'design_owner' ) ;
#197 = AXIS2_PLACEMENT_3D ( 'NONE', #24, #203, #234 ) ;
#198 = TOROIDAL_SURFACE ( 'NONE', #197, 76.00000000000000000, 30.14999999999999900 ) ;
#199 = APPLICATION_PROTOCOL_DEFINITION ( 'international standard', 'config_control_design', 1994, #155 ) ;
#200 = VERTEX_POINT ( 'NONE', #131 ) ;
#201 = LOCAL_TIME ( 3, 27, 30.00000000000000000, #117 ) ;
#202 = CC_DESIGN_DATE_AND_TIME_ASSIGNMENT ( #77, #118, ( #146 ) ) ;
#203 = DIRECTION ( 'NONE',  ( 0.0000000000000000000, 0.0000000000000000000, 1.000000000000000000 ) ) ;
#204 = VERTEX_POINT ( 'NONE', #114 ) ;
#205 = EDGE_LOOP ( 'NONE', ( #96, #135, #115, #59 ) ) ;
#206 = AXIS2_PLACEMENT_3D ( 'NONE', #186, #112, #44 ) ;
#207 = DIRECTION ( 'NONE',  ( 1.000000000000000000, 6.123233995736766000E-017, 0.0000000000000000000 ) ) ;
#208 = CALENDAR_DATE ( 2020, 16, 12 ) ;
#209 = DIRECTION ( 'NONE',  ( 0.0000000000000000000, -0.0000000000000000000, 1.000000000000000000 ) ) ;
#210 = AXIS2_PLACEMENT_3D ( 'NONE', #93, #56, #68 ) ;
#211 =( LENGTH_UNIT ( ) NAMED_UNIT ( * ) SI_UNIT ( .MILLI., .METRE. ) );
#212 = ORIENTED_EDGE ( 'NONE', *, *, #177, .T. ) ;
#213 = PRODUCT ( 'OT200-50-60_3x1_6_OSTP', 'OT200-50-60_3x1_6_OSTP', '', ( #142 ) ) ;
#214 = ORIENTED_EDGE ( 'NONE', *, *, #149, .T. ) ;
#215 = CIRCLE ( 'NONE', #210, 45.85000000000000100 ) ;
#216 = CALENDAR_DATE ( 2020, 16, 12 ) ;
#217 = PRODUCT_DEFINITION_FORMATION_WITH_SPECIFIED_SOURCE ( 'ANY', '', #213, .NOT_KNOWN. ) ;
#218 = ORIENTED_EDGE ( 'NONE', *, *, #168, .F. ) ;
#219 = PERSON_AND_ORGANIZATION_ROLE ( 'design_supplier' ) ;
#220 = ORIENTED_EDGE ( 'NONE', *, *, #149, .F. ) ;
#221 = CIRCLE ( 'NONE', #227, 30.14999999999999900 ) ;
#222 = DESIGN_CONTEXT ( 'detailed design', #69, 'design' ) ;
#223 = AXIS2_PLACEMENT_3D ( 'NONE', #184, #74, #91 ) ;
#224 = ORIENTED_EDGE ( 'NONE', *, *, #177, .F. ) ;
#225 = APPROVAL_DATE_TIME ( #63, #233 ) ;
#226 = ORIENTED_EDGE ( 'NONE', *, *, #183, .T. ) ;
#227 = AXIS2_PLACEMENT_3D ( 'NONE', #52, #46, #148 ) ;
#228 = CIRCLE ( 'NONE', #223, 28.55000000000000100 ) ;
#229 = CARTESIAN_POINT ( 'NONE',  ( 75.99999999999998600, 76.00000000000000000, 0.0000000000000000000 ) ) ;
#230 = DIRECTION ( 'NONE',  ( 1.000000000000000000, 6.123233995736766000E-017, 0.0000000000000000000 ) ) ;
#231 = ORIENTED_EDGE ( 'NONE', *, *, #168, .T. ) ;
#232 = COORDINATED_UNIVERSAL_TIME_OFFSET ( 1, 0, .AHEAD. ) ;
#233 = APPROVAL ( #241, 'UNSPECIFIED' ) ;
#234 = DIRECTION ( 'NONE',  ( 1.000000000000000000, 0.0000000000000000000, 0.0000000000000000000 ) ) ;
#235 = COORDINATED_UNIVERSAL_TIME_OFFSET ( 1, 0, .AHEAD. ) ;
#236 = EDGE_CURVE ( 'NONE', #104, #156, #215, .T. ) ;
#237 = DIRECTION ( 'NONE',  ( 0.0000000000000000000, 1.000000000000000000, 0.0000000000000000000 ) ) ;
#238 = APPROVAL_DATE_TIME ( #171, #159 ) ;
#239 = AXIS2_PLACEMENT_3D ( 'NONE', #98, #139, #151 ) ;
#240 = VERTEX_POINT ( 'NONE', #61 ) ;
#241 = APPROVAL_STATUS ( 'not_yet_approved' ) ;
#242 = AXIS2_PLACEMENT_3D ( 'NONE', #111, #62, #29 ) ;
#243 = APPROVAL_PERSON_ORGANIZATION ( #86, #159, #137 ) ;
#244 = FACE_OUTER_BOUND ( 'NONE', #205, .T. ) ;
#245 = AXIS2_PLACEMENT_3D ( 'NONE', #132, #27, #3 ) ;
#246 = UNCERTAINTY_MEASURE_WITH_UNIT (LENGTH_MEASURE( 1.000000000000000100E-005 ), #211, 'distance_accuracy_value', 'NONE');
#247 = FACE_OUTER_BOUND ( 'NONE', #170, .T. ) ;
#248 = CC_DESIGN_APPROVAL ( #233, ( #217 ) ) ;
#249 = EDGE_CURVE ( 'NONE', #156, #200, #221, .T. ) ;
#250 = ADVANCED_FACE ( 'NONE', ( #120, #157 ), #150, .T. ) ;
#251 = DIRECTION ( 'NONE',  ( 0.0000000000000000000, 0.0000000000000000000, 1.000000000000000000 ) ) ;
#252 = CIRCLE ( 'NONE', #1, 28.55000000000000400 ) ;
#253 = DIRECTION ( 'NONE',  ( 1.000000000000000000, 0.0000000000000000000, 0.0000000000000000000 ) ) ;
ENDSEC;
END-ISO-10303-21;
