ISO-10303-21;
HEADER;
FILE_DESCRIPTION (( 'STEP AP203' ),
    '1' );
FILE_NAME ('3D_R243_323.9_17386620.STEP',
    '2024-08-06T10:09:02',
    ( '' ),
    ( '' ),
    'SwSTEP 2.0',
    'SolidWorks 2024',
    '' );
FILE_SCHEMA (( 'CONFIG_CONTROL_DESIGN' ));
ENDSEC;

DATA;
#1 = EDGE_CURVE ( 'NONE', #240, #12, #58, .T. ) ;
#2 = APPLICATION_PROTOCOL_DEFINITION ( 'international standard', 'config_control_design', 1994, #45 ) ;
#3 = DIRECTION ( 'NONE',  ( 0.000000000000000000, 0.000000000000000000, 1.000000000000000000 ) ) ;
#4 = COORDINATED_UNIVERSAL_TIME_OFFSET ( 1, 0, .AHEAD. ) ;
#5 = PRODUCT ( '3D_R243_323.9_17386620', '3D_R243_323.9_17386620', '', ( #109 ) ) ;
#6 = ORIENTED_EDGE ( 'NONE', *, *, #229, .F. ) ;
#7 = PERSON_AND_ORGANIZATION_ROLE ( 'design_supplier' ) ;
#8 = CIRCLE ( 'NONE', #243, 162.5000000000000000 ) ;
#9 = APPROVAL_PERSON_ORGANIZATION ( #249, #42, #71 ) ;
#10 = EDGE_CURVE ( 'NONE', #12, #240, #89, .T. ) ;
#11 = CARTESIAN_POINT ( 'NONE',  ( 0.000000000000000000, 4.000000000000000000, -162.5000000000000000 ) ) ;
#12 = VERTEX_POINT ( 'NONE', #151 ) ;
#13 = COORDINATED_UNIVERSAL_TIME_OFFSET ( 1, 0, .AHEAD. ) ;
#14 = CYLINDRICAL_SURFACE ( 'NONE', #103, 162.5000000000000000 ) ;
#15 = VERTEX_POINT ( 'NONE', #145 ) ;
#16 = CARTESIAN_POINT ( 'NONE',  ( 1.990051048614449313E-14, 0.000000000000000000, 162.5000000000000000 ) ) ;
#17 = DIRECTION ( 'NONE',  ( -0.000000000000000000, -1.000000000000000000, -0.000000000000000000 ) ) ;
#18 = ORIENTED_EDGE ( 'NONE', *, *, #10, .F. ) ;
#19 = CARTESIAN_POINT ( 'NONE',  ( 0.000000000000000000, 0.000000000000000000, 0.000000000000000000 ) ) ;
#20 = APPROVAL ( #141, 'UNSPECIFIED' ) ;
#21 = AXIS2_PLACEMENT_3D ( 'NONE', #231, #211, #158 ) ;
#22 = PRODUCT_DEFINITION_SHAPE ( 'NONE', 'NONE',  #213 ) ;
#23 = AXIS2_PLACEMENT_3D ( 'NONE', #19, #166, #97 ) ;
#24 = DATE_TIME_ROLE ( 'classification_date' ) ;
#25 =( NAMED_UNIT ( * ) SI_UNIT ( $, .STERADIAN. ) SOLID_ANGLE_UNIT ( ) );
#26 = CIRCLE ( 'NONE', #21, 162.5000000000000000 ) ;
#27 = CC_DESIGN_APPROVAL ( #162, ( #75 ) ) ;
#28 = PERSON_AND_ORGANIZATION ( #105, #248 ) ;
#29 = CARTESIAN_POINT ( 'NONE',  ( 2.357445088358655073E-14, 0.000000000000000000, 192.5000000000000000 ) ) ;
#30 = ORIENTED_EDGE ( 'NONE', *, *, #31, .F. ) ;
#31 = EDGE_CURVE ( 'NONE', #15, #154, #164, .T. ) ;
#32 = COORDINATED_UNIVERSAL_TIME_OFFSET ( 1, 0, .AHEAD. ) ;
#33 = AXIS2_PLACEMENT_3D ( 'NONE', #209, #88, #3 ) ;
#34 = LOCAL_TIME ( 12, 9, 2.000000000000000000, #13 ) ;
#35 = CARTESIAN_POINT ( 'NONE',  ( 0.000000000000000000, 4.000000000000000000, -162.5000000000000000 ) ) ;
#36 = DIRECTION ( 'NONE',  ( 0.000000000000000000, 0.000000000000000000, -1.000000000000000000 ) ) ;
#37 = ORIENTED_EDGE ( 'NONE', *, *, #49, .T. ) ;
#38 = DIRECTION ( 'NONE',  ( 0.000000000000000000, 0.000000000000000000, 1.000000000000000000 ) ) ;
#39 = DIRECTION ( 'NONE',  ( 0.000000000000000000, 1.000000000000000000, 0.000000000000000000 ) ) ;
#40 = ORIENTED_EDGE ( 'NONE', *, *, #46, .F. ) ;
#41 = DIRECTION ( 'NONE',  ( 0.000000000000000000, 1.000000000000000000, 0.000000000000000000 ) ) ;
#42 = APPROVAL ( #215, 'UNSPECIFIED' ) ;
#43 = VERTEX_POINT ( 'NONE', #76 ) ;
#44 = CC_DESIGN_PERSON_AND_ORGANIZATION_ASSIGNMENT ( #28, #232, ( #75 ) ) ;
#45 = APPLICATION_CONTEXT ( 'configuration controlled 3d designs of mechanical parts and assemblies' ) ;
#46 = EDGE_CURVE ( 'NONE', #188, #43, #191, .T. ) ;
#47 = CIRCLE ( 'NONE', #230, 192.5000000000000000 ) ;
#48 = APPROVAL_PERSON_ORGANIZATION ( #227, #162, #224 ) ;
#49 = EDGE_CURVE ( 'NONE', #188, #63, #51, .T. ) ;
#50 = CALENDAR_DATE ( 2024, 6, 8 ) ;
#51 = LINE ( 'NONE', #11, #123 ) ;
#52 = CARTESIAN_POINT ( 'NONE',  ( 0.000000000000000000, 0.000000000000000000, 0.000000000000000000 ) ) ;
#53 = EDGE_LOOP ( 'NONE', ( #202, #220 ) ) ;
#54 = APPROVAL_DATE_TIME ( #190, #162 ) ;
#55 = CARTESIAN_POINT ( 'NONE',  ( 0.000000000000000000, 0.000000000000000000, -162.5000000000000000 ) ) ;
#56 = ORIENTED_EDGE ( 'NONE', *, *, #247, .T. ) ;
#57 = PLANE ( 'NONE',  #246 ) ;
#58 = CIRCLE ( 'NONE', #82, 192.5000000000000000 ) ;
#59 = CARTESIAN_POINT ( 'NONE',  ( 0.000000000000000000, 4.000000000000000000, 0.000000000000000000 ) ) ;
#60 = SHAPE_DEFINITION_REPRESENTATION ( #22, #155 ) ;
#61 = CARTESIAN_POINT ( 'NONE',  ( 0.000000000000000000, 4.000000000000000000, 0.000000000000000000 ) ) ;
#62 = ADVANCED_FACE ( 'NONE', ( #183, #74 ), #93, .F. ) ;
#63 = VERTEX_POINT ( 'NONE', #55 ) ;
#64 = CLOSED_SHELL ( 'NONE', ( #208, #100, #192, #62, #98, #228 ) ) ;
#65 = DIRECTION ( 'NONE',  ( 1.000000000000000000, 0.000000000000000000, 0.000000000000000000 ) ) ;
#66 = ORIENTED_EDGE ( 'NONE', *, *, #233, .F. ) ;
#67 = PERSON_AND_ORGANIZATION_ROLE ( 'creator' ) ;
#68 = EDGE_CURVE ( 'NONE', #154, #15, #47, .T. ) ;
#69 = LOCAL_TIME ( 12, 9, 2.000000000000000000, #4 ) ;
#70 = DATE_TIME_ROLE ( 'creation_date' ) ;
#71 = APPROVAL_ROLE ( '' ) ;
#72 = FACE_OUTER_BOUND ( 'NONE', #184, .T. ) ;
#73 = COORDINATED_UNIVERSAL_TIME_OFFSET ( 1, 0, .AHEAD. ) ;
#74 = FACE_BOUND ( 'NONE', #148, .T. ) ;
#75 = SECURITY_CLASSIFICATION ( '', '', #122 ) ;
#76 = CARTESIAN_POINT ( 'NONE',  ( 1.990051048614449313E-14, 4.000000000000000000, 162.5000000000000000 ) ) ;
#77 = EDGE_LOOP ( 'NONE', ( #172, #95, #121, #108 ) ) ;
#78 = CARTESIAN_POINT ( 'NONE',  ( 0.000000000000000000, 4.000000000000000000, 0.000000000000000000 ) ) ;
#79 = DIRECTION ( 'NONE',  ( 0.000000000000000000, -0.000000000000000000, 1.000000000000000000 ) ) ;
#80 = LOCAL_TIME ( 12, 9, 2.000000000000000000, #73 ) ;
#81 = DIRECTION ( 'NONE',  ( 0.000000000000000000, 0.000000000000000000, -1.000000000000000000 ) ) ;
#82 = AXIS2_PLACEMENT_3D ( 'NONE', #52, #133, #38 ) ;
#83 = CARTESIAN_POINT ( 'NONE',  ( 0.000000000000000000, 4.000000000000000000, 0.000000000000000000 ) ) ;
#84 = EDGE_CURVE ( 'NONE', #43, #127, #187, .T. ) ;
#85 = VECTOR ( 'NONE', #114, 1000.000000000000000 ) ;
#86 = PERSON_AND_ORGANIZATION_ROLE ( 'creator' ) ;
#87 = APPROVAL_ROLE ( '' ) ;
#88 = DIRECTION ( 'NONE',  ( 0.000000000000000000, 1.000000000000000000, 0.000000000000000000 ) ) ;
#89 = CIRCLE ( 'NONE', #23, 192.5000000000000000 ) ;
#90 = COORDINATED_UNIVERSAL_TIME_OFFSET ( 1, 0, .AHEAD. ) ;
#91 = ORIENTED_EDGE ( 'NONE', *, *, #247, .F. ) ;
#92 = PERSON_AND_ORGANIZATION ( #105, #248 ) ;
#93 = PLANE ( 'NONE',  #135 ) ;
#94 = ORIENTED_EDGE ( 'NONE', *, *, #1, .F. ) ;
#95 = ORIENTED_EDGE ( 'NONE', *, *, #204, .T. ) ;
#96 = ORIENTED_EDGE ( 'NONE', *, *, #229, .T. ) ;
#97 = DIRECTION ( 'NONE',  ( 0.000000000000000000, 0.000000000000000000, 1.000000000000000000 ) ) ;
#98 = ADVANCED_FACE ( 'NONE', ( #72 ), #142, .T. ) ;
#99 = CARTESIAN_POINT ( 'NONE',  ( 2.357445088358655073E-14, 4.000000000000000000, 192.5000000000000000 ) ) ;
#100 = ADVANCED_FACE ( 'NONE', ( #241 ), #216, .T. ) ;
#101 = CARTESIAN_POINT ( 'NONE',  ( 0.000000000000000000, 4.000000000000000000, 0.000000000000000000 ) ) ;
#102 = EDGE_CURVE ( 'NONE', #15, #12, #126, .T. ) ;
#103 = AXIS2_PLACEMENT_3D ( 'NONE', #101, #193, #81 ) ;
#104 =( NAMED_UNIT ( * ) PLANE_ANGLE_UNIT ( ) SI_UNIT ( $, .RADIAN. ) );
#105 = PERSON ( 'UNSPECIFIED', 'UNSPECIFIED', 'UNSPECIFIED', ('UNSPECIFIED'), ('UNSPECIFIED'), ('UNSPECIFIED') ) ;
#106 = UNCERTAINTY_MEASURE_WITH_UNIT (LENGTH_MEASURE( 1.000000000000000082E-05 ), #159, 'distance_accuracy_value', 'NONE');
#107 = CC_DESIGN_PERSON_AND_ORGANIZATION_ASSIGNMENT ( #143, #86, ( #119 ) ) ;
#108 = ORIENTED_EDGE ( 'NONE', *, *, #102, .F. ) ;
#109 = MECHANICAL_CONTEXT ( 'NONE', #45, 'mechanical' ) ;
#110 = AXIS2_PLACEMENT_3D ( 'NONE', #61, #206, #134 ) ;
#111 = CC_DESIGN_PERSON_AND_ORGANIZATION_ASSIGNMENT ( #124, #67, ( #213 ) ) ;
#112 = DIRECTION ( 'NONE',  ( -0.000000000000000000, -1.000000000000000000, -0.000000000000000000 ) ) ;
#113 = ORIENTED_EDGE ( 'NONE', *, *, #84, .F. ) ;
#114 = DIRECTION ( 'NONE',  ( -0.000000000000000000, -1.000000000000000000, -0.000000000000000000 ) ) ;
#115 = CARTESIAN_POINT ( 'NONE',  ( 0.000000000000000000, 4.000000000000000000, 0.000000000000000000 ) ) ;
#116 = DIRECTION ( 'NONE',  ( 0.000000000000000000, 0.000000000000000000, 1.000000000000000000 ) ) ;
#117 = CARTESIAN_POINT ( 'NONE',  ( 1.990051048614449313E-14, 4.000000000000000000, 162.5000000000000000 ) ) ;
#118 = CALENDAR_DATE ( 2024, 6, 8 ) ;
#119 = PRODUCT_DEFINITION_FORMATION_WITH_SPECIFIED_SOURCE ( 'ANY', '', #5, .NOT_KNOWN. ) ;
#120 = CYLINDRICAL_SURFACE ( 'NONE', #110, 162.5000000000000000 ) ;
#121 = ORIENTED_EDGE ( 'NONE', *, *, #1, .T. ) ;
#122 = SECURITY_CLASSIFICATION_LEVEL ( 'unclassified' ) ;
#123 = VECTOR ( 'NONE', #174, 1000.000000000000000 ) ;
#124 = PERSON_AND_ORGANIZATION ( #105, #248 ) ;
#125 = DIRECTION ( 'NONE',  ( 0.000000000000000000, 0.000000000000000000, 1.000000000000000000 ) ) ;
#126 = LINE ( 'NONE', #186, #85 ) ;
#127 = VERTEX_POINT ( 'NONE', #16 ) ;
#128 = LINE ( 'NONE', #197, #207 ) ;
#129 = CC_DESIGN_DATE_AND_TIME_ASSIGNMENT ( #139, #70, ( #213 ) ) ;
#130 = DIRECTION ( 'NONE',  ( 0.000000000000000000, 0.000000000000000000, 1.000000000000000000 ) ) ;
#131 = EDGE_LOOP ( 'NONE', ( #40, #6 ) ) ;
#132 = CARTESIAN_POINT ( 'NONE',  ( 0.000000000000000000, 4.000000000000000000, 0.000000000000000000 ) ) ;
#133 = DIRECTION ( 'NONE',  ( 0.000000000000000000, 1.000000000000000000, 0.000000000000000000 ) ) ;
#134 = DIRECTION ( 'NONE',  ( 0.000000000000000000, 0.000000000000000000, -1.000000000000000000 ) ) ;
#135 = AXIS2_PLACEMENT_3D ( 'NONE', #147, #41, #222 ) ;
#136 = DIRECTION ( 'NONE',  ( 0.000000000000000000, 0.000000000000000000, 1.000000000000000000 ) ) ;
#137 = ORIENTED_EDGE ( 'NONE', *, *, #233, .T. ) ;
#138 = CIRCLE ( 'NONE', #33, 162.5000000000000000 ) ;
#139 = DATE_AND_TIME ( #50, #153 ) ;
#140 = MANIFOLD_SOLID_BREP ( 'Aufsatz-Linear austragen1', #64 ) ;
#141 = APPROVAL_STATUS ( 'not_yet_approved' ) ;
#142 = CYLINDRICAL_SURFACE ( 'NONE', #176, 192.5000000000000000 ) ;
#143 = PERSON_AND_ORGANIZATION ( #105, #248 ) ;
#144 = AXIS2_PLACEMENT_3D ( 'NONE', #59, #205, #130 ) ;
#145 = CARTESIAN_POINT ( 'NONE',  ( 0.000000000000000000, 4.000000000000000000, -192.5000000000000000 ) ) ;
#146 = APPROVAL_PERSON_ORGANIZATION ( #196, #20, #87 ) ;
#147 = CARTESIAN_POINT ( 'NONE',  ( 0.000000000000000000, 0.000000000000000000, 0.000000000000000000 ) ) ;
#148 = EDGE_LOOP ( 'NONE', ( #56, #137 ) ) ;
#149 = APPROVAL_STATUS ( 'not_yet_approved' ) ;
#150 = FACE_OUTER_BOUND ( 'NONE', #53, .T. ) ;
#151 = CARTESIAN_POINT ( 'NONE',  ( 0.000000000000000000, 0.000000000000000000, -192.5000000000000000 ) ) ;
#152 = AXIS2_PLACEMENT_3D ( 'NONE', #115, #17, #36 ) ;
#153 = LOCAL_TIME ( 12, 9, 2.000000000000000000, #32 ) ;
#154 = VERTEX_POINT ( 'NONE', #99 ) ;
#155 = ADVANCED_BREP_SHAPE_REPRESENTATION ( '3D_R243_323.9_17386620', ( #140, #177 ), #178 ) ;
#156 = ORIENTED_EDGE ( 'NONE', *, *, #204, .F. ) ;
#157 = DIRECTION ( 'NONE',  ( 0.000000000000000000, 1.000000000000000000, 0.000000000000000000 ) ) ;
#158 = DIRECTION ( 'NONE',  ( 0.000000000000000000, 0.000000000000000000, 1.000000000000000000 ) ) ;
#159 =( LENGTH_UNIT ( ) NAMED_UNIT ( * ) SI_UNIT ( .MILLI., .METRE. ) );
#160 = CC_DESIGN_APPROVAL ( #42, ( #213 ) ) ;
#161 = CALENDAR_DATE ( 2024, 6, 8 ) ;
#162 = APPROVAL ( #149, 'UNSPECIFIED' ) ;
#163 = DESIGN_CONTEXT ( 'detailed design', #218, 'design' ) ;
#164 = CIRCLE ( 'NONE', #210, 192.5000000000000000 ) ;
#165 = CARTESIAN_POINT ( 'NONE',  ( 0.000000000000000000, 0.000000000000000000, 0.000000000000000000 ) ) ;
#166 = DIRECTION ( 'NONE',  ( 0.000000000000000000, 1.000000000000000000, 0.000000000000000000 ) ) ;
#167 = DATE_AND_TIME ( #236, #69 ) ;
#168 = DIRECTION ( 'NONE',  ( 0.000000000000000000, 0.000000000000000000, -1.000000000000000000 ) ) ;
#169 = EDGE_LOOP ( 'NONE', ( #113, #96, #37, #66 ) ) ;
#170 = LOCAL_TIME ( 12, 9, 2.000000000000000000, #90 ) ;
#171 = CARTESIAN_POINT ( 'NONE',  ( 0.000000000000000000, 4.000000000000000000, 0.000000000000000000 ) ) ;
#172 = ORIENTED_EDGE ( 'NONE', *, *, #68, .F. ) ;
#173 = ORIENTED_EDGE ( 'NONE', *, *, #102, .T. ) ;
#174 = DIRECTION ( 'NONE',  ( -0.000000000000000000, -1.000000000000000000, -0.000000000000000000 ) ) ;
#175 = CC_DESIGN_PERSON_AND_ORGANIZATION_ASSIGNMENT ( #92, #217, ( #5 ) ) ;
#176 = AXIS2_PLACEMENT_3D ( 'NONE', #225, #219, #168 ) ;
#177 = AXIS2_PLACEMENT_3D ( 'NONE', #165, #125, #65 ) ;
#178 =( GEOMETRIC_REPRESENTATION_CONTEXT ( 3 ) GLOBAL_UNCERTAINTY_ASSIGNED_CONTEXT ( ( #106 ) ) GLOBAL_UNIT_ASSIGNED_CONTEXT ( ( #159, #104, #25 ) ) REPRESENTATION_CONTEXT ( 'NONE', 'WORKASPACE' ) );
#179 = APPLICATION_PROTOCOL_DEFINITION ( 'international standard', 'config_control_design', 1994, #218 ) ;
#180 = DATE_AND_TIME ( #214, #80 ) ;
#181 = EDGE_LOOP ( 'NONE', ( #18, #94 ) ) ;
#182 = APPROVAL_DATE_TIME ( #180, #20 ) ;
#183 = FACE_OUTER_BOUND ( 'NONE', #181, .T. ) ;
#184 = EDGE_LOOP ( 'NONE', ( #156, #30, #173, #198 ) ) ;
#185 = FACE_OUTER_BOUND ( 'NONE', #199, .T. ) ;
#186 = CARTESIAN_POINT ( 'NONE',  ( 0.000000000000000000, 4.000000000000000000, -192.5000000000000000 ) ) ;
#187 = LINE ( 'NONE', #117, #194 ) ;
#188 = VERTEX_POINT ( 'NONE', #35 ) ;
#189 = DIRECTION ( 'NONE',  ( 0.000000000000000000, 1.000000000000000000, 0.000000000000000000 ) ) ;
#190 = DATE_AND_TIME ( #118, #34 ) ;
#191 = CIRCLE ( 'NONE', #144, 162.5000000000000000 ) ;
#192 = ADVANCED_FACE ( 'NONE', ( #150, #239 ), #57, .T. ) ;
#193 = DIRECTION ( 'NONE',  ( -0.000000000000000000, -1.000000000000000000, -0.000000000000000000 ) ) ;
#194 = VECTOR ( 'NONE', #237, 1000.000000000000000 ) ;
#195 = ORIENTED_EDGE ( 'NONE', *, *, #46, .T. ) ;
#196 = PERSON_AND_ORGANIZATION ( #105, #248 ) ;
#197 = CARTESIAN_POINT ( 'NONE',  ( 2.357445088358655073E-14, 4.000000000000000000, 192.5000000000000000 ) ) ;
#198 = ORIENTED_EDGE ( 'NONE', *, *, #10, .T. ) ;
#199 = EDGE_LOOP ( 'NONE', ( #195, #200, #91, #223 ) ) ;
#200 = ORIENTED_EDGE ( 'NONE', *, *, #84, .T. ) ;
#201 = CC_DESIGN_DATE_AND_TIME_ASSIGNMENT ( #235, #24, ( #75 ) ) ;
#202 = ORIENTED_EDGE ( 'NONE', *, *, #31, .T. ) ;
#203 = CC_DESIGN_APPROVAL ( #20, ( #119 ) ) ;
#204 = EDGE_CURVE ( 'NONE', #154, #240, #128, .T. ) ;
#205 = DIRECTION ( 'NONE',  ( 0.000000000000000000, 1.000000000000000000, 0.000000000000000000 ) ) ;
#206 = DIRECTION ( 'NONE',  ( -0.000000000000000000, -1.000000000000000000, -0.000000000000000000 ) ) ;
#207 = VECTOR ( 'NONE', #112, 1000.000000000000000 ) ;
#208 = ADVANCED_FACE ( 'NONE', ( #185 ), #14, .F. ) ;
#209 = CARTESIAN_POINT ( 'NONE',  ( 0.000000000000000000, 0.000000000000000000, 0.000000000000000000 ) ) ;
#210 = AXIS2_PLACEMENT_3D ( 'NONE', #171, #189, #226 ) ;
#211 = DIRECTION ( 'NONE',  ( 0.000000000000000000, 1.000000000000000000, 0.000000000000000000 ) ) ;
#212 = PERSON_AND_ORGANIZATION ( #105, #248 ) ;
#213 = PRODUCT_DEFINITION ( 'UNKNOWN', '', #119, #163 ) ;
#214 = CALENDAR_DATE ( 2024, 6, 8 ) ;
#215 = APPROVAL_STATUS ( 'not_yet_approved' ) ;
#216 = CYLINDRICAL_SURFACE ( 'NONE', #152, 192.5000000000000000 ) ;
#217 = PERSON_AND_ORGANIZATION_ROLE ( 'design_owner' ) ;
#218 = APPLICATION_CONTEXT ( 'configuration controlled 3d designs of mechanical parts and assemblies' ) ;
#219 = DIRECTION ( 'NONE',  ( -0.000000000000000000, -1.000000000000000000, -0.000000000000000000 ) ) ;
#220 = ORIENTED_EDGE ( 'NONE', *, *, #68, .T. ) ;
#221 = PRODUCT_RELATED_PRODUCT_CATEGORY ( 'detail', '', ( #5 ) ) ;
#222 = DIRECTION ( 'NONE',  ( 0.000000000000000000, -0.000000000000000000, 1.000000000000000000 ) ) ;
#223 = ORIENTED_EDGE ( 'NONE', *, *, #49, .F. ) ;
#224 = APPROVAL_ROLE ( '' ) ;
#225 = CARTESIAN_POINT ( 'NONE',  ( 0.000000000000000000, 4.000000000000000000, 0.000000000000000000 ) ) ;
#226 = DIRECTION ( 'NONE',  ( 0.000000000000000000, 0.000000000000000000, 1.000000000000000000 ) ) ;
#227 = PERSON_AND_ORGANIZATION ( #105, #248 ) ;
#228 = ADVANCED_FACE ( 'NONE', ( #245 ), #120, .F. ) ;
#229 = EDGE_CURVE ( 'NONE', #43, #188, #8, .T. ) ;
#230 = AXIS2_PLACEMENT_3D ( 'NONE', #78, #39, #116 ) ;
#231 = CARTESIAN_POINT ( 'NONE',  ( 0.000000000000000000, 0.000000000000000000, 0.000000000000000000 ) ) ;
#232 = PERSON_AND_ORGANIZATION_ROLE ( 'classification_officer' ) ;
#233 = EDGE_CURVE ( 'NONE', #127, #63, #138, .T. ) ;
#234 = CC_DESIGN_PERSON_AND_ORGANIZATION_ASSIGNMENT ( #212, #7, ( #119 ) ) ;
#235 = DATE_AND_TIME ( #161, #170 ) ;
#236 = CALENDAR_DATE ( 2024, 6, 8 ) ;
#237 = DIRECTION ( 'NONE',  ( -0.000000000000000000, -1.000000000000000000, -0.000000000000000000 ) ) ;
#238 = APPROVAL_DATE_TIME ( #167, #42 ) ;
#239 = FACE_BOUND ( 'NONE', #131, .T. ) ;
#240 = VERTEX_POINT ( 'NONE', #29 ) ;
#241 = FACE_OUTER_BOUND ( 'NONE', #77, .T. ) ;
#242 = DIRECTION ( 'NONE',  ( 0.000000000000000000, 1.000000000000000000, 0.000000000000000000 ) ) ;
#243 = AXIS2_PLACEMENT_3D ( 'NONE', #83, #157, #136 ) ;
#244 = CC_DESIGN_SECURITY_CLASSIFICATION ( #75, ( #119 ) ) ;
#245 = FACE_OUTER_BOUND ( 'NONE', #169, .T. ) ;
#246 = AXIS2_PLACEMENT_3D ( 'NONE', #132, #242, #79 ) ;
#247 = EDGE_CURVE ( 'NONE', #63, #127, #26, .T. ) ;
#248 = ORGANIZATION ( 'UNSPECIFIED', 'UNSPECIFIED', '' ) ;
#249 = PERSON_AND_ORGANIZATION ( #105, #248 ) ;
ENDSEC;
END-ISO-10303-21;
