ISO-10303-21;
HEADER;
FILE_DESCRIPTION (( 'STEP AP203' ),
    '1' );
FILE_NAME ('3D_R245_54_17386300.STEP',
    '2024-08-06T09:38:53',
    ( '' ),
    ( '' ),
    'SwSTEP 2.0',
    'SolidWorks 2024',
    '' );
FILE_SCHEMA (( 'CONFIG_CONTROL_DESIGN' ));
ENDSEC;

DATA;
#1 = DATE_AND_TIME ( #156, #91 ) ;
#2 = CC_DESIGN_PERSON_AND_ORGANIZATION_ASSIGNMENT ( #134, #245, ( #54 ) ) ;
#3 = ORIENTED_EDGE ( 'NONE', *, *, #111, .T. ) ;
#4 = DIRECTION ( 'NONE',  ( 0.000000000000000000, 0.000000000000000000, -1.000000000000000000 ) ) ;
#5 = AXIS2_PLACEMENT_3D ( 'NONE', #170, #90, #72 ) ;
#6 = DIRECTION ( 'NONE',  ( 0.000000000000000000, 1.000000000000000000, 0.000000000000000000 ) ) ;
#7 = PLANE ( 'NONE',  #190 ) ;
#8 = CC_DESIGN_APPROVAL ( #65, ( #237 ) ) ;
#9 = CARTESIAN_POINT ( 'NONE',  ( 0.000000000000000000, 4.000000000000000000, 0.000000000000000000 ) ) ;
#10 = FACE_OUTER_BOUND ( 'NONE', #37, .T. ) ;
#11 = DIRECTION ( 'NONE',  ( 0.000000000000000000, 1.000000000000000000, 0.000000000000000000 ) ) ;
#12 = DIRECTION ( 'NONE',  ( 0.000000000000000000, 1.000000000000000000, 0.000000000000000000 ) ) ;
#13 = APPROVAL_PERSON_ORGANIZATION ( #207, #145, #153 ) ;
#14 = PERSON_AND_ORGANIZATION_ROLE ( 'design_owner' ) ;
#15 = AXIS2_PLACEMENT_3D ( 'NONE', #161, #22, #213 ) ;
#16 = SECURITY_CLASSIFICATION_LEVEL ( 'unclassified' ) ;
#17 = ORIENTED_EDGE ( 'NONE', *, *, #223, .T. ) ;
#18 = APPROVAL_STATUS ( 'not_yet_approved' ) ;
#19 = PERSON_AND_ORGANIZATION_ROLE ( 'classification_officer' ) ;
#20 = EDGE_CURVE ( 'NONE', #189, #191, #244, .T. ) ;
#21 = EDGE_LOOP ( 'NONE', ( #118, #3, #45, #64 ) ) ;
#22 = DIRECTION ( 'NONE',  ( -0.000000000000000000, -1.000000000000000000, -0.000000000000000000 ) ) ;
#23 = CC_DESIGN_SECURITY_CLASSIFICATION ( #237, ( #54 ) ) ;
#24 = DIRECTION ( 'NONE',  ( -0.000000000000000000, -1.000000000000000000, -0.000000000000000000 ) ) ;
#25 = VECTOR ( 'NONE', #169, 1000.000000000000000 ) ;
#26 = ADVANCED_FACE ( 'NONE', ( #215, #107 ), #7, .F. ) ;
#27 = CARTESIAN_POINT ( 'NONE',  ( 0.000000000000000000, 4.000000000000000000, 0.000000000000000000 ) ) ;
#28 = PRODUCT ( '3D_R245_54_17386300', '3D_R245_54_17386300', '', ( #210 ) ) ;
#29 = DIRECTION ( 'NONE',  ( -0.000000000000000000, -1.000000000000000000, -0.000000000000000000 ) ) ;
#30 = DIRECTION ( 'NONE',  ( 0.000000000000000000, 0.000000000000000000, 1.000000000000000000 ) ) ;
#31 = CIRCLE ( 'NONE', #171, 27.49999999999999645 ) ;
#32 =( NAMED_UNIT ( * ) SI_UNIT ( $, .STERADIAN. ) SOLID_ANGLE_UNIT ( ) );
#33 = DESIGN_CONTEXT ( 'detailed design', #125, 'design' ) ;
#34 = LOCAL_TIME ( 11, 38, 53.00000000000000000, #58 ) ;
#35 = DATE_AND_TIME ( #243, #43 ) ;
#36 = APPROVAL_ROLE ( '' ) ;
#37 = EDGE_LOOP ( 'NONE', ( #211, #80 ) ) ;
#38 = AXIS2_PLACEMENT_3D ( 'NONE', #9, #88, #47 ) ;
#39 = CIRCLE ( 'NONE', #48, 27.49999999999999645 ) ;
#40 = COORDINATED_UNIVERSAL_TIME_OFFSET ( 1, 0, .AHEAD. ) ;
#41 = EDGE_LOOP ( 'NONE', ( #160, #121, #62, #196 ) ) ;
#42 = ORIENTED_EDGE ( 'NONE', *, *, #46, .T. ) ;
#43 = LOCAL_TIME ( 11, 38, 53.00000000000000000, #209 ) ;
#44 = ORIENTED_EDGE ( 'NONE', *, *, #46, .F. ) ;
#45 = ORIENTED_EDGE ( 'NONE', *, *, #165, .T. ) ;
#46 = EDGE_CURVE ( 'NONE', #99, #157, #31, .T. ) ;
#47 = DIRECTION ( 'NONE',  ( 0.000000000000000000, 0.000000000000000000, -1.000000000000000000 ) ) ;
#48 = AXIS2_PLACEMENT_3D ( 'NONE', #92, #12, #30 ) ;
#49 = EDGE_LOOP ( 'NONE', ( #230, #17, #164, #44 ) ) ;
#50 = CC_DESIGN_PERSON_AND_ORGANIZATION_ASSIGNMENT ( #226, #249, ( #123 ) ) ;
#51 = CARTESIAN_POINT ( 'NONE',  ( 0.000000000000000000, 4.000000000000000000, -77.50000000000001421 ) ) ;
#52 = AXIS2_PLACEMENT_3D ( 'NONE', #27, #146, #63 ) ;
#53 = CARTESIAN_POINT ( 'NONE',  ( 0.000000000000000000, 4.000000000000000000, 0.000000000000000000 ) ) ;
#54 = PRODUCT_DEFINITION_FORMATION_WITH_SPECIFIED_SOURCE ( 'ANY', '', #28, .NOT_KNOWN. ) ;
#55 = DATE_AND_TIME ( #224, #67 ) ;
#56 = APPROVAL_DATE_TIME ( #1, #65 ) ;
#57 = ORIENTED_EDGE ( 'NONE', *, *, #131, .F. ) ;
#58 = COORDINATED_UNIVERSAL_TIME_OFFSET ( 1, 0, .AHEAD. ) ;
#59 = VECTOR ( 'NONE', #29, 1000.000000000000000 ) ;
#60 = PERSON_AND_ORGANIZATION ( #136, #152 ) ;
#61 = VERTEX_POINT ( 'NONE', #142 ) ;
#62 = ORIENTED_EDGE ( 'NONE', *, *, #247, .T. ) ;
#63 = DIRECTION ( 'NONE',  ( 0.000000000000000000, 0.000000000000000000, 1.000000000000000000 ) ) ;
#64 = ORIENTED_EDGE ( 'NONE', *, *, #247, .F. ) ;
#65 = APPROVAL ( #225, 'UNSPECIFIED' ) ;
#66 = DIRECTION ( 'NONE',  ( 0.000000000000000000, 1.000000000000000000, 0.000000000000000000 ) ) ;
#67 = LOCAL_TIME ( 11, 38, 53.00000000000000000, #206 ) ;
#68 = CARTESIAN_POINT ( 'NONE',  ( 3.367778697655220913E-15, 4.000000000000000000, 27.49999999999999645 ) ) ;
#69 = EDGE_CURVE ( 'NONE', #157, #99, #149, .T. ) ;
#70 = DIRECTION ( 'NONE',  ( 0.000000000000000000, 0.000000000000000000, 1.000000000000000000 ) ) ;
#71 = DIRECTION ( 'NONE',  ( -0.000000000000000000, -1.000000000000000000, -0.000000000000000000 ) ) ;
#72 = DIRECTION ( 'NONE',  ( 0.000000000000000000, 0.000000000000000000, 1.000000000000000000 ) ) ;
#73 = AXIS2_PLACEMENT_3D ( 'NONE', #178, #129, #4 ) ;
#74 = AXIS2_PLACEMENT_3D ( 'NONE', #130, #186, #94 ) ;
#75 = ADVANCED_FACE ( 'NONE', ( #147 ), #217, .F. ) ;
#76 = CC_DESIGN_DATE_AND_TIME_ASSIGNMENT ( #35, #176, ( #237 ) ) ;
#77 = PERSON_AND_ORGANIZATION ( #136, #152 ) ;
#78 = SHAPE_DEFINITION_REPRESENTATION ( #238, #168 ) ;
#79 = DATE_AND_TIME ( #101, #113 ) ;
#80 = ORIENTED_EDGE ( 'NONE', *, *, #162, .T. ) ;
#81 = APPROVAL_PERSON_ORGANIZATION ( #204, #179, #36 ) ;
#82 = PERSON_AND_ORGANIZATION ( #136, #152 ) ;
#83 = AXIS2_PLACEMENT_3D ( 'NONE', #234, #66, #235 ) ;
#84 = DIRECTION ( 'NONE',  ( -0.000000000000000000, -1.000000000000000000, -0.000000000000000000 ) ) ;
#85 = VECTOR ( 'NONE', #84, 1000.000000000000000 ) ;
#86 = DIRECTION ( 'NONE',  ( 0.000000000000000000, 0.000000000000000000, 1.000000000000000000 ) ) ;
#87 = EDGE_LOOP ( 'NONE', ( #194, #212 ) ) ;
#88 = DIRECTION ( 'NONE',  ( -0.000000000000000000, -1.000000000000000000, -0.000000000000000000 ) ) ;
#89 = DIRECTION ( 'NONE',  ( 0.000000000000000000, 0.000000000000000000, 1.000000000000000000 ) ) ;
#90 = DIRECTION ( 'NONE',  ( 0.000000000000000000, 1.000000000000000000, 0.000000000000000000 ) ) ;
#91 = LOCAL_TIME ( 11, 38, 53.00000000000000000, #40 ) ;
#92 = CARTESIAN_POINT ( 'NONE',  ( 0.000000000000000000, 4.000000000000000000, 0.000000000000000000 ) ) ;
#93 = FACE_OUTER_BOUND ( 'NONE', #41, .T. ) ;
#94 = DIRECTION ( 'NONE',  ( 0.000000000000000000, -0.000000000000000000, 1.000000000000000000 ) ) ;
#95 = ADVANCED_FACE ( 'NONE', ( #219 ), #104, .T. ) ;
#96 = ORIENTED_EDGE ( 'NONE', *, *, #202, .T. ) ;
#97 = AXIS2_PLACEMENT_3D ( 'NONE', #108, #216, #86 ) ;
#98 = COORDINATED_UNIVERSAL_TIME_OFFSET ( 1, 0, .AHEAD. ) ;
#99 = VERTEX_POINT ( 'NONE', #122 ) ;
#100 = CC_DESIGN_DATE_AND_TIME_ASSIGNMENT ( #55, #115, ( #123 ) ) ;
#101 = CALENDAR_DATE ( 2024, 6, 8 ) ;
#102 = CARTESIAN_POINT ( 'NONE',  ( 0.000000000000000000, 0.000000000000000000, 0.000000000000000000 ) ) ;
#103 = DIRECTION ( 'NONE',  ( 0.000000000000000000, 1.000000000000000000, 0.000000000000000000 ) ) ;
#104 = CYLINDRICAL_SURFACE ( 'NONE', #38, 77.50000000000001421 ) ;
#105 = APPROVAL_PERSON_ORGANIZATION ( #77, #65, #187 ) ;
#106 = CIRCLE ( 'NONE', #5, 77.50000000000001421 ) ;
#107 = FACE_BOUND ( 'NONE', #246, .T. ) ;
#108 = CARTESIAN_POINT ( 'NONE',  ( 0.000000000000000000, 0.000000000000000000, 0.000000000000000000 ) ) ;
#109 = CARTESIAN_POINT ( 'NONE',  ( 0.000000000000000000, 0.000000000000000000, -27.49999999999999645 ) ) ;
#110 = PLANE ( 'NONE',  #74 ) ;
#111 = EDGE_CURVE ( 'NONE', #191, #61, #177, .T. ) ;
#112 = APPLICATION_PROTOCOL_DEFINITION ( 'international standard', 'config_control_design', 1994, #195 ) ;
#113 = LOCAL_TIME ( 11, 38, 53.00000000000000000, #98 ) ;
#114 = ADVANCED_FACE ( 'NONE', ( #159 ), #124, .F. ) ;
#115 = DATE_TIME_ROLE ( 'creation_date' ) ;
#116 = PERSON_AND_ORGANIZATION_ROLE ( 'creator' ) ;
#117 = AXIS2_PLACEMENT_3D ( 'NONE', #132, #11, #201 ) ;
#118 = ORIENTED_EDGE ( 'NONE', *, *, #162, .F. ) ;
#119 = EDGE_CURVE ( 'NONE', #233, #99, #197, .T. ) ;
#120 = DIRECTION ( 'NONE',  ( 0.000000000000000000, 0.000000000000000000, 1.000000000000000000 ) ) ;
#121 = ORIENTED_EDGE ( 'NONE', *, *, #20, .F. ) ;
#122 = CARTESIAN_POINT ( 'NONE',  ( 3.367778697655220913E-15, 0.000000000000000000, 27.49999999999999645 ) ) ;
#123 = PRODUCT_DEFINITION ( 'UNKNOWN', '', #54, #33 ) ;
#124 = CYLINDRICAL_SURFACE ( 'NONE', #73, 27.49999999999999645 ) ;
#125 = APPLICATION_CONTEXT ( 'configuration controlled 3d designs of mechanical parts and assemblies' ) ;
#126 = VERTEX_POINT ( 'NONE', #181 ) ;
#127 = EDGE_LOOP ( 'NONE', ( #96, #143, #175, #232 ) ) ;
#128 = AXIS2_PLACEMENT_3D ( 'NONE', #188, #120, #139 ) ;
#129 = DIRECTION ( 'NONE',  ( -0.000000000000000000, -1.000000000000000000, -0.000000000000000000 ) ) ;
#130 = CARTESIAN_POINT ( 'NONE',  ( 0.000000000000000000, 4.000000000000000000, 0.000000000000000000 ) ) ;
#131 = EDGE_CURVE ( 'NONE', #126, #61, #185, .T. ) ;
#132 = CARTESIAN_POINT ( 'NONE',  ( 0.000000000000000000, 0.000000000000000000, 0.000000000000000000 ) ) ;
#133 = UNCERTAINTY_MEASURE_WITH_UNIT (LENGTH_MEASURE( 1.000000000000000082E-05 ), #239, 'distance_accuracy_value', 'NONE');
#134 = PERSON_AND_ORGANIZATION ( #136, #152 ) ;
#135 = APPROVAL_DATE_TIME ( #228, #145 ) ;
#136 = PERSON ( 'UNSPECIFIED', 'UNSPECIFIED', 'UNSPECIFIED', ('UNSPECIFIED'), ('UNSPECIFIED'), ('UNSPECIFIED') ) ;
#137 = PERSON_AND_ORGANIZATION ( #136, #152 ) ;
#138 = CIRCLE ( 'NONE', #117, 77.50000000000001421 ) ;
#139 = DIRECTION ( 'NONE',  ( 1.000000000000000000, 0.000000000000000000, 0.000000000000000000 ) ) ;
#140 = EDGE_CURVE ( 'NONE', #183, #157, #182, .T. ) ;
#141 = CLOSED_SHELL ( 'NONE', ( #75, #95, #155, #26, #227, #114 ) ) ;
#142 = CARTESIAN_POINT ( 'NONE',  ( 9.491012693391989759E-15, 0.000000000000000000, 77.50000000000001421 ) ) ;
#143 = ORIENTED_EDGE ( 'NONE', *, *, #119, .T. ) ;
#144 = DIRECTION ( 'NONE',  ( 0.000000000000000000, -0.000000000000000000, 1.000000000000000000 ) ) ;
#145 = APPROVAL ( #154, 'UNSPECIFIED' ) ;
#146 = DIRECTION ( 'NONE',  ( 0.000000000000000000, 1.000000000000000000, 0.000000000000000000 ) ) ;
#147 = FACE_OUTER_BOUND ( 'NONE', #127, .T. ) ;
#148 = DIRECTION ( 'NONE',  ( 0.000000000000000000, 0.000000000000000000, -1.000000000000000000 ) ) ;
#149 = CIRCLE ( 'NONE', #97, 27.49999999999999645 ) ;
#150 = CIRCLE ( 'NONE', #158, 27.49999999999999645 ) ;
#151 = CARTESIAN_POINT ( 'NONE',  ( 9.491012693391989759E-15, 4.000000000000000000, 77.50000000000001421 ) ) ;
#152 = ORGANIZATION ( 'UNSPECIFIED', 'UNSPECIFIED', '' ) ;
#153 = APPROVAL_ROLE ( '' ) ;
#154 = APPROVAL_STATUS ( 'not_yet_approved' ) ;
#155 = ADVANCED_FACE ( 'NONE', ( #10, #221 ), #110, .T. ) ;
#156 = CALENDAR_DATE ( 2024, 6, 8 ) ;
#157 = VERTEX_POINT ( 'NONE', #109 ) ;
#158 = AXIS2_PLACEMENT_3D ( 'NONE', #242, #222, #89 ) ;
#159 = FACE_OUTER_BOUND ( 'NONE', #49, .T. ) ;
#160 = ORIENTED_EDGE ( 'NONE', *, *, #111, .F. ) ;
#161 = CARTESIAN_POINT ( 'NONE',  ( 0.000000000000000000, 4.000000000000000000, 0.000000000000000000 ) ) ;
#162 = EDGE_CURVE ( 'NONE', #191, #189, #106, .T. ) ;
#163 = CARTESIAN_POINT ( 'NONE',  ( 9.491012693391989759E-15, 4.000000000000000000, 77.50000000000001421 ) ) ;
#164 = ORIENTED_EDGE ( 'NONE', *, *, #140, .T. ) ;
#165 = EDGE_CURVE ( 'NONE', #61, #126, #138, .T. ) ;
#166 = CYLINDRICAL_SURFACE ( 'NONE', #241, 77.50000000000001421 ) ;
#167 = CARTESIAN_POINT ( 'NONE',  ( 0.000000000000000000, 4.000000000000000000, -27.49999999999999645 ) ) ;
#168 = ADVANCED_BREP_SHAPE_REPRESENTATION ( '3D_R245_54_17386300', ( #172, #128 ), #218 ) ;
#169 = DIRECTION ( 'NONE',  ( -0.000000000000000000, -1.000000000000000000, -0.000000000000000000 ) ) ;
#170 = CARTESIAN_POINT ( 'NONE',  ( 0.000000000000000000, 4.000000000000000000, 0.000000000000000000 ) ) ;
#171 = AXIS2_PLACEMENT_3D ( 'NONE', #236, #6, #70 ) ;
#172 = MANIFOLD_SOLID_BREP ( 'Aufsatz-Linear austragen1', #141 ) ;
#173 = CC_DESIGN_PERSON_AND_ORGANIZATION_ASSIGNMENT ( #137, #14, ( #28 ) ) ;
#174 = APPROVAL_DATE_TIME ( #79, #179 ) ;
#175 = ORIENTED_EDGE ( 'NONE', *, *, #69, .F. ) ;
#176 = DATE_TIME_ROLE ( 'classification_date' ) ;
#177 = LINE ( 'NONE', #163, #85 ) ;
#178 = CARTESIAN_POINT ( 'NONE',  ( 0.000000000000000000, 4.000000000000000000, 0.000000000000000000 ) ) ;
#179 = APPROVAL ( #18, 'UNSPECIFIED' ) ;
#180 = VECTOR ( 'NONE', #24, 1000.000000000000000 ) ;
#181 = CARTESIAN_POINT ( 'NONE',  ( 0.000000000000000000, 0.000000000000000000, -77.50000000000001421 ) ) ;
#182 = LINE ( 'NONE', #199, #59 ) ;
#183 = VERTEX_POINT ( 'NONE', #167 ) ;
#184 = CC_DESIGN_APPROVAL ( #145, ( #123 ) ) ;
#185 = CIRCLE ( 'NONE', #83, 77.50000000000001421 ) ;
#186 = DIRECTION ( 'NONE',  ( 0.000000000000000000, 1.000000000000000000, 0.000000000000000000 ) ) ;
#187 = APPROVAL_ROLE ( '' ) ;
#188 = CARTESIAN_POINT ( 'NONE',  ( 0.000000000000000000, 0.000000000000000000, 0.000000000000000000 ) ) ;
#189 = VERTEX_POINT ( 'NONE', #200 ) ;
#190 = AXIS2_PLACEMENT_3D ( 'NONE', #102, #103, #144 ) ;
#191 = VERTEX_POINT ( 'NONE', #151 ) ;
#192 = CALENDAR_DATE ( 2024, 6, 8 ) ;
#193 = APPLICATION_PROTOCOL_DEFINITION ( 'international standard', 'config_control_design', 1994, #125 ) ;
#194 = ORIENTED_EDGE ( 'NONE', *, *, #202, .F. ) ;
#195 = APPLICATION_CONTEXT ( 'configuration controlled 3d designs of mechanical parts and assemblies' ) ;
#196 = ORIENTED_EDGE ( 'NONE', *, *, #131, .T. ) ;
#197 = LINE ( 'NONE', #68, #180 ) ;
#198 = ORIENTED_EDGE ( 'NONE', *, *, #165, .F. ) ;
#199 = CARTESIAN_POINT ( 'NONE',  ( 0.000000000000000000, 4.000000000000000000, -27.49999999999999645 ) ) ;
#200 = CARTESIAN_POINT ( 'NONE',  ( 0.000000000000000000, 4.000000000000000000, -77.50000000000001421 ) ) ;
#201 = DIRECTION ( 'NONE',  ( 0.000000000000000000, 0.000000000000000000, 1.000000000000000000 ) ) ;
#202 = EDGE_CURVE ( 'NONE', #183, #233, #39, .T. ) ;
#203 =( NAMED_UNIT ( * ) PLANE_ANGLE_UNIT ( ) SI_UNIT ( $, .RADIAN. ) );
#204 = PERSON_AND_ORGANIZATION ( #136, #152 ) ;
#205 = PRODUCT_RELATED_PRODUCT_CATEGORY ( 'detail', '', ( #28 ) ) ;
#206 = COORDINATED_UNIVERSAL_TIME_OFFSET ( 1, 0, .AHEAD. ) ;
#207 = PERSON_AND_ORGANIZATION ( #136, #152 ) ;
#208 = EDGE_LOOP ( 'NONE', ( #57, #198 ) ) ;
#209 = COORDINATED_UNIVERSAL_TIME_OFFSET ( 1, 0, .AHEAD. ) ;
#210 = MECHANICAL_CONTEXT ( 'NONE', #195, 'mechanical' ) ;
#211 = ORIENTED_EDGE ( 'NONE', *, *, #20, .T. ) ;
#212 = ORIENTED_EDGE ( 'NONE', *, *, #223, .F. ) ;
#213 = DIRECTION ( 'NONE',  ( 0.000000000000000000, 0.000000000000000000, -1.000000000000000000 ) ) ;
#214 = CC_DESIGN_PERSON_AND_ORGANIZATION_ASSIGNMENT ( #60, #19, ( #237 ) ) ;
#215 = FACE_OUTER_BOUND ( 'NONE', #208, .T. ) ;
#216 = DIRECTION ( 'NONE',  ( 0.000000000000000000, 1.000000000000000000, 0.000000000000000000 ) ) ;
#217 = CYLINDRICAL_SURFACE ( 'NONE', #15, 27.49999999999999645 ) ;
#218 =( GEOMETRIC_REPRESENTATION_CONTEXT ( 3 ) GLOBAL_UNCERTAINTY_ASSIGNED_CONTEXT ( ( #133 ) ) GLOBAL_UNIT_ASSIGNED_CONTEXT ( ( #239, #203, #32 ) ) REPRESENTATION_CONTEXT ( 'NONE', 'WORKASPACE' ) );
#219 = FACE_OUTER_BOUND ( 'NONE', #21, .T. ) ;
#220 = LINE ( 'NONE', #51, #25 ) ;
#221 = FACE_BOUND ( 'NONE', #87, .T. ) ;
#222 = DIRECTION ( 'NONE',  ( 0.000000000000000000, 1.000000000000000000, 0.000000000000000000 ) ) ;
#223 = EDGE_CURVE ( 'NONE', #233, #183, #150, .T. ) ;
#224 = CALENDAR_DATE ( 2024, 6, 8 ) ;
#225 = APPROVAL_STATUS ( 'not_yet_approved' ) ;
#226 = PERSON_AND_ORGANIZATION ( #136, #152 ) ;
#227 = ADVANCED_FACE ( 'NONE', ( #93 ), #166, .T. ) ;
#228 = DATE_AND_TIME ( #192, #34 ) ;
#229 = ORIENTED_EDGE ( 'NONE', *, *, #69, .T. ) ;
#230 = ORIENTED_EDGE ( 'NONE', *, *, #119, .F. ) ;
#231 = CC_DESIGN_PERSON_AND_ORGANIZATION_ASSIGNMENT ( #82, #116, ( #54 ) ) ;
#232 = ORIENTED_EDGE ( 'NONE', *, *, #140, .F. ) ;
#233 = VERTEX_POINT ( 'NONE', #240 ) ;
#234 = CARTESIAN_POINT ( 'NONE',  ( 0.000000000000000000, 0.000000000000000000, 0.000000000000000000 ) ) ;
#235 = DIRECTION ( 'NONE',  ( 0.000000000000000000, 0.000000000000000000, 1.000000000000000000 ) ) ;
#236 = CARTESIAN_POINT ( 'NONE',  ( 0.000000000000000000, 0.000000000000000000, 0.000000000000000000 ) ) ;
#237 = SECURITY_CLASSIFICATION ( '', '', #16 ) ;
#238 = PRODUCT_DEFINITION_SHAPE ( 'NONE', 'NONE',  #123 ) ;
#239 =( LENGTH_UNIT ( ) NAMED_UNIT ( * ) SI_UNIT ( .MILLI., .METRE. ) );
#240 = CARTESIAN_POINT ( 'NONE',  ( 3.367778697655220913E-15, 4.000000000000000000, 27.49999999999999645 ) ) ;
#241 = AXIS2_PLACEMENT_3D ( 'NONE', #53, #71, #148 ) ;
#242 = CARTESIAN_POINT ( 'NONE',  ( 0.000000000000000000, 4.000000000000000000, 0.000000000000000000 ) ) ;
#243 = CALENDAR_DATE ( 2024, 6, 8 ) ;
#244 = CIRCLE ( 'NONE', #52, 77.50000000000001421 ) ;
#245 = PERSON_AND_ORGANIZATION_ROLE ( 'design_supplier' ) ;
#246 = EDGE_LOOP ( 'NONE', ( #229, #42 ) ) ;
#247 = EDGE_CURVE ( 'NONE', #189, #126, #220, .T. ) ;
#248 = CC_DESIGN_APPROVAL ( #179, ( #54 ) ) ;
#249 = PERSON_AND_ORGANIZATION_ROLE ( 'creator' ) ;
ENDSEC;
END-ISO-10303-21;
