ISO-10303-21;
HEADER;
/****************************************************************
 * Generated by software with PDElib inside                    *
 * PDElib Version v51a, created Wed 07/06/2011                  *
 * ITI Transcendata (http://www.transcendata.com/)              *
 ****************************************************************/
FILE_DESCRIPTION(('RE_17,2x1,6-13,5x1,6_L60_V10'),'2;1');
FILE_NAME('RE_17,2x1,6-13,5x1,6_L60_V10.stp','2013-11-02T16:27:35',('DOCKWEILER AG'),('DOCKWEILER AG'),'Autodesk Inventor 2012','Autodesk Inventor 2012','');
FILE_SCHEMA(('CONFIG_CONTROL_DESIGN'));
ENDSEC;
DATA;
#5=APPLICATION_CONTEXT('configuration controlled 3D designs of mechanical parts and assemblies');
#6=APPLICATION_PROTOCOL_DEFINITION('International Standard','ap203_configuration_controlled_3d_design_of_mechanical_parts_and_assemblies_mim_lf',2004,#5);
#7=PRODUCT_CONTEXT('',#5,'mechanical');
#8=PRODUCT('N0006_002_001_009','N0006_002_001_009',$,(#7));
#9=PRODUCT_RELATED_PRODUCT_CATEGORY('part',$,(#8));
#10=PRODUCT_DEFINITION_FORMATION('',$,#8);
#11=PRODUCT_DEFINITION_CONTEXT('part definition',#5,'design');
#12=PRODUCT_DEFINITION('',$,#10,#11);
#18=(NAMED_UNIT(*)PLANE_ANGLE_UNIT()SI_UNIT($,.RADIAN.));
#19=DIMENSIONAL_EXPONENTS(0.0,0.0,0.0,0.0,0.0,0.0,0.0);
#20=PLANE_ANGLE_MEASURE_WITH_UNIT(PLANE_ANGLE_MEASURE(0.0174532925),#18);
#24=(CONVERSION_BASED_UNIT('DEGREE',#20)NAMED_UNIT(#19)PLANE_ANGLE_UNIT());
#28=(NAMED_UNIT(*)SI_UNIT($,.STERADIAN.)SOLID_ANGLE_UNIT());
#32=(LENGTH_UNIT()NAMED_UNIT(*)SI_UNIT(.MILLI.,.METRE.));
#34=UNCERTAINTY_MEASURE_WITH_UNIT(LENGTH_MEASURE(0.01),#32,'DISTANCE_ACCURACY_VALUE','');
#36=(GEOMETRIC_REPRESENTATION_CONTEXT(3)GLOBAL_UNCERTAINTY_ASSIGNED_CONTEXT((#34))GLOBAL_UNIT_ASSIGNED_CONTEXT((#24,#28,#32))REPRESENTATION_CONTEXT('None','None'));
#37=AXIS2_PLACEMENT_3D('',#38,#39,#40);
#38=CARTESIAN_POINT('',(0.0,0.0,0.0));
#39=DIRECTION('',(0.0,0.0,1.0));
#40=DIRECTION('',(1.0,0.0,0.0));
#41=SHAPE_REPRESENTATION('',(#37),#36);
#42=PRODUCT_DEFINITION_SHAPE('','',#12);
#43=SHAPE_DEFINITION_REPRESENTATION(#42,#41);
#49=(NAMED_UNIT(*)PLANE_ANGLE_UNIT()SI_UNIT($,.RADIAN.));
#50=DIMENSIONAL_EXPONENTS(0.0,0.0,0.0,0.0,0.0,0.0,0.0);
#51=PLANE_ANGLE_MEASURE_WITH_UNIT(PLANE_ANGLE_MEASURE(0.0174532925),#49);
#55=(CONVERSION_BASED_UNIT('DEGREE',#51)NAMED_UNIT(#50)PLANE_ANGLE_UNIT());
#59=(NAMED_UNIT(*)SI_UNIT($,.STERADIAN.)SOLID_ANGLE_UNIT());
#63=(LENGTH_UNIT()NAMED_UNIT(*)SI_UNIT(.MILLI.,.METRE.));
#65=UNCERTAINTY_MEASURE_WITH_UNIT(LENGTH_MEASURE(0.000001),#63,'DISTANCE_ACCURACY_VALUE','');
#67=(GEOMETRIC_REPRESENTATION_CONTEXT(3)GLOBAL_UNCERTAINTY_ASSIGNED_CONTEXT((#65))GLOBAL_UNIT_ASSIGNED_CONTEXT((#55,#59,#63))REPRESENTATION_CONTEXT('','3D'));
#68=CARTESIAN_POINT('',(1.915372341351457,33.406368608400406,5.117209438946206));
#69=CARTESIAN_POINT('',(1.235717E-013,9.440552888083277,7.044855292736167));
#70=CARTESIAN_POINT('',(7.0000000000001,33.0,5.117209438946115));
#71=CARTESIAN_POINT('',(7.000000000000154,8.88110577616656,7.044855292736042));
#72=CARTESIAN_POINT('',(7.000000000000012,33.000000000000014,-8.960306E-014));
#73=CARTESIAN_POINT('',(7.000000000000033,8.881105776166571,-1.236997E-013));
#74=CARTESIAN_POINT('',(6.999999999999922,33.000000000000028,-5.117209438946294));
#75=CARTESIAN_POINT('',(6.999999999999908,8.881105776166582,-7.04485529273629));
#76=CARTESIAN_POINT('',(1.915372341351278,33.406368608400435,-5.117209438946206));
#77=CARTESIAN_POINT('',(-1.236962E-013,9.440552888083298,-7.044855292736167));
#78=CARTESIAN_POINT('',(-3.169255317297365,33.812737216800841,-5.117209438946115));
#79=CARTESIAN_POINT('',(-7.000000000000154,10.000000000000014,-7.044855292736042));
#80=CARTESIAN_POINT('',(-3.169255317297277,33.812737216800826,8.960306E-014));
#81=CARTESIAN_POINT('',(-7.000000000000033,10.000000000000004,1.236997E-013));
#82=CARTESIAN_POINT('',(-3.169255317297188,33.812737216800812,5.117209438946294));
#83=CARTESIAN_POINT('',(-6.999999999999908,9.999999999999993,7.04485529273629));
#84=CARTESIAN_POINT('',(1.915372341351457,33.406368608400406,5.117209438946206));
#85=CARTESIAN_POINT('',(1.235717E-013,9.440552888083277,7.044855292736167));
#93=(BOUNDED_SURFACE()B_SPLINE_SURFACE(1,2,((#68,#70,#72,#74,#76,#78,#80,#82,#84),(#69,#71,#73,#75,#77,#79,#81,#83,#85)),.UNSPECIFIED.,.F.,.T.,.U.)B_SPLINE_SURFACE_WITH_KNOTS((2,2),(3,2,2,2,3),(-3.365635301702402,0.079921015988102),(0.0,10.99579859578745,21.9915971915749,32.987395787362352,43.983194383149801),.UNSPECIFIED.)GEOMETRIC_REPRESENTATION_ITEM()RATIONAL_B_SPLINE_SURFACE(((1.0,0.707106781186548,1.0,0.707106781186548,1.0,0.707106781186548,1.0,0.707106781186548,1.0),(1.0,0.707106781186548,1.0,0.707106781186548,1.0,0.707106781186548,1.0,0.707106781186548,1.0)))REPRESENTATION_ITEM('')SURFACE());
#94=CARTESIAN_POINT('',(7.000000000000002,10.0,-8.572528E-016));
#95=VERTEX_POINT('',#94);
#96=CARTESIAN_POINT('',(0.0,10.0,0.0));
#97=DIRECTION('',(0.0,1.0,0.0));
#98=DIRECTION('',(-1.0,0.0,0.0));
#99=AXIS2_PLACEMENT_3D('',#96,#97,#98);
#100=CIRCLE('',#99,7.000000000000002);
#101=EDGE_CURVE('',#95,#95,#100,.T.);
#102=ORIENTED_EDGE('',*,*,#101,.F.);
#103=EDGE_LOOP('',(#102));
#104=FACE_OUTER_BOUND('',#103,.T.);
#105=CARTESIAN_POINT('',(6.999999999999997,33.000000000000014,-6.306931E-016));
#106=VERTEX_POINT('',#105);
#107=CARTESIAN_POINT('',(1.849999999999998,33.000000000000007,0.0));
#108=DIRECTION('',(0.0,1.0,0.0));
#109=DIRECTION('',(-1.0,0.0,0.0));
#110=AXIS2_PLACEMENT_3D('',#107,#108,#109);
#111=CIRCLE('',#110,5.149999999999999);
#112=EDGE_CURVE('',#106,#106,#111,.T.);
#113=ORIENTED_EDGE('',*,*,#112,.T.);
#114=EDGE_LOOP('',(#113));
#115=FACE_BOUND('',#114,.T.);
#116=ADVANCED_FACE('',(#104,#115),#93,.F.);
#117=CARTESIAN_POINT('',(1.849999999999985,59.999999999999993,0.0));
#118=DIRECTION('',(4.934325E-016,-1.0,0.0));
#119=DIRECTION('',(-1.0,0.0,0.0));
#120=AXIS2_PLACEMENT_3D('',#117,#118,#119);
#121=CYLINDRICAL_SURFACE('',#120,5.149999999999999);
#122=ORIENTED_EDGE('',*,*,#112,.F.);
#123=EDGE_LOOP('',(#122));
#124=FACE_OUTER_BOUND('',#123,.T.);
#125=CARTESIAN_POINT('',(6.999999999999984,59.999999999999993,6.306931E-016));
#126=VERTEX_POINT('',#125);
#127=CARTESIAN_POINT('',(1.849999999999985,59.999999999999986,0.0));
#128=DIRECTION('',(0.0,-1.0,0.0));
#129=DIRECTION('',(-1.0,0.0,0.0));
#130=AXIS2_PLACEMENT_3D('',#127,#128,#129);
#131=CIRCLE('',#130,5.149999999999999);
#132=EDGE_CURVE('',#126,#126,#131,.T.);
#133=ORIENTED_EDGE('',*,*,#132,.F.);
#134=EDGE_LOOP('',(#133));
#135=FACE_BOUND('',#134,.T.);
#136=ADVANCED_FACE('',(#124,#135),#121,.F.);
#137=CARTESIAN_POINT('',(0.0,2.220446E-015,0.0));
#138=DIRECTION('',(0.0,1.0,0.0));
#139=DIRECTION('',(-1.0,0.0,0.0));
#140=AXIS2_PLACEMENT_3D('',#137,#138,#139);
#141=CYLINDRICAL_SURFACE('',#140,7.000000000000002);
#142=CARTESIAN_POINT('',(7.000000000000002,2.220446E-015,8.572528E-016));
#143=VERTEX_POINT('',#142);
#144=CARTESIAN_POINT('',(0.0,2.220446E-015,0.0));
#145=DIRECTION('',(0.0,1.0,0.0));
#146=DIRECTION('',(-1.0,0.0,0.0));
#147=AXIS2_PLACEMENT_3D('',#144,#145,#146);
#148=CIRCLE('',#147,7.000000000000002);
#149=EDGE_CURVE('',#143,#143,#148,.T.);
#150=ORIENTED_EDGE('',*,*,#149,.F.);
#151=EDGE_LOOP('',(#150));
#152=FACE_OUTER_BOUND('',#151,.T.);
#153=ORIENTED_EDGE('',*,*,#101,.T.);
#154=EDGE_LOOP('',(#153));
#155=FACE_BOUND('',#154,.T.);
#156=ADVANCED_FACE('',(#152,#155),#141,.F.);
#157=CARTESIAN_POINT('',(1.849999999999992,47.5,0.0));
#158=DIRECTION('',(-5.815454E-016,1.0,0.0));
#159=DIRECTION('',(-1.0,0.0,0.0));
#160=AXIS2_PLACEMENT_3D('',#157,#158,#159);
#161=CYLINDRICAL_SURFACE('',#160,6.749999999999798);
#162=CARTESIAN_POINT('',(-4.89999999999982,59.999999999999986,0.0));
#163=VERTEX_POINT('',#162);
#164=CARTESIAN_POINT('',(1.849999999999985,59.999999999999986,0.0));
#165=DIRECTION('',(0.0,1.0,0.0));
#166=DIRECTION('',(-1.0,0.0,0.0));
#167=AXIS2_PLACEMENT_3D('',#164,#165,#166);
#168=CIRCLE('',#167,6.749999999999805);
#169=EDGE_CURVE('',#163,#163,#168,.T.);
#170=ORIENTED_EDGE('',*,*,#169,.F.);
#171=EDGE_LOOP('',(#170));
#172=FACE_OUTER_BOUND('',#171,.T.);
#173=CARTESIAN_POINT('',(8.60000000000001,35.0,1.053196E-015));
#174=VERTEX_POINT('',#173);
#175=CARTESIAN_POINT('',(1.849999999999999,35.000000000000007,0.0));
#176=DIRECTION('',(0.0,1.0,0.0));
#177=DIRECTION('',(-1.0,0.0,0.0));
#178=AXIS2_PLACEMENT_3D('',#175,#176,#177);
#179=CIRCLE('',#178,6.74999999999979);
#180=EDGE_CURVE('',#174,#174,#179,.T.);
#181=ORIENTED_EDGE('',*,*,#180,.T.);
#182=EDGE_LOOP('',(#181));
#183=FACE_BOUND('',#182,.T.);
#184=ADVANCED_FACE('',(#172,#183),#161,.T.);
#185=CARTESIAN_POINT('',(-1.524999999999918,59.999999999999986,0.0));
#186=DIRECTION('',(0.0,1.0,0.0));
#187=DIRECTION('',(0.0,0.0,1.0));
#188=AXIS2_PLACEMENT_3D('',#185,#186,#187);
#189=PLANE('',#188);
#190=ORIENTED_EDGE('',*,*,#169,.T.);
#191=EDGE_LOOP('',(#190));
#192=FACE_OUTER_BOUND('',#191,.T.);
#193=ORIENTED_EDGE('',*,*,#132,.T.);
#194=EDGE_LOOP('',(#193));
#195=FACE_BOUND('',#194,.T.);
#196=ADVANCED_FACE('',(#192,#195),#189,.T.);
#197=CARTESIAN_POINT('',(1.850000000000003,30.000000000000004,0.0));
#198=DIRECTION('',(5.815454E-016,-1.0,0.0));
#199=DIRECTION('',(-1.0,0.0,0.0));
#200=AXIS2_PLACEMENT_3D('',#197,#198,#199);
#201=CONICAL_SURFACE('',#200,8.599999999999898,20.304473709961524);
#202=ORIENTED_EDGE('',*,*,#180,.F.);
#203=CARTESIAN_POINT('',(-8.6,25.0,0.0));
#204=VERTEX_POINT('',#203);
#205=CARTESIAN_POINT('',(8.60000000000001,34.999999999999417,1.387779E-015));
#206=CARTESIAN_POINT('',(8.60000000000001,34.999999999999417,-0.848290545827575));
#207=CARTESIAN_POINT('',(8.465851962607649,34.89986243267991,-1.753407875243104));
#208=CARTESIAN_POINT('',(7.930498909862189,34.509620540730516,-3.442713569340221));
#209=CARTESIAN_POINT('',(7.530461405946875,34.221674279618732,-4.227769452778317));
#210=CARTESIAN_POINT('',(6.471823603310279,33.481744742450957,-5.765218752755203));
#211=CARTESIAN_POINT('',(5.666653249984855,32.934567783557199,-6.560758372149022));
#212=CARTESIAN_POINT('',(3.845471294997699,31.756888716877299,-7.769611010415613));
#213=CARTESIAN_POINT('',(2.829083415525476,31.127041208795092,-8.182994752745694));
#214=CARTESIAN_POINT('',(0.700928881932828,29.860080539083267,-8.651770200539096));
#215=CARTESIAN_POINT('',(-0.585296076126933,29.128357113008796,-8.674176052473815));
#216=CARTESIAN_POINT('',(-3.075533644507844,27.771073467118896,-8.131725463264983));
#217=CARTESIAN_POINT('',(-4.278806943692322,27.144421536830471,-7.566207661159527));
#218=CARTESIAN_POINT('',(-6.230562563821485,26.153081723266098,-6.049818086029871));
#219=CARTESIAN_POINT('',(-7.102113628454561,25.72451711735291,-5.027916277603754));
#220=CARTESIAN_POINT('',(-8.287120121710776,25.148626556097994,-2.653977016550901));
#221=CARTESIAN_POINT('',(-8.60000000000001,24.999999999999972,-1.301967988713656));
#222=CARTESIAN_POINT('',(-8.60000000000001,24.999999999999972,-5.551115E-016));
#223=B_SPLINE_CURVE_WITH_KNOTS('',3,(#205,#206,#207,#208,#209,#210,#211,#212,#213,#214,#215,#216,#217,#218,#219,#220,#221,#222),.UNSPECIFIED.,.F.,.U.,(4,2,2,2,2,2,2,2,4),(2.802581427043343,3.057068590791616,3.311555754539889,3.659460826833016,4.007365899126143,4.415673979992318,4.823982060858493,5.214572457472589,5.605162854086686),.UNSPECIFIED.);
#224=EDGE_CURVE('',#174,#204,#223,.T.);
#225=ORIENTED_EDGE('',*,*,#224,.T.);
#226=CARTESIAN_POINT('',(-8.60000000000001,24.999999999999979,0.0));
#227=CARTESIAN_POINT('',(-8.60000000000001,24.999999999999979,1.301967988713654));
#228=CARTESIAN_POINT('',(-8.287120121710778,25.148626556097994,2.6539770165509));
#229=CARTESIAN_POINT('',(-7.102113628454562,25.72451711735291,5.027916277603753));
#230=CARTESIAN_POINT('',(-6.230562563821486,26.153081723266098,6.04981808602987));
#231=CARTESIAN_POINT('',(-4.278806943692326,27.144421536830468,7.566207661159526));
#232=CARTESIAN_POINT('',(-3.075533644507847,27.771073467118889,8.131725463264985));
#233=CARTESIAN_POINT('',(-0.585296076126934,29.128357113008793,8.674176052473817));
#234=CARTESIAN_POINT('',(0.700928881932825,29.860080539083267,8.651770200539097));
#235=CARTESIAN_POINT('',(2.829083415525473,31.127041208795095,8.182994752745694));
#236=CARTESIAN_POINT('',(3.845471294997696,31.756888716877299,7.769611010415614));
#237=CARTESIAN_POINT('',(5.666653249984853,32.934567783557199,6.560758372149024));
#238=CARTESIAN_POINT('',(6.471823603310276,33.481744742450957,5.765218752755207));
#239=CARTESIAN_POINT('',(7.530461405946874,34.221674279618732,4.227769452778319));
#240=CARTESIAN_POINT('',(7.930498909862188,34.509620540730516,3.442713569340223));
#241=CARTESIAN_POINT('',(8.465851962607648,34.89986243267991,1.753407875243107));
#242=CARTESIAN_POINT('',(8.60000000000001,34.99999999999941,0.848290545827578));
#243=CARTESIAN_POINT('',(8.60000000000001,34.99999999999941,1.387779E-015));
#244=B_SPLINE_CURVE_WITH_KNOTS('',3,(#226,#227,#228,#229,#230,#231,#232,#233,#234,#235,#236,#237,#238,#239,#240,#241,#242,#243),.UNSPECIFIED.,.F.,.U.,(4,2,2,2,2,2,2,2,4),(0.0,0.390590396614096,0.781180793228192,1.189488874094368,1.597796954960543,1.94570202725367,2.293607099546797,2.54809426329507,2.802581427043343),.UNSPECIFIED.);
#245=EDGE_CURVE('',#204,#174,#244,.T.);
#246=ORIENTED_EDGE('',*,*,#245,.T.);
#247=EDGE_LOOP('',(#202,#225,#246));
#248=FACE_OUTER_BOUND('',#247,.T.);
#249=ADVANCED_FACE('',(#248),#201,.T.);
#250=CARTESIAN_POINT('',(0.0,12.5,0.0));
#251=DIRECTION('',(0.0,-1.0,0.0));
#252=DIRECTION('',(1.0,0.0,0.0));
#253=AXIS2_PLACEMENT_3D('',#250,#251,#252);
#254=CYLINDRICAL_SURFACE('',#253,8.60000000000001);
#255=CARTESIAN_POINT('',(8.60000000000001,2.220446E-015,0.0));
#256=VERTEX_POINT('',#255);
#257=CARTESIAN_POINT('',(0.0,0.0,0.0));
#258=DIRECTION('',(0.0,-1.0,0.0));
#259=DIRECTION('',(1.0,0.0,0.0));
#260=AXIS2_PLACEMENT_3D('',#257,#258,#259);
#261=CIRCLE('',#260,8.60000000000001);
#262=EDGE_CURVE('',#256,#256,#261,.T.);
#263=ORIENTED_EDGE('',*,*,#262,.F.);
#264=EDGE_LOOP('',(#263));
#265=FACE_OUTER_BOUND('',#264,.T.);
#266=ORIENTED_EDGE('',*,*,#224,.F.);
#267=ORIENTED_EDGE('',*,*,#245,.F.);
#268=EDGE_LOOP('',(#266,#267));
#269=FACE_BOUND('',#268,.T.);
#270=ADVANCED_FACE('',(#265,#269),#254,.T.);
#271=CARTESIAN_POINT('',(4.300000000000005,2.220446E-015,0.0));
#272=DIRECTION('',(0.0,-1.0,0.0));
#273=DIRECTION('',(0.0,0.0,-1.0));
#274=AXIS2_PLACEMENT_3D('',#271,#272,#273);
#275=PLANE('',#274);
#276=ORIENTED_EDGE('',*,*,#262,.T.);
#277=EDGE_LOOP('',(#276));
#278=FACE_OUTER_BOUND('',#277,.T.);
#279=ORIENTED_EDGE('',*,*,#149,.T.);
#280=EDGE_LOOP('',(#279));
#281=FACE_BOUND('',#280,.T.);
#282=ADVANCED_FACE('',(#278,#281),#275,.T.);
#283=CLOSED_SHELL('',(#116,#136,#156,#184,#196,#249,#270,#282));
#284=MANIFOLD_SOLID_BREP('Volumenk\S\vrper2',#283);
#285=COLOUR_RGB('Metall - Stahl',0.639216005802155,0.639216005802155,0.686275005340576);
#286=FILL_AREA_STYLE_COLOUR('Metall - Stahl',#285);
#287=FILL_AREA_STYLE('Metall - Stahl',(#286));
#288=SURFACE_STYLE_FILL_AREA(#287);
#289=SURFACE_SIDE_STYLE('Metall - Stahl',(#288));
#290=SURFACE_STYLE_USAGE(.BOTH.,#289);
#291=PRESENTATION_STYLE_ASSIGNMENT((#290));
#292=STYLED_ITEM('',(#291),#284);
#293=MECHANICAL_DESIGN_GEOMETRIC_PRESENTATION_REPRESENTATION('',(#292),#36);
#294=ADVANCED_BREP_SHAPE_REPRESENTATION('ABSR',(#284),#36);
#295=SHAPE_REPRESENTATION_RELATIONSHIP('SRR','None',#294,#41);
ENDSEC;
END-ISO-10303-21;
