ISO-10303-21;
HEADER;
FILE_DESCRIPTION (( 'STEP AP203' ),
    '1' );
FILE_NAME ('3D_R169_ DN25-20_17323100.STEP',
    '2024-07-17T12:09:25',
    ( '' ),
    ( '' ),
    'SwSTEP 2.0',
    'SolidWorks 2024',
    '' );
FILE_SCHEMA (( 'CONFIG_CONTROL_DESIGN' ));
ENDSEC;

DATA;
#1 = DIRECTION ( 'NONE',  ( 1.000000000000000000, 0.000000000000000000, 0.000000000000000000 ) ) ;
#2 =( NAMED_UNIT ( * ) PLANE_ANGLE_UNIT ( ) SI_UNIT ( $, .RADIAN. ) );
#3 = APPLICATION_PROTOCOL_DEFINITION ( 'international standard', 'config_control_design', 1994, #29 ) ;
#4 = AXIS2_PLACEMENT_3D ( 'NONE', #144, #146, #167 ) ;
#5 = CALENDAR_DATE ( 2024, 17, 7 ) ;
#6 = LOCAL_TIME ( 14, 9, 25.00000000000000000, #94 ) ;
#7 = PERSON_AND_ORGANIZATION ( #22, #75 ) ;
#8 = ADVANCED_FACE ( 'NONE', ( #104, #225 ), #51, .F. ) ;
#9 = AXIS2_PLACEMENT_3D ( 'NONE', #107, #219, #221 ) ;
#10 = PERSON_AND_ORGANIZATION ( #22, #75 ) ;
#11 = EDGE_LOOP ( 'NONE', ( #124, #198 ) ) ;
#12 = CONICAL_SURFACE ( 'NONE', #147, 8.027212152335712503, 0.1651486774146268544 ) ;
#13 = EDGE_LOOP ( 'NONE', ( #52, #17, #193, #242 ) ) ;
#14 = CARTESIAN_POINT ( 'NONE',  ( 0.000000000000000000, 0.000000000000000000, 0.000000000000000000 ) ) ;
#15 = DIRECTION ( 'NONE',  ( 0.000000000000000000, 0.000000000000000000, -1.000000000000000000 ) ) ;
#16 = CC_DESIGN_DATE_AND_TIME_ASSIGNMENT ( #232, #24, ( #152 ) ) ;
#17 = ORIENTED_EDGE ( 'NONE', *, *, #96, .T. ) ;
#18 = ORIENTED_EDGE ( 'NONE', *, *, #61, .F. ) ;
#19 = APPROVAL_ROLE ( '' ) ;
#20 = CLOSED_SHELL ( 'NONE', ( #197, #245, #165, #8, #188, #206 ) ) ;
#21 = CARTESIAN_POINT ( 'NONE',  ( 0.000000000000000000, 1.282500643510752605E-15, -10.47241248990059503 ) ) ;
#22 = PERSON ( 'UNSPECIFIED', 'UNSPECIFIED', 'UNSPECIFIED', ('UNSPECIFIED'), ('UNSPECIFIED'), ('UNSPECIFIED') ) ;
#23 = EDGE_CURVE ( 'NONE', #215, #236, #249, .T. ) ;
#24 = DATE_TIME_ROLE ( 'classification_date' ) ;
#25 = AXIS2_PLACEMENT_3D ( 'NONE', #81, #154, #171 ) ;
#26 = PERSON_AND_ORGANIZATION ( #22, #75 ) ;
#27 = PERSON_AND_ORGANIZATION ( #22, #75 ) ;
#28 = VERTEX_POINT ( 'NONE', #32 ) ;
#29 = APPLICATION_CONTEXT ( 'configuration controlled 3d designs of mechanical parts and assemblies' ) ;
#30 = CARTESIAN_POINT ( 'NONE',  ( 0.000000000000000000, 0.000000000000000000, 0.000000000000000000 ) ) ;
#31 = CARTESIAN_POINT ( 'NONE',  ( 15.00000000000000000, 1.129419793617333275E-15, -7.972412489900592369 ) ) ;
#32 = CARTESIAN_POINT ( 'NONE',  ( 0.000000000000000000, 2.296212748401287183E-15, -12.50000000000000000 ) ) ;
#33 = PRODUCT_DEFINITION ( 'UNKNOWN', '', #145, #172 ) ;
#34 = CC_DESIGN_APPROVAL ( #184, ( #145 ) ) ;
#35 = ORIENTED_EDGE ( 'NONE', *, *, #60, .T. ) ;
#36 = DIRECTION ( 'NONE',  ( 0.000000000000000000, 0.000000000000000000, -1.000000000000000000 ) ) ;
#37 = CONICAL_SURFACE ( 'NONE', #130, 10.00000000000000000, 0.1651486774146268544 ) ;
#38 = CARTESIAN_POINT ( 'NONE',  ( 0.000000000000000000, 0.000000000000000000, 0.000000000000000000 ) ) ;
#39 = FACE_BOUND ( 'NONE', #201, .T. ) ;
#40 = DIRECTION ( 'NONE',  ( -1.000000000000000000, -0.000000000000000000, -0.000000000000000000 ) ) ;
#41 = CARTESIAN_POINT ( 'NONE',  ( 15.00000000000000000, 0.000000000000000000, 0.000000000000000000 ) ) ;
#42 = CALENDAR_DATE ( 2024, 17, 7 ) ;
#43 = PRODUCT_DEFINITION_SHAPE ( 'NONE', 'NONE',  #33 ) ;
#44 = APPLICATION_CONTEXT ( 'configuration controlled 3d designs of mechanical parts and assemblies' ) ;
#45 = CIRCLE ( 'NONE', #95, 12.50000000000000000 ) ;
#46 = CC_DESIGN_PERSON_AND_ORGANIZATION_ASSIGNMENT ( #7, #84, ( #33 ) ) ;
#47 = COORDINATED_UNIVERSAL_TIME_OFFSET ( 1, 0, .AHEAD. ) ;
#48 = ORIENTED_EDGE ( 'NONE', *, *, #89, .T. ) ;
#49 = COORDINATED_UNIVERSAL_TIME_OFFSET ( 1, 0, .AHEAD. ) ;
#50 = APPROVAL_STATUS ( 'not_yet_approved' ) ;
#51 = PLANE ( 'NONE',  #110 ) ;
#52 = ORIENTED_EDGE ( 'NONE', *, *, #60, .F. ) ;
#53 = CIRCLE ( 'NONE', #9, 7.972412489900592369 ) ;
#54 = DIRECTION ( 'NONE',  ( 0.000000000000000000, 0.000000000000000000, -1.000000000000000000 ) ) ;
#55 = DIRECTION ( 'NONE',  ( 1.000000000000000000, 0.000000000000000000, 0.000000000000000000 ) ) ;
#56 = CARTESIAN_POINT ( 'NONE',  ( 15.00000000000000000, 0.000000000000000000, 0.000000000000000000 ) ) ;
#57 = DIRECTION ( 'NONE',  ( 1.000000000000000000, 0.000000000000000000, 0.000000000000000000 ) ) ;
#58 = DIRECTION ( 'NONE',  ( 0.000000000000000000, 0.000000000000000000, -1.000000000000000000 ) ) ;
#59 = LOCAL_TIME ( 14, 9, 25.00000000000000000, #49 ) ;
#60 = EDGE_CURVE ( 'NONE', #109, #236, #72, .T. ) ;
#61 = EDGE_CURVE ( 'NONE', #178, #186, #137, .T. ) ;
#62 = CARTESIAN_POINT ( 'NONE',  ( 0.000000000000000000, 0.000000000000000000, 0.000000000000000000 ) ) ;
#63 = CARTESIAN_POINT ( 'NONE',  ( 14.67120202538928631, 0.000000000000000000, 8.027212152335712503 ) ) ;
#64 = APPROVAL_DATE_TIME ( #139, #102 ) ;
#65 = ORIENTED_EDGE ( 'NONE', *, *, #132, .F. ) ;
#66 = AXIS2_PLACEMENT_3D ( 'NONE', #156, #40, #136 ) ;
#67 = CALENDAR_DATE ( 2024, 17, 7 ) ;
#68 = ORIENTED_EDGE ( 'NONE', *, *, #96, .F. ) ;
#69 = CC_DESIGN_PERSON_AND_ORGANIZATION_ASSIGNMENT ( #82, #229, ( #157 ) ) ;
#70 = CIRCLE ( 'NONE', #228, 10.47241248990059503 ) ;
#71 = EDGE_LOOP ( 'NONE', ( #48, #35, #213, #234 ) ) ;
#72 = LINE ( 'NONE', #92, #173 ) ;
#73 = EDGE_CURVE ( 'NONE', #186, #178, #87, .T. ) ;
#74 = ORIENTED_EDGE ( 'NONE', *, *, #23, .T. ) ;
#75 = ORGANIZATION ( 'UNSPECIFIED', 'UNSPECIFIED', '' ) ;
#76 = EDGE_LOOP ( 'NONE', ( #74, #138 ) ) ;
#77 = ORIENTED_EDGE ( 'NONE', *, *, #73, .T. ) ;
#78 = CARTESIAN_POINT ( 'NONE',  ( 14.67120202538928631, 0.000000000000000000, 0.000000000000000000 ) ) ;
#79 = CONICAL_SURFACE ( 'NONE', #25, 8.027212152335712503, 0.1651486774146268544 ) ;
#80 = EDGE_CURVE ( 'NONE', #236, #215, #70, .T. ) ;
#81 = CARTESIAN_POINT ( 'NONE',  ( 14.67120202538928631, 0.000000000000000000, 0.000000000000000000 ) ) ;
#82 = PERSON_AND_ORGANIZATION ( #22, #75 ) ;
#83 = AXIS2_PLACEMENT_3D ( 'NONE', #241, #240, #199 ) ;
#84 = PERSON_AND_ORGANIZATION_ROLE ( 'creator' ) ;
#85 = PERSON_AND_ORGANIZATION_ROLE ( 'classification_officer' ) ;
#86 = DATE_AND_TIME ( #5, #216 ) ;
#87 = CIRCLE ( 'NONE', #4, 10.00000000000000000 ) ;
#88 = DIRECTION ( 'NONE',  ( 1.000000000000000000, 0.000000000000000000, 0.000000000000000000 ) ) ;
#89 = EDGE_CURVE ( 'NONE', #164, #109, #53, .T. ) ;
#90 = DIRECTION ( 'NONE',  ( 1.000000000000000000, 0.000000000000000000, 0.000000000000000000 ) ) ;
#91 = CARTESIAN_POINT ( 'NONE',  ( 15.00000000000000000, 0.000000000000000000, 7.972412489900592369 ) ) ;
#92 = CARTESIAN_POINT ( 'NONE',  ( 14.67120202538928631, 9.830499668434666417E-16, -8.027212152335712503 ) ) ;
#93 = PLANE ( 'NONE',  #182 ) ;
#94 = COORDINATED_UNIVERSAL_TIME_OFFSET ( 1, 0, .AHEAD. ) ;
#95 = AXIS2_PLACEMENT_3D ( 'NONE', #14, #90, #54 ) ;
#96 = EDGE_CURVE ( 'NONE', #109, #164, #203, .T. ) ;
#97 = FACE_OUTER_BOUND ( 'NONE', #224, .T. ) ;
#98 = CALENDAR_DATE ( 2024, 17, 7 ) ;
#99 = AXIS2_PLACEMENT_3D ( 'NONE', #56, #200, #111 ) ;
#100 = ORIENTED_EDGE ( 'NONE', *, *, #73, .F. ) ;
#101 = CALENDAR_DATE ( 2024, 17, 7 ) ;
#102 = APPROVAL ( #161, 'UNSPECIFIED' ) ;
#103 = CC_DESIGN_PERSON_AND_ORGANIZATION_ASSIGNMENT ( #27, #117, ( #145 ) ) ;
#104 = FACE_BOUND ( 'NONE', #76, .T. ) ;
#105 = CONICAL_SURFACE ( 'NONE', #66, 10.00000000000000000, 0.1651486774146268544 ) ;
#106 = CARTESIAN_POINT ( 'NONE',  ( 15.00000000000000000, 1.224646799147353256E-15, -10.00000000000000000 ) ) ;
#107 = CARTESIAN_POINT ( 'NONE',  ( 15.00000000000000000, 0.000000000000000000, 0.000000000000000000 ) ) ;
#108 = LOCAL_TIME ( 14, 9, 25.00000000000000000, #141 ) ;
#109 = VERTEX_POINT ( 'NONE', #31 ) ;
#110 = AXIS2_PLACEMENT_3D ( 'NONE', #30, #88, #183 ) ;
#111 = DIRECTION ( 'NONE',  ( 0.000000000000000000, 0.000000000000000000, -1.000000000000000000 ) ) ;
#112 = DIRECTION ( 'NONE',  ( -0.9863939238321436376, 0.000000000000000000, 0.1643989873053572914 ) ) ;
#113 =( LENGTH_UNIT ( ) NAMED_UNIT ( * ) SI_UNIT ( .MILLI., .METRE. ) );
#114 = CARTESIAN_POINT ( 'NONE',  ( 15.00000000000000000, 6.123233995736766282E-16, -10.00000000000000000 ) ) ;
#115 = FACE_OUTER_BOUND ( 'NONE', #195, .T. ) ;
#116 = DIRECTION ( 'NONE',  ( 0.000000000000000000, 0.000000000000000000, 1.000000000000000000 ) ) ;
#117 = PERSON_AND_ORGANIZATION_ROLE ( 'design_supplier' ) ;
#118 = VECTOR ( 'NONE', #222, 1000.000000000000227 ) ;
#119 = ORIENTED_EDGE ( 'NONE', *, *, #237, .T. ) ;
#120 = APPROVAL_DATE_TIME ( #192, #238 ) ;
#121 = APPROVAL_DATE_TIME ( #196, #184 ) ;
#122 = ORIENTED_EDGE ( 'NONE', *, *, #89, .F. ) ;
#123 = CC_DESIGN_APPROVAL ( #238, ( #33 ) ) ;
#124 = ORIENTED_EDGE ( 'NONE', *, *, #237, .F. ) ;
#125 =( GEOMETRIC_REPRESENTATION_CONTEXT ( 3 ) GLOBAL_UNCERTAINTY_ASSIGNED_CONTEXT ( ( #244 ) ) GLOBAL_UNIT_ASSIGNED_CONTEXT ( ( #113, #2, #190 ) ) REPRESENTATION_CONTEXT ( 'NONE', 'WORKASPACE' ) );
#126 = VERTEX_POINT ( 'NONE', #187 ) ;
#127 = CARTESIAN_POINT ( 'NONE',  ( 0.000000000000000000, 0.000000000000000000, 0.000000000000000000 ) ) ;
#128 = EDGE_LOOP ( 'NONE', ( #140, #77 ) ) ;
#129 = MANIFOLD_SOLID_BREP ( 'Wandung2', #20 ) ;
#130 = AXIS2_PLACEMENT_3D ( 'NONE', #41, #207, #116 ) ;
#131 = DIRECTION ( 'NONE',  ( 0.000000000000000000, 0.000000000000000000, 1.000000000000000000 ) ) ;
#132 = EDGE_CURVE ( 'NONE', #178, #126, #143, .T. ) ;
#133 = APPLICATION_PROTOCOL_DEFINITION ( 'international standard', 'config_control_design', 1994, #44 ) ;
#134 = LINE ( 'NONE', #63, #163 ) ;
#135 = DIRECTION ( 'NONE',  ( 0.000000000000000000, 0.000000000000000000, 1.000000000000000000 ) ) ;
#136 = DIRECTION ( 'NONE',  ( 0.000000000000000000, 0.000000000000000000, 1.000000000000000000 ) ) ;
#137 = CIRCLE ( 'NONE', #83, 10.00000000000000000 ) ;
#138 = ORIENTED_EDGE ( 'NONE', *, *, #80, .T. ) ;
#139 = DATE_AND_TIME ( #67, #191 ) ;
#140 = ORIENTED_EDGE ( 'NONE', *, *, #61, .T. ) ;
#141 = COORDINATED_UNIVERSAL_TIME_OFFSET ( 1, 0, .AHEAD. ) ;
#142 = VECTOR ( 'NONE', #185, 1000.000000000000227 ) ;
#143 = LINE ( 'NONE', #162, #142 ) ;
#144 = CARTESIAN_POINT ( 'NONE',  ( 15.00000000000000000, 0.000000000000000000, 0.000000000000000000 ) ) ;
#145 = PRODUCT_DEFINITION_FORMATION_WITH_SPECIFIED_SOURCE ( 'ANY', '', #157, .NOT_KNOWN. ) ;
#146 = DIRECTION ( 'NONE',  ( 1.000000000000000000, 0.000000000000000000, 0.000000000000000000 ) ) ;
#147 = AXIS2_PLACEMENT_3D ( 'NONE', #78, #153, #131 ) ;
#148 = EDGE_CURVE ( 'NONE', #186, #28, #150, .T. ) ;
#149 = CC_DESIGN_PERSON_AND_ORGANIZATION_ASSIGNMENT ( #174, #212, ( #145 ) ) ;
#150 = LINE ( 'NONE', #106, #118 ) ;
#151 = ORIENTED_EDGE ( 'NONE', *, *, #132, .T. ) ;
#152 = SECURITY_CLASSIFICATION ( '', '', #158 ) ;
#153 = DIRECTION ( 'NONE',  ( -1.000000000000000000, -0.000000000000000000, -0.000000000000000000 ) ) ;
#154 = DIRECTION ( 'NONE',  ( -1.000000000000000000, -0.000000000000000000, -0.000000000000000000 ) ) ;
#155 = APPROVAL_PERSON_ORGANIZATION ( #209, #238, #19 ) ;
#156 = CARTESIAN_POINT ( 'NONE',  ( 15.00000000000000000, 0.000000000000000000, 0.000000000000000000 ) ) ;
#157 = PRODUCT ( '3D_R169_ DN25-20_17323100', '3D_R169_ DN25-20_17323100', '', ( #248 ) ) ;
#158 = SECURITY_CLASSIFICATION_LEVEL ( 'unclassified' ) ;
#159 = CC_DESIGN_SECURITY_CLASSIFICATION ( #152, ( #145 ) ) ;
#160 = EDGE_CURVE ( 'NONE', #28, #126, #45, .T. ) ;
#161 = APPROVAL_STATUS ( 'not_yet_approved' ) ;
#162 = CARTESIAN_POINT ( 'NONE',  ( 15.00000000000000000, 0.000000000000000000, 10.00000000000000000 ) ) ;
#163 = VECTOR ( 'NONE', #112, 1000.000000000000227 ) ;
#164 = VERTEX_POINT ( 'NONE', #91 ) ;
#165 = ADVANCED_FACE ( 'NONE', ( #39, #208 ), #93, .T. ) ;
#166 = ORIENTED_EDGE ( 'NONE', *, *, #160, .T. ) ;
#167 = DIRECTION ( 'NONE',  ( 0.000000000000000000, 0.000000000000000000, -1.000000000000000000 ) ) ;
#168 = CARTESIAN_POINT ( 'NONE',  ( 15.00000000000000000, 0.000000000000000000, 0.000000000000000000 ) ) ;
#169 = DIRECTION ( 'NONE',  ( 0.000000000000000000, 0.000000000000000000, -1.000000000000000000 ) ) ;
#170 = AXIS2_PLACEMENT_3D ( 'NONE', #38, #230, #169 ) ;
#171 = DIRECTION ( 'NONE',  ( 0.000000000000000000, 0.000000000000000000, 1.000000000000000000 ) ) ;
#172 = DESIGN_CONTEXT ( 'detailed design', #44, 'design' ) ;
#173 = VECTOR ( 'NONE', #202, 1000.000000000000227 ) ;
#174 = PERSON_AND_ORGANIZATION ( #22, #75 ) ;
#175 = CC_DESIGN_PERSON_AND_ORGANIZATION_ASSIGNMENT ( #26, #85, ( #152 ) ) ;
#176 = ORIENTED_EDGE ( 'NONE', *, *, #148, .T. ) ;
#177 = APPROVAL_PERSON_ORGANIZATION ( #239, #184, #194 ) ;
#178 = VERTEX_POINT ( 'NONE', #247 ) ;
#179 = CIRCLE ( 'NONE', #170, 12.50000000000000000 ) ;
#180 = COORDINATED_UNIVERSAL_TIME_OFFSET ( 1, 0, .AHEAD. ) ;
#181 = ORIENTED_EDGE ( 'NONE', *, *, #148, .F. ) ;
#182 = AXIS2_PLACEMENT_3D ( 'NONE', #168, #57, #58 ) ;
#183 = DIRECTION ( 'NONE',  ( 0.000000000000000000, 0.000000000000000000, -1.000000000000000000 ) ) ;
#184 = APPROVAL ( #50, 'UNSPECIFIED' ) ;
#185 = DIRECTION ( 'NONE',  ( -0.9863939238321436376, 0.000000000000000000, 0.1643989873053572914 ) ) ;
#186 = VERTEX_POINT ( 'NONE', #114 ) ;
#187 = CARTESIAN_POINT ( 'NONE',  ( 0.000000000000000000, -7.654042494670957606E-16, 12.50000000000000000 ) ) ;
#188 = ADVANCED_FACE ( 'NONE', ( #97 ), #37, .T. ) ;
#189 = CC_DESIGN_DATE_AND_TIME_ASSIGNMENT ( #86, #217, ( #33 ) ) ;
#190 =( NAMED_UNIT ( * ) SI_UNIT ( $, .STERADIAN. ) SOLID_ANGLE_UNIT ( ) );
#191 = LOCAL_TIME ( 14, 9, 25.00000000000000000, #180 ) ;
#192 = DATE_AND_TIME ( #42, #6 ) ;
#193 = ORIENTED_EDGE ( 'NONE', *, *, #220, .T. ) ;
#194 = APPROVAL_ROLE ( '' ) ;
#195 = EDGE_LOOP ( 'NONE', ( #100, #176, #166, #65 ) ) ;
#196 = DATE_AND_TIME ( #98, #59 ) ;
#197 = ADVANCED_FACE ( 'NONE', ( #231 ), #12, .F. ) ;
#198 = ORIENTED_EDGE ( 'NONE', *, *, #160, .F. ) ;
#199 = DIRECTION ( 'NONE',  ( 0.000000000000000000, 0.000000000000000000, -1.000000000000000000 ) ) ;
#200 = DIRECTION ( 'NONE',  ( 1.000000000000000000, 0.000000000000000000, 0.000000000000000000 ) ) ;
#201 = EDGE_LOOP ( 'NONE', ( #122, #68 ) ) ;
#202 = DIRECTION ( 'NONE',  ( -0.9863939238321436376, 2.013306935865721995E-17, -0.1643989873053572914 ) ) ;
#203 = CIRCLE ( 'NONE', #99, 7.972412489900592369 ) ;
#204 = CARTESIAN_POINT ( 'NONE',  ( 0.000000000000000000, 0.000000000000000000, 10.47241248990059503 ) ) ;
#205 = APPROVAL_STATUS ( 'not_yet_approved' ) ;
#206 = ADVANCED_FACE ( 'NONE', ( #227 ), #79, .F. ) ;
#207 = DIRECTION ( 'NONE',  ( -1.000000000000000000, -0.000000000000000000, -0.000000000000000000 ) ) ;
#208 = FACE_OUTER_BOUND ( 'NONE', #128, .T. ) ;
#209 = PERSON_AND_ORGANIZATION ( #22, #75 ) ;
#210 = APPROVAL_PERSON_ORGANIZATION ( #10, #102, #235 ) ;
#211 = AXIS2_PLACEMENT_3D ( 'NONE', #127, #55, #15 ) ;
#212 = PERSON_AND_ORGANIZATION_ROLE ( 'creator' ) ;
#213 = ORIENTED_EDGE ( 'NONE', *, *, #23, .F. ) ;
#214 = SHAPE_DEFINITION_REPRESENTATION ( #43, #233 ) ;
#215 = VERTEX_POINT ( 'NONE', #204 ) ;
#216 = LOCAL_TIME ( 14, 9, 25.00000000000000000, #47 ) ;
#217 = DATE_TIME_ROLE ( 'creation_date' ) ;
#218 = PRODUCT_RELATED_PRODUCT_CATEGORY ( 'detail', '', ( #157 ) ) ;
#219 = DIRECTION ( 'NONE',  ( 1.000000000000000000, 0.000000000000000000, 0.000000000000000000 ) ) ;
#220 = EDGE_CURVE ( 'NONE', #164, #215, #134, .T. ) ;
#221 = DIRECTION ( 'NONE',  ( 0.000000000000000000, 0.000000000000000000, -1.000000000000000000 ) ) ;
#222 = DIRECTION ( 'NONE',  ( -0.9863939238321436376, 2.013306935865721995E-17, -0.1643989873053572914 ) ) ;
#223 = AXIS2_PLACEMENT_3D ( 'NONE', #62, #135, #1 ) ;
#224 = EDGE_LOOP ( 'NONE', ( #181, #18, #151, #119 ) ) ;
#225 = FACE_OUTER_BOUND ( 'NONE', #11, .T. ) ;
#226 = CC_DESIGN_APPROVAL ( #102, ( #152 ) ) ;
#227 = FACE_OUTER_BOUND ( 'NONE', #13, .T. ) ;
#228 = AXIS2_PLACEMENT_3D ( 'NONE', #246, #243, #36 ) ;
#229 = PERSON_AND_ORGANIZATION_ROLE ( 'design_owner' ) ;
#230 = DIRECTION ( 'NONE',  ( 1.000000000000000000, 0.000000000000000000, 0.000000000000000000 ) ) ;
#231 = FACE_OUTER_BOUND ( 'NONE', #71, .T. ) ;
#232 = DATE_AND_TIME ( #101, #108 ) ;
#233 = ADVANCED_BREP_SHAPE_REPRESENTATION ( '3D_R169_ DN25-20_17323100', ( #129, #223 ), #125 ) ;
#234 = ORIENTED_EDGE ( 'NONE', *, *, #220, .F. ) ;
#235 = APPROVAL_ROLE ( '' ) ;
#236 = VERTEX_POINT ( 'NONE', #21 ) ;
#237 = EDGE_CURVE ( 'NONE', #126, #28, #179, .T. ) ;
#238 = APPROVAL ( #205, 'UNSPECIFIED' ) ;
#239 = PERSON_AND_ORGANIZATION ( #22, #75 ) ;
#240 = DIRECTION ( 'NONE',  ( 1.000000000000000000, 0.000000000000000000, 0.000000000000000000 ) ) ;
#241 = CARTESIAN_POINT ( 'NONE',  ( 15.00000000000000000, 0.000000000000000000, 0.000000000000000000 ) ) ;
#242 = ORIENTED_EDGE ( 'NONE', *, *, #80, .F. ) ;
#243 = DIRECTION ( 'NONE',  ( 1.000000000000000000, 0.000000000000000000, 0.000000000000000000 ) ) ;
#244 = UNCERTAINTY_MEASURE_WITH_UNIT (LENGTH_MEASURE( 1.000000000000000082E-05 ), #113, 'distance_accuracy_value', 'NONE');
#245 = ADVANCED_FACE ( 'NONE', ( #115 ), #105, .T. ) ;
#246 = CARTESIAN_POINT ( 'NONE',  ( 0.000000000000000000, 0.000000000000000000, 0.000000000000000000 ) ) ;
#247 = CARTESIAN_POINT ( 'NONE',  ( 15.00000000000000000, 6.123233995736766282E-16, 10.00000000000000000 ) ) ;
#248 = MECHANICAL_CONTEXT ( 'NONE', #29, 'mechanical' ) ;
#249 = CIRCLE ( 'NONE', #211, 10.47241248990059503 ) ;
ENDSEC;
END-ISO-10303-21;
