ISO-10303-21;
HEADER;
FILE_DESCRIPTION (( 'STEP AP203' ),
    '1' );
FILE_NAME ('3D_R1620_76.1x2_173630150_173631140.STEP',
    '2024-08-27T11:07:18',
    ( '' ),
    ( '' ),
    'SwSTEP 2.0',
    'SolidWorks 2024',
    '' );
FILE_SCHEMA (( 'CONFIG_CONTROL_DESIGN' ));
ENDSEC;

DATA;
#1 = FACE_BOUND ( 'NONE', #236, .T. ) ;
#2 = DIRECTION ( 'NONE',  ( -1.324755644302603424E-16, 0.000000000000000000, 1.000000000000000000 ) ) ;
#3 = EDGE_CURVE ( 'NONE', #159, #189, #68, .T. ) ;
#4 = PERSON_AND_ORGANIZATION ( #56, #9 ) ;
#5 = CIRCLE ( 'NONE', #27, 35.75000000000000711 ) ;
#6 = CARTESIAN_POINT ( 'NONE',  ( -7.255571035687867749E-14, 0.000000000000000000, -24.94999999999999929 ) ) ;
#7 = EDGE_CURVE ( 'NONE', #75, #90, #176, .T. ) ;
#8 = SHAPE_DEFINITION_REPRESENTATION ( #88, #164 ) ;
#9 = ORGANIZATION ( 'UNSPECIFIED', 'UNSPECIFIED', '' ) ;
#10 = ORIENTED_EDGE ( 'NONE', *, *, #110, .T. ) ;
#11 = ADVANCED_FACE ( 'NONE', ( #198 ), #65, .T. ) ;
#12 = PERSON_AND_ORGANIZATION ( #56, #9 ) ;
#13 = CIRCLE ( 'NONE', #83, 38.04999999999999716 ) ;
#14 = CC_DESIGN_PERSON_AND_ORGANIZATION_ASSIGNMENT ( #220, #70, ( #175 ) ) ;
#15 = PLANE ( 'NONE',  #113 ) ;
#16 = DIRECTION ( 'NONE',  ( 1.000000000000000000, 0.000000000000000000, 1.324755644302603178E-16 ) ) ;
#17 = DIRECTION ( 'NONE',  ( 0.000000000000000000, 0.000000000000000000, 1.000000000000000000 ) ) ;
#18 =( GEOMETRIC_REPRESENTATION_CONTEXT ( 3 ) GLOBAL_UNCERTAINTY_ASSIGNED_CONTEXT ( ( #223 ) ) GLOBAL_UNIT_ASSIGNED_CONTEXT ( ( #49, #82, #125 ) ) REPRESENTATION_CONTEXT ( 'NONE', 'WORKASPACE' ) );
#19 = ADVANCED_FACE ( 'NONE', ( #216 ), #151, .F. ) ;
#20 = DIRECTION ( 'NONE',  ( 0.000000000000000000, 0.000000000000000000, 1.000000000000000000 ) ) ;
#21 = PRODUCT ( '3D_R1620_76.1x2_173630150_173631140', '3D_R1620_76.1x2_173630150_173631140', '', ( #26 ) ) ;
#22 = DATE_TIME_ROLE ( 'creation_date' ) ;
#23 = APPROVAL ( #30, 'UNSPECIFIED' ) ;
#24 = AXIS2_PLACEMENT_3D ( 'NONE', #118, #63, #95 ) ;
#25 = PERSON_AND_ORGANIZATION_ROLE ( 'design_owner' ) ;
#26 = MECHANICAL_CONTEXT ( 'NONE', #191, 'mechanical' ) ;
#27 = AXIS2_PLACEMENT_3D ( 'NONE', #80, #163, #16 ) ;
#28 = APPROVAL_DATE_TIME ( #109, #23 ) ;
#29 = DATE_TIME_ROLE ( 'classification_date' ) ;
#30 = APPROVAL_STATUS ( 'not_yet_approved' ) ;
#31 = VERTEX_POINT ( 'NONE', #141 ) ;
#32 = EDGE_CURVE ( 'NONE', #189, #31, #87, .T. ) ;
#33 = APPROVAL_PERSON_ORGANIZATION ( #4, #114, #187 ) ;
#34 = APPROVAL_DATE_TIME ( #227, #114 ) ;
#35 = ORIENTED_EDGE ( 'NONE', *, *, #229, .T. ) ;
#36 = ORIENTED_EDGE ( 'NONE', *, *, #218, .F. ) ;
#37 = MANIFOLD_SOLID_BREP ( 'Wandung1', #102 ) ;
#38 = AXIS2_PLACEMENT_3D ( 'NONE', #214, #40, #61 ) ;
#39 = DIRECTION ( 'NONE',  ( -1.324755644302603424E-16, 0.000000000000000000, 1.000000000000000000 ) ) ;
#40 = DIRECTION ( 'NONE',  ( -1.324755644302603424E-16, 0.000000000000000000, 1.000000000000000000 ) ) ;
#41 = DIRECTION ( 'NONE',  ( 0.000000000000000000, 1.000000000000000000, 0.000000000000000000 ) ) ;
#42 = EDGE_LOOP ( 'NONE', ( #180, #150, #157, #193 ) ) ;
#43 = APPROVAL_PERSON_ORGANIZATION ( #153, #23, #115 ) ;
#44 = FACE_OUTER_BOUND ( 'NONE', #117, .T. ) ;
#45 = DATE_AND_TIME ( #219, #77 ) ;
#46 = APPLICATION_PROTOCOL_DEFINITION ( 'international standard', 'config_control_design', 1994, #103 ) ;
#47 = APPROVAL_PERSON_ORGANIZATION ( #202, #235, #185 ) ;
#48 = APPROVAL_STATUS ( 'not_yet_approved' ) ;
#49 =( LENGTH_UNIT ( ) NAMED_UNIT ( * ) SI_UNIT ( .MILLI., .METRE. ) );
#50 = AXIS2_PLACEMENT_3D ( 'NONE', #128, #2, #104 ) ;
#51 = APPROVAL_STATUS ( 'not_yet_approved' ) ;
#52 = ADVANCED_FACE ( 'NONE', ( #1, #124 ), #15, .T. ) ;
#53 = DESIGN_CONTEXT ( 'detailed design', #103, 'design' ) ;
#54 = LOCAL_TIME ( 13, 7, 18.00000000000000000, #91 ) ;
#55 = ORIENTED_EDGE ( 'NONE', *, *, #105, .F. ) ;
#56 = PERSON ( 'UNSPECIFIED', 'UNSPECIFIED', 'UNSPECIFIED', ('UNSPECIFIED'), ('UNSPECIFIED'), ('UNSPECIFIED') ) ;
#57 = CARTESIAN_POINT ( 'NONE',  ( -1.913550184020853875E-13, 0.000000000000000000, -63.00000000000000000 ) ) ;
#58 = AXIS2_PLACEMENT_3D ( 'NONE', #144, #239, #130 ) ;
#59 = CC_DESIGN_PERSON_AND_ORGANIZATION_ASSIGNMENT ( #112, #133, ( #221 ) ) ;
#60 = DIRECTION ( 'NONE',  ( 3.037381244477545545E-15, 0.000000000000000000, 1.000000000000000000 ) ) ;
#61 = DIRECTION ( 'NONE',  ( 1.000000000000000000, 0.000000000000000000, 1.324755644302603178E-16 ) ) ;
#62 = EDGE_CURVE ( 'NONE', #159, #178, #195, .T. ) ;
#63 = DIRECTION ( 'NONE',  ( 0.000000000000000000, 1.000000000000000000, 0.000000000000000000 ) ) ;
#64 = DIRECTION ( 'NONE',  ( 0.000000000000000000, 1.000000000000000000, 0.000000000000000000 ) ) ;
#65 = TOROIDAL_SURFACE ( 'NONE', #24, 63.00000000000000000, 38.04999999999999716 ) ;
#66 = DIRECTION ( 'NONE',  ( -1.000000000000000000, 0.000000000000000000, 3.037381244477545939E-15 ) ) ;
#67 = DIRECTION ( 'NONE',  ( 0.000000000000000000, 1.000000000000000000, 0.000000000000000000 ) ) ;
#68 = CIRCLE ( 'NONE', #243, 27.24999999999999645 ) ;
#69 = PLANE ( 'NONE',  #146 ) ;
#70 = PERSON_AND_ORGANIZATION_ROLE ( 'creator' ) ;
#71 = ORIENTED_EDGE ( 'NONE', *, *, #184, .T. ) ;
#72 = TOROIDAL_SURFACE ( 'NONE', #149, 63.00000000000000000, 38.04999999999999716 ) ;
#73 = ORIENTED_EDGE ( 'NONE', *, *, #32, .F. ) ;
#74 = DIRECTION ( 'NONE',  ( 0.000000000000000000, 1.000000000000000000, 0.000000000000000000 ) ) ;
#75 = VERTEX_POINT ( 'NONE', #249 ) ;
#76 = ADVANCED_FACE ( 'NONE', ( #99 ), #92, .F. ) ;
#77 = LOCAL_TIME ( 13, 7, 18.00000000000000000, #183 ) ;
#78 = DIRECTION ( 'NONE',  ( 1.000000000000000000, 0.000000000000000000, 1.324755644302603424E-16 ) ) ;
#79 = CARTESIAN_POINT ( 'NONE',  ( -1.913550184020853875E-13, 0.000000000000000000, -63.00000000000000000 ) ) ;
#80 = CARTESIAN_POINT ( 'NONE',  ( -63.00000000000000000, 0.000000000000000000, -8.345960559106402361E-15 ) ) ;
#81 = CC_DESIGN_PERSON_AND_ORGANIZATION_ASSIGNMENT ( #174, #192, ( #221 ) ) ;
#82 =( NAMED_UNIT ( * ) PLANE_ANGLE_UNIT ( ) SI_UNIT ( $, .RADIAN. ) );
#83 = AXIS2_PLACEMENT_3D ( 'NONE', #131, #66, #145 ) ;
#84 = DIRECTION ( 'NONE',  ( 0.000000000000000000, 0.000000000000000000, 1.000000000000000000 ) ) ;
#85 = DIRECTION ( 'NONE',  ( 1.000000000000000000, 0.000000000000000000, 0.000000000000000000 ) ) ;
#86 = CARTESIAN_POINT ( 'NONE',  ( 0.000000000000000000, 0.000000000000000000, 0.000000000000000000 ) ) ;
#87 = CIRCLE ( 'NONE', #38, 35.75000000000000711 ) ;
#88 = PRODUCT_DEFINITION_SHAPE ( 'NONE', 'NONE',  #175 ) ;
#89 = SECURITY_CLASSIFICATION_LEVEL ( 'unclassified' ) ;
#90 = VERTEX_POINT ( 'NONE', #215 ) ;
#91 = COORDINATED_UNIVERSAL_TIME_OFFSET ( 1, 0, .AHEAD. ) ;
#92 = TOROIDAL_SURFACE ( 'NONE', #248, 63.00000000000000000, 35.75000000000000711 ) ;
#93 = ORIENTED_EDGE ( 'NONE', *, *, #218, .T. ) ;
#94 = AXIS2_PLACEMENT_3D ( 'NONE', #143, #74, #158 ) ;
#95 = DIRECTION ( 'NONE',  ( 0.000000000000000000, 0.000000000000000000, 1.000000000000000000 ) ) ;
#96 = DIRECTION ( 'NONE',  ( -1.000000000000000000, 0.000000000000000000, 3.037381244477545939E-15 ) ) ;
#97 = DIRECTION ( 'NONE',  ( 3.037381244477545545E-15, 0.000000000000000000, 1.000000000000000000 ) ) ;
#98 = CIRCLE ( 'NONE', #58, 38.04999999999999716 ) ;
#99 = FACE_OUTER_BOUND ( 'NONE', #135, .T. ) ;
#100 = CARTESIAN_POINT ( 'NONE',  ( 0.000000000000000000, 0.000000000000000000, 0.000000000000000000 ) ) ;
#101 = CALENDAR_DATE ( 2024, 27, 8 ) ;
#102 = CLOSED_SHELL ( 'NONE', ( #19, #171, #11, #52, #246, #76 ) ) ;
#103 = APPLICATION_CONTEXT ( 'configuration controlled 3d designs of mechanical parts and assemblies' ) ;
#104 = DIRECTION ( 'NONE',  ( 1.000000000000000000, 0.000000000000000000, 1.324755644302603424E-16 ) ) ;
#105 = EDGE_CURVE ( 'NONE', #31, #189, #5, .T. ) ;
#106 = DIRECTION ( 'NONE',  ( 0.000000000000000000, 0.000000000000000000, 1.000000000000000000 ) ) ;
#107 = PERSON_AND_ORGANIZATION ( #56, #9 ) ;
#108 = AXIS2_PLACEMENT_3D ( 'NONE', #100, #64, #20 ) ;
#109 = DATE_AND_TIME ( #148, #186 ) ;
#110 = EDGE_CURVE ( 'NONE', #178, #159, #123, .T. ) ;
#111 = EDGE_LOOP ( 'NONE', ( #154, #10 ) ) ;
#112 = PERSON_AND_ORGANIZATION ( #56, #9 ) ;
#113 = AXIS2_PLACEMENT_3D ( 'NONE', #177, #231, #253 ) ;
#114 = APPROVAL ( #51, 'UNSPECIFIED' ) ;
#115 = APPROVAL_ROLE ( '' ) ;
#116 = VERTEX_POINT ( 'NONE', #162 ) ;
#117 = EDGE_LOOP ( 'NONE', ( #245, #251 ) ) ;
#118 = CARTESIAN_POINT ( 'NONE',  ( 0.000000000000000000, 0.000000000000000000, 0.000000000000000000 ) ) ;
#119 = EDGE_LOOP ( 'NONE', ( #212, #93 ) ) ;
#120 = ORIENTED_EDGE ( 'NONE', *, *, #201, .F. ) ;
#121 = FACE_OUTER_BOUND ( 'NONE', #173, .T. ) ;
#122 = CC_DESIGN_PERSON_AND_ORGANIZATION_ASSIGNMENT ( #107, #25, ( #21 ) ) ;
#123 = CIRCLE ( 'NONE', #138, 35.75000000000000711 ) ;
#124 = FACE_OUTER_BOUND ( 'NONE', #119, .T. ) ;
#125 =( NAMED_UNIT ( * ) SI_UNIT ( $, .STERADIAN. ) SOLID_ANGLE_UNIT ( ) );
#126 = DIRECTION ( 'NONE',  ( 0.000000000000000000, 0.000000000000000000, 1.000000000000000000 ) ) ;
#127 = PRODUCT_RELATED_PRODUCT_CATEGORY ( 'detail', '', ( #21 ) ) ;
#128 = CARTESIAN_POINT ( 'NONE',  ( -63.00000000000000000, 0.000000000000000000, -1.157291225194249359E-14 ) ) ;
#129 = CIRCLE ( 'NONE', #237, 98.75000000000000000 ) ;
#130 = DIRECTION ( 'NONE',  ( 3.037381244477546334E-15, 0.000000000000000000, 1.000000000000000000 ) ) ;
#131 = CARTESIAN_POINT ( 'NONE',  ( -1.881280667092492994E-13, 0.000000000000000000, -63.00000000000000000 ) ) ;
#132 = AXIS2_PLACEMENT_3D ( 'NONE', #86, #126, #85 ) ;
#133 = PERSON_AND_ORGANIZATION_ROLE ( 'creator' ) ;
#134 = ORIENTED_EDGE ( 'NONE', *, *, #7, .F. ) ;
#135 = EDGE_LOOP ( 'NONE', ( #120, #194, #170, #242 ) ) ;
#136 = LOCAL_TIME ( 13, 7, 18.00000000000000000, #204 ) ;
#137 = COORDINATED_UNIVERSAL_TIME_OFFSET ( 1, 0, .AHEAD. ) ;
#138 = AXIS2_PLACEMENT_3D ( 'NONE', #57, #96, #97 ) ;
#139 = DIRECTION ( 'NONE',  ( 0.000000000000000000, 0.000000000000000000, 1.000000000000000000 ) ) ;
#140 = DIRECTION ( 'NONE',  ( -1.000000000000000000, 0.000000000000000000, 3.037381244477545939E-15 ) ) ;
#141 = CARTESIAN_POINT ( 'NONE',  ( -98.75000000000000000, 0.000000000000000000, -1.308196198748820822E-14 ) ) ;
#142 = EDGE_CURVE ( 'NONE', #116, #90, #252, .T. ) ;
#143 = CARTESIAN_POINT ( 'NONE',  ( 0.000000000000000000, 0.000000000000000000, 0.000000000000000000 ) ) ;
#144 = CARTESIAN_POINT ( 'NONE',  ( -1.881280667092492994E-13, 0.000000000000000000, -63.00000000000000000 ) ) ;
#145 = DIRECTION ( 'NONE',  ( 3.037381244477546334E-15, 0.000000000000000000, 1.000000000000000000 ) ) ;
#146 = AXIS2_PLACEMENT_3D ( 'NONE', #203, #205, #147 ) ;
#147 = DIRECTION ( 'NONE',  ( 3.037381244477545939E-15, 0.000000000000000000, 1.000000000000000000 ) ) ;
#148 = CALENDAR_DATE ( 2024, 27, 8 ) ;
#149 = AXIS2_PLACEMENT_3D ( 'NONE', #179, #41, #238 ) ;
#150 = ORIENTED_EDGE ( 'NONE', *, *, #201, .T. ) ;
#151 = TOROIDAL_SURFACE ( 'NONE', #108, 63.00000000000000000, 35.75000000000000711 ) ;
#152 = CALENDAR_DATE ( 2024, 27, 8 ) ;
#153 = PERSON_AND_ORGANIZATION ( #56, #9 ) ;
#154 = ORIENTED_EDGE ( 'NONE', *, *, #62, .T. ) ;
#155 = DATE_AND_TIME ( #152, #156 ) ;
#156 = LOCAL_TIME ( 13, 7, 18.00000000000000000, #137 ) ;
#157 = ORIENTED_EDGE ( 'NONE', *, *, #105, .T. ) ;
#158 = DIRECTION ( 'NONE',  ( 0.000000000000000000, 0.000000000000000000, 1.000000000000000000 ) ) ;
#159 = VERTEX_POINT ( 'NONE', #230 ) ;
#160 = CIRCLE ( 'NONE', #50, 38.04999999999999716 ) ;
#161 = DIRECTION ( 'NONE',  ( 0.000000000000000000, 1.000000000000000000, 0.000000000000000000 ) ) ;
#162 = CARTESIAN_POINT ( 'NONE',  ( -3.037004230616199718E-13, 0.000000000000000000, -101.0499999999999972 ) ) ;
#163 = DIRECTION ( 'NONE',  ( -1.324755644302603424E-16, 0.000000000000000000, 1.000000000000000000 ) ) ;
#164 = ADVANCED_BREP_SHAPE_REPRESENTATION ( '3D_R1620_76.1x2_173630150_173631140', ( #37, #132 ), #18 ) ;
#165 = CARTESIAN_POINT ( 'NONE',  ( 0.000000000000000000, -4.659781070755679014E-15, 0.000000000000000000 ) ) ;
#166 = CC_DESIGN_DATE_AND_TIME_ASSIGNMENT ( #155, #29, ( #228 ) ) ;
#167 = CARTESIAN_POINT ( 'NONE',  ( -27.24999999999999645, 0.000000000000000000, -3.609959130724594134E-15 ) ) ;
#168 = CARTESIAN_POINT ( 'NONE',  ( 0.000000000000000000, 0.000000000000000000, 0.000000000000000000 ) ) ;
#169 = DATE_AND_TIME ( #101, #136 ) ;
#170 = ORIENTED_EDGE ( 'NONE', *, *, #3, .T. ) ;
#171 = ADVANCED_FACE ( 'NONE', ( #121 ), #72, .T. ) ;
#172 = CC_DESIGN_SECURITY_CLASSIFICATION ( #228, ( #221 ) ) ;
#173 = EDGE_LOOP ( 'NONE', ( #226, #190, #134, #234 ) ) ;
#174 = PERSON_AND_ORGANIZATION ( #56, #9 ) ;
#175 = PRODUCT_DEFINITION ( 'UNKNOWN', '', #221, #53 ) ;
#176 = CIRCLE ( 'NONE', #225, 38.04999999999999716 ) ;
#177 = CARTESIAN_POINT ( 'NONE',  ( -63.00000000000000000, 0.000000000000000000, -1.157291225194249359E-14 ) ) ;
#178 = VERTEX_POINT ( 'NONE', #250 ) ;
#179 = CARTESIAN_POINT ( 'NONE',  ( 0.000000000000000000, 0.000000000000000000, 0.000000000000000000 ) ) ;
#180 = ORIENTED_EDGE ( 'NONE', *, *, #110, .F. ) ;
#181 = APPROVAL_DATE_TIME ( #169, #235 ) ;
#182 = APPLICATION_PROTOCOL_DEFINITION ( 'international standard', 'config_control_design', 1994, #191 ) ;
#183 = COORDINATED_UNIVERSAL_TIME_OFFSET ( 1, 0, .AHEAD. ) ;
#184 = EDGE_CURVE ( 'NONE', #209, #75, #232, .T. ) ;
#185 = APPROVAL_ROLE ( '' ) ;
#186 = LOCAL_TIME ( 13, 7, 18.00000000000000000, #247 ) ;
#187 = APPROVAL_ROLE ( '' ) ;
#188 = CC_DESIGN_APPROVAL ( #235, ( #175 ) ) ;
#189 = VERTEX_POINT ( 'NONE', #167 ) ;
#190 = ORIENTED_EDGE ( 'NONE', *, *, #142, .T. ) ;
#191 = APPLICATION_CONTEXT ( 'configuration controlled 3d designs of mechanical parts and assemblies' ) ;
#192 = PERSON_AND_ORGANIZATION_ROLE ( 'design_supplier' ) ;
#193 = ORIENTED_EDGE ( 'NONE', *, *, #3, .F. ) ;
#194 = ORIENTED_EDGE ( 'NONE', *, *, #62, .F. ) ;
#195 = CIRCLE ( 'NONE', #207, 35.75000000000000711 ) ;
#196 = CARTESIAN_POINT ( 'NONE',  ( 0.000000000000000000, 0.000000000000000000, 0.000000000000000000 ) ) ;
#197 = EDGE_CURVE ( 'NONE', #209, #116, #98, .T. ) ;
#198 = FACE_OUTER_BOUND ( 'NONE', #210, .T. ) ;
#199 = DIRECTION ( 'NONE',  ( 0.000000000000000000, 1.000000000000000000, 0.000000000000000000 ) ) ;
#200 = CC_DESIGN_APPROVAL ( #114, ( #221 ) ) ;
#201 = EDGE_CURVE ( 'NONE', #178, #31, #129, .T. ) ;
#202 = PERSON_AND_ORGANIZATION ( #56, #9 ) ;
#203 = CARTESIAN_POINT ( 'NONE',  ( -1.881280667092492994E-13, 0.000000000000000000, -63.00000000000000000 ) ) ;
#204 = COORDINATED_UNIVERSAL_TIME_OFFSET ( 1, 0, .AHEAD. ) ;
#205 = DIRECTION ( 'NONE',  ( -1.000000000000000000, 0.000000000000000000, 3.037381244477545939E-15 ) ) ;
#206 = CALENDAR_DATE ( 2024, 27, 8 ) ;
#207 = AXIS2_PLACEMENT_3D ( 'NONE', #79, #140, #60 ) ;
#208 = PERSON_AND_ORGANIZATION_ROLE ( 'classification_officer' ) ;
#209 = VERTEX_POINT ( 'NONE', #6 ) ;
#210 = EDGE_LOOP ( 'NONE', ( #244, #35, #71, #36 ) ) ;
#211 = AXIS2_PLACEMENT_3D ( 'NONE', #165, #240, #84 ) ;
#212 = ORIENTED_EDGE ( 'NONE', *, *, #7, .T. ) ;
#213 = CARTESIAN_POINT ( 'NONE',  ( -63.00000000000000000, 0.000000000000000000, -1.157291225194249359E-14 ) ) ;
#214 = CARTESIAN_POINT ( 'NONE',  ( -63.00000000000000000, 0.000000000000000000, -8.345960559106402361E-15 ) ) ;
#215 = CARTESIAN_POINT ( 'NONE',  ( -101.0499999999999972, 0.000000000000000000, -1.661360747851389832E-14 ) ) ;
#216 = FACE_OUTER_BOUND ( 'NONE', #42, .T. ) ;
#217 = CC_DESIGN_APPROVAL ( #23, ( #228 ) ) ;
#218 = EDGE_CURVE ( 'NONE', #90, #75, #160, .T. ) ;
#219 = CALENDAR_DATE ( 2024, 27, 8 ) ;
#220 = PERSON_AND_ORGANIZATION ( #56, #9 ) ;
#221 = PRODUCT_DEFINITION_FORMATION_WITH_SPECIFIED_SOURCE ( 'ANY', '', #21, .NOT_KNOWN. ) ;
#222 = FACE_BOUND ( 'NONE', #111, .T. ) ;
#223 = UNCERTAINTY_MEASURE_WITH_UNIT (LENGTH_MEASURE( 1.000000000000000082E-05 ), #49, 'distance_accuracy_value', 'NONE');
#224 = CC_DESIGN_DATE_AND_TIME_ASSIGNMENT ( #45, #22, ( #175 ) ) ;
#225 = AXIS2_PLACEMENT_3D ( 'NONE', #213, #39, #78 ) ;
#226 = ORIENTED_EDGE ( 'NONE', *, *, #197, .T. ) ;
#227 = DATE_AND_TIME ( #206, #54 ) ;
#228 = SECURITY_CLASSIFICATION ( '', '', #89 ) ;
#229 = EDGE_CURVE ( 'NONE', #116, #209, #13, .T. ) ;
#230 = CARTESIAN_POINT ( 'NONE',  ( -8.276863891201311393E-14, 0.000000000000000000, -27.24999999999999645 ) ) ;
#231 = DIRECTION ( 'NONE',  ( -1.324755644302603424E-16, 0.000000000000000000, 1.000000000000000000 ) ) ;
#232 = CIRCLE ( 'NONE', #211, 24.94999999999999929 ) ;
#233 = CARTESIAN_POINT ( 'NONE',  ( 0.000000000000000000, -4.378112306951787857E-15, 0.000000000000000000 ) ) ;
#234 = ORIENTED_EDGE ( 'NONE', *, *, #184, .F. ) ;
#235 = APPROVAL ( #48, 'UNSPECIFIED' ) ;
#236 = EDGE_LOOP ( 'NONE', ( #73, #55 ) ) ;
#237 = AXIS2_PLACEMENT_3D ( 'NONE', #168, #67, #106 ) ;
#238 = DIRECTION ( 'NONE',  ( 0.000000000000000000, 0.000000000000000000, 1.000000000000000000 ) ) ;
#239 = DIRECTION ( 'NONE',  ( -1.000000000000000000, 0.000000000000000000, 3.037381244477545939E-15 ) ) ;
#240 = DIRECTION ( 'NONE',  ( 0.000000000000000000, 1.000000000000000000, 0.000000000000000000 ) ) ;
#241 = CC_DESIGN_PERSON_AND_ORGANIZATION_ASSIGNMENT ( #12, #208, ( #228 ) ) ;
#242 = ORIENTED_EDGE ( 'NONE', *, *, #32, .T. ) ;
#243 = AXIS2_PLACEMENT_3D ( 'NONE', #233, #199, #17 ) ;
#244 = ORIENTED_EDGE ( 'NONE', *, *, #142, .F. ) ;
#245 = ORIENTED_EDGE ( 'NONE', *, *, #197, .F. ) ;
#246 = ADVANCED_FACE ( 'NONE', ( #222, #44 ), #69, .F. ) ;
#247 = COORDINATED_UNIVERSAL_TIME_OFFSET ( 1, 0, .AHEAD. ) ;
#248 = AXIS2_PLACEMENT_3D ( 'NONE', #196, #161, #139 ) ;
#249 = CARTESIAN_POINT ( 'NONE',  ( -24.94999999999999929, 0.000000000000000000, -6.532217025371087284E-15 ) ) ;
#250 = CARTESIAN_POINT ( 'NONE',  ( -2.999413978921576863E-13, 0.000000000000000000, -98.75000000000000000 ) ) ;
#251 = ORIENTED_EDGE ( 'NONE', *, *, #229, .F. ) ;
#252 = CIRCLE ( 'NONE', #94, 101.0499999999999972 ) ;
#253 = DIRECTION ( 'NONE',  ( 1.000000000000000000, 0.000000000000000000, 1.324755644302603424E-16 ) ) ;
ENDSEC;
END-ISO-10303-21;
