ISO-10303-21;
HEADER;
FILE_DESCRIPTION (( 'STEP AP203' ),
    '1' );
FILE_NAME ('3D_R1655_48.3x2_17362180_17362590.STEP',
    '2024-08-05T08:51:01',
    ( '' ),
    ( '' ),
    'SwSTEP 2.0',
    'SolidWorks 2024',
    '' );
FILE_SCHEMA (( 'CONFIG_CONTROL_DESIGN' ));
ENDSEC;

DATA;
#1 = DIRECTION ( 'NONE',  ( 2.998440459291935987E-15, 0.000000000000000000, 1.000000000000000000 ) ) ;
#2 = APPROVAL_DATE_TIME ( #99, #244 ) ;
#3 = DIRECTION ( 'NONE',  ( 2.998440459291935592E-15, 0.000000000000000000, 1.000000000000000000 ) ) ;
#4 = APPROVAL ( #248, 'UNSPECIFIED' ) ;
#5 = ORIENTED_EDGE ( 'NONE', *, *, #132, .T. ) ;
#6 = AXIS2_PLACEMENT_3D ( 'NONE', #38, #74, #193 ) ;
#7 = CARTESIAN_POINT ( 'NONE',  ( 0.000000000000000000, 0.000000000000000000, 0.000000000000000000 ) ) ;
#8 = DIRECTION ( 'NONE',  ( 0.000000000000000000, 1.000000000000000000, 0.000000000000000000 ) ) ;
#9 = CARTESIAN_POINT ( 'NONE',  ( -108.0000000000000000, 0.000000000000000000, -1.851296575851398872E-14 ) ) ;
#10 = EDGE_CURVE ( 'NONE', #252, #179, #232, .T. ) ;
#11 = LOCAL_TIME ( 10, 51, 1.000000000000000000, #228 ) ;
#12 = CLOSED_SHELL ( 'NONE', ( #95, #185, #200, #150, #247, #113 ) ) ;
#13 = EDGE_LOOP ( 'NONE', ( #116, #231 ) ) ;
#14 = MECHANICAL_CONTEXT ( 'NONE', #196, 'mechanical' ) ;
#15 = EDGE_CURVE ( 'NONE', #211, #82, #163, .T. ) ;
#16 = ORIENTED_EDGE ( 'NONE', *, *, #10, .F. ) ;
#17 = DESIGN_CONTEXT ( 'detailed design', #169, 'design' ) ;
#18 = CARTESIAN_POINT ( 'NONE',  ( -108.0000000000000000, 0.000000000000000000, -1.983927814618715080E-14 ) ) ;
#19 = DATE_TIME_ROLE ( 'classification_date' ) ;
#20 = ORIENTED_EDGE ( 'NONE', *, *, #115, .F. ) ;
#21 = ORIENTED_EDGE ( 'NONE', *, *, #166, .T. ) ;
#22 = CARTESIAN_POINT ( 'NONE',  ( -3.225052572158559418E-13, 0.000000000000000000, -108.0000000000000000 ) ) ;
#23 = DIRECTION ( 'NONE',  ( 0.000000000000000000, 1.000000000000000000, 0.000000000000000000 ) ) ;
#24 = TOROIDAL_SURFACE ( 'NONE', #170, 108.0000000000000000, 22.14999999999998792 ) ;
#25 = DIRECTION ( 'NONE',  ( 0.000000000000000000, 1.000000000000000000, 0.000000000000000000 ) ) ;
#26 = DIRECTION ( 'NONE',  ( -1.000000000000000000, 0.000000000000000000, 2.998440459291936381E-15 ) ) ;
#27 = CC_DESIGN_PERSON_AND_ORGANIZATION_ASSIGNMENT ( #52, #197, ( #96 ) ) ;
#28 =( NAMED_UNIT ( * ) PLANE_ANGLE_UNIT ( ) SI_UNIT ( $, .RADIAN. ) );
#29 = AXIS2_PLACEMENT_3D ( 'NONE', #127, #8, #130 ) ;
#30 =( NAMED_UNIT ( * ) SI_UNIT ( $, .STERADIAN. ) SOLID_ANGLE_UNIT ( ) );
#31 = ORIENTED_EDGE ( 'NONE', *, *, #63, .F. ) ;
#32 = AXIS2_PLACEMENT_3D ( 'NONE', #108, #87, #201 ) ;
#33 = CALENDAR_DATE ( 2024, 5, 8 ) ;
#34 = CALENDAR_DATE ( 2024, 5, 8 ) ;
#35 = ORIENTED_EDGE ( 'NONE', *, *, #115, .T. ) ;
#36 = COORDINATED_UNIVERSAL_TIME_OFFSET ( 1, 0, .AHEAD. ) ;
#37 = VERTEX_POINT ( 'NONE', #143 ) ;
#38 = CARTESIAN_POINT ( 'NONE',  ( -108.0000000000000000, 0.000000000000000000, -1.851296575851398872E-14 ) ) ;
#39 = DIRECTION ( 'NONE',  ( 0.000000000000000000, 1.000000000000000000, 0.000000000000000000 ) ) ;
#40 = ORGANIZATION ( 'UNSPECIFIED', 'UNSPECIFIED', '' ) ;
#41 = CARTESIAN_POINT ( 'NONE',  ( 0.000000000000000000, -2.957522019940857141E-15, 0.000000000000000000 ) ) ;
#42 = FACE_BOUND ( 'NONE', #219, .T. ) ;
#43 = CC_DESIGN_APPROVAL ( #4, ( #114 ) ) ;
#44 = MANIFOLD_SOLID_BREP ( 'Wandung1', #12 ) ;
#45 = AXIS2_PLACEMENT_3D ( 'NONE', #173, #160, #1 ) ;
#46 = AXIS2_PLACEMENT_3D ( 'NONE', #126, #128, #225 ) ;
#47 = FACE_OUTER_BOUND ( 'NONE', #13, .T. ) ;
#48 = DIRECTION ( 'NONE',  ( 0.000000000000000000, 0.000000000000000000, 1.000000000000000000 ) ) ;
#49 = CC_DESIGN_DATE_AND_TIME_ASSIGNMENT ( #236, #190, ( #96 ) ) ;
#50 = CIRCLE ( 'NONE', #32, 85.85000000000000853 ) ;
#51 = AXIS2_PLACEMENT_3D ( 'NONE', #53, #250, #3 ) ;
#52 = PERSON_AND_ORGANIZATION ( #134, #40 ) ;
#53 = CARTESIAN_POINT ( 'NONE',  ( -3.225052572158559418E-13, 0.000000000000000000, -108.0000000000000000 ) ) ;
#54 = SHAPE_DEFINITION_REPRESENTATION ( #205, #215 ) ;
#55 = TOROIDAL_SURFACE ( 'NONE', #93, 108.0000000000000000, 22.14999999999998792 ) ;
#56 = ORIENTED_EDGE ( 'NONE', *, *, #172, .F. ) ;
#57 = APPLICATION_PROTOCOL_DEFINITION ( 'international standard', 'config_control_design', 1994, #169 ) ;
#58 = EDGE_LOOP ( 'NONE', ( #16, #35, #235, #83 ) ) ;
#59 = APPROVAL_STATUS ( 'not_yet_approved' ) ;
#60 = VERTEX_POINT ( 'NONE', #220 ) ;
#61 = DIRECTION ( 'NONE',  ( -1.000000000000000000, 0.000000000000000000, 2.998440459291936381E-15 ) ) ;
#62 = DIRECTION ( 'NONE',  ( 0.000000000000000000, 0.000000000000000000, 1.000000000000000000 ) ) ;
#63 = EDGE_CURVE ( 'NONE', #177, #133, #246, .T. ) ;
#64 = CARTESIAN_POINT ( 'NONE',  ( 0.000000000000000000, 0.000000000000000000, 0.000000000000000000 ) ) ;
#65 = DIRECTION ( 'NONE',  ( -1.714163496158702951E-16, 0.000000000000000000, 1.000000000000000000 ) ) ;
#66 = APPROVAL_PERSON_ORGANIZATION ( #234, #4, #140 ) ;
#67 = CIRCLE ( 'NONE', #186, 22.14999999999998792 ) ;
#68 = PLANE ( 'NONE',  #81 ) ;
#69 = AXIS2_PLACEMENT_3D ( 'NONE', #199, #145, #222 ) ;
#70 = EDGE_CURVE ( 'NONE', #37, #60, #214, .T. ) ;
#71 = PERSON_AND_ORGANIZATION ( #134, #40 ) ;
#72 = CC_DESIGN_PERSON_AND_ORGANIZATION_ASSIGNMENT ( #102, #230, ( #114 ) ) ;
#73 = PERSON_AND_ORGANIZATION ( #134, #40 ) ;
#74 = DIRECTION ( 'NONE',  ( -1.714163496158702951E-16, 0.000000000000000000, 1.000000000000000000 ) ) ;
#75 = APPROVAL_PERSON_ORGANIZATION ( #73, #244, #153 ) ;
#76 = APPROVAL_DATE_TIME ( #117, #86 ) ;
#77 = ORIENTED_EDGE ( 'NONE', *, *, #15, .F. ) ;
#78 = SECURITY_CLASSIFICATION ( '', '', #138 ) ;
#79 = APPROVAL_ROLE ( '' ) ;
#80 = CARTESIAN_POINT ( 'NONE',  ( -3.949175943077561860E-13, 0.000000000000000000, -132.1499999999999773 ) ) ;
#81 = AXIS2_PLACEMENT_3D ( 'NONE', #22, #26, #112 ) ;
#82 = VERTEX_POINT ( 'NONE', #80 ) ;
#83 = ORIENTED_EDGE ( 'NONE', *, *, #166, .F. ) ;
#84 = CC_DESIGN_APPROVAL ( #86, ( #78 ) ) ;
#85 = AXIS2_PLACEMENT_3D ( 'NONE', #91, #148, #131 ) ;
#86 = APPROVAL ( #59, 'UNSPECIFIED' ) ;
#87 = DIRECTION ( 'NONE',  ( 0.000000000000000000, 1.000000000000000000, 0.000000000000000000 ) ) ;
#88 = CARTESIAN_POINT ( 'NONE',  ( -2.500929201239557482E-13, 0.000000000000000000, -83.85000000000000853 ) ) ;
#89 = DIRECTION ( 'NONE',  ( 1.000000000000000000, 0.000000000000000000, 1.714163496158702212E-16 ) ) ;
#90 = CC_DESIGN_SECURITY_CLASSIFICATION ( #78, ( #114 ) ) ;
#91 = CARTESIAN_POINT ( 'NONE',  ( 0.000000000000000000, 0.000000000000000000, 0.000000000000000000 ) ) ;
#92 = AXIS2_PLACEMENT_3D ( 'NONE', #98, #100, #216 ) ;
#93 = AXIS2_PLACEMENT_3D ( 'NONE', #7, #39, #48 ) ;
#94 = APPLICATION_PROTOCOL_DEFINITION ( 'international standard', 'config_control_design', 1994, #196 ) ;
#95 = ADVANCED_FACE ( 'NONE', ( #141 ), #24, .F. ) ;
#96 = PRODUCT_DEFINITION ( 'UNKNOWN', '', #114, #17 ) ;
#97 = AXIS2_PLACEMENT_3D ( 'NONE', #183, #61, #147 ) ;
#98 = CARTESIAN_POINT ( 'NONE',  ( 0.000000000000000000, 0.000000000000000000, 0.000000000000000000 ) ) ;
#99 = DATE_AND_TIME ( #34, #223 ) ;
#100 = DIRECTION ( 'NONE',  ( 0.000000000000000000, 0.000000000000000000, 1.000000000000000000 ) ) ;
#101 = ORIENTED_EDGE ( 'NONE', *, *, #125, .F. ) ;
#102 = PERSON_AND_ORGANIZATION ( #134, #40 ) ;
#103 = ORIENTED_EDGE ( 'NONE', *, *, #132, .F. ) ;
#104 = AXIS2_PLACEMENT_3D ( 'NONE', #144, #226, #184 ) ;
#105 = ORIENTED_EDGE ( 'NONE', *, *, #15, .T. ) ;
#106 = CC_DESIGN_DATE_AND_TIME_ASSIGNMENT ( #251, #19, ( #78 ) ) ;
#107 = DIRECTION ( 'NONE',  ( -1.714163496158702951E-16, 0.000000000000000000, 1.000000000000000000 ) ) ;
#108 = CARTESIAN_POINT ( 'NONE',  ( 0.000000000000000000, -2.712592660111386056E-15, 0.000000000000000000 ) ) ;
#109 = AXIS2_PLACEMENT_3D ( 'NONE', #18, #154, #229 ) ;
#110 = CARTESIAN_POINT ( 'NONE',  ( -108.0000000000000000, 0.000000000000000000, -1.983927814618715080E-14 ) ) ;
#111 = DIRECTION ( 'NONE',  ( 0.000000000000000000, 0.000000000000000000, 1.000000000000000000 ) ) ;
#112 = DIRECTION ( 'NONE',  ( 2.998440459291936381E-15, 0.000000000000000000, 1.000000000000000000 ) ) ;
#113 = ADVANCED_FACE ( 'NONE', ( #118 ), #55, .F. ) ;
#114 = PRODUCT_DEFINITION_FORMATION_WITH_SPECIFIED_SOURCE ( 'ANY', '', #178, .NOT_KNOWN. ) ;
#115 = EDGE_CURVE ( 'NONE', #252, #177, #152, .T. ) ;
#116 = ORIENTED_EDGE ( 'NONE', *, *, #125, .T. ) ;
#117 = DATE_AND_TIME ( #33, #243 ) ;
#118 = FACE_OUTER_BOUND ( 'NONE', #198, .T. ) ;
#119 = APPROVAL_STATUS ( 'not_yet_approved' ) ;
#120 = EDGE_LOOP ( 'NONE', ( #77, #122 ) ) ;
#121 = CALENDAR_DATE ( 2024, 5, 8 ) ;
#122 = ORIENTED_EDGE ( 'NONE', *, *, #187, .F. ) ;
#123 = PERSON_AND_ORGANIZATION_ROLE ( 'design_owner' ) ;
#124 = ORIENTED_EDGE ( 'NONE', *, *, #221, .T. ) ;
#125 = EDGE_CURVE ( 'NONE', #60, #37, #202, .T. ) ;
#126 = CARTESIAN_POINT ( 'NONE',  ( 0.000000000000000000, 0.000000000000000000, 0.000000000000000000 ) ) ;
#127 = CARTESIAN_POINT ( 'NONE',  ( 0.000000000000000000, 0.000000000000000000, 0.000000000000000000 ) ) ;
#128 = DIRECTION ( 'NONE',  ( 0.000000000000000000, 1.000000000000000000, 0.000000000000000000 ) ) ;
#129 = TOROIDAL_SURFACE ( 'NONE', #46, 108.0000000000000000, 24.14999999999999147 ) ;
#130 = DIRECTION ( 'NONE',  ( 0.000000000000000000, 0.000000000000000000, 1.000000000000000000 ) ) ;
#131 = DIRECTION ( 'NONE',  ( 0.000000000000000000, 0.000000000000000000, 1.000000000000000000 ) ) ;
#132 = EDGE_CURVE ( 'NONE', #179, #252, #162, .T. ) ;
#133 = VERTEX_POINT ( 'NONE', #165 ) ;
#134 = PERSON ( 'UNSPECIFIED', 'UNSPECIFIED', 'UNSPECIFIED', ('UNSPECIFIED'), ('UNSPECIFIED'), ('UNSPECIFIED') ) ;
#135 = DATE_AND_TIME ( #192, #11 ) ;
#136 = CIRCLE ( 'NONE', #29, 132.1499999999999773 ) ;
#137 = ORIENTED_EDGE ( 'NONE', *, *, #70, .F. ) ;
#138 = SECURITY_CLASSIFICATION_LEVEL ( 'unclassified' ) ;
#139 = ORIENTED_EDGE ( 'NONE', *, *, #10, .T. ) ;
#140 = APPROVAL_ROLE ( '' ) ;
#141 = FACE_OUTER_BOUND ( 'NONE', #58, .T. ) ;
#142 = CC_DESIGN_PERSON_AND_ORGANIZATION_ASSIGNMENT ( #249, #123, ( #178 ) ) ;
#143 = CARTESIAN_POINT ( 'NONE',  ( -132.1499999999999773, 0.000000000000000000, -2.397898298941041566E-14 ) ) ;
#144 = CARTESIAN_POINT ( 'NONE',  ( -3.225052572158559418E-13, 0.000000000000000000, -108.0000000000000000 ) ) ;
#145 = DIRECTION ( 'NONE',  ( -1.714163496158702705E-16, 0.000000000000000000, 1.000000000000000000 ) ) ;
#146 = FACE_OUTER_BOUND ( 'NONE', #194, .T. ) ;
#147 = DIRECTION ( 'NONE',  ( 2.998440459291935987E-15, 0.000000000000000000, 1.000000000000000000 ) ) ;
#148 = DIRECTION ( 'NONE',  ( 0.000000000000000000, 1.000000000000000000, 0.000000000000000000 ) ) ;
#149 = CC_DESIGN_APPROVAL ( #244, ( #96 ) ) ;
#150 = ADVANCED_FACE ( 'NONE', ( #42, #47 ), #240, .T. ) ;
#151 = APPROVAL_PERSON_ORGANIZATION ( #174, #86, #79 ) ;
#152 = CIRCLE ( 'NONE', #85, 130.1499999999999773 ) ;
#153 = APPROVAL_ROLE ( '' ) ;
#154 = DIRECTION ( 'NONE',  ( -1.714163496158702951E-16, 0.000000000000000000, 1.000000000000000000 ) ) ;
#155 = PERSON_AND_ORGANIZATION_ROLE ( 'creator' ) ;
#156 = DIRECTION ( 'NONE',  ( 0.000000000000000000, 1.000000000000000000, 0.000000000000000000 ) ) ;
#157 = COORDINATED_UNIVERSAL_TIME_OFFSET ( 1, 0, .AHEAD. ) ;
#158 = TOROIDAL_SURFACE ( 'NONE', #208, 108.0000000000000000, 24.14999999999999147 ) ;
#159 = ORIENTED_EDGE ( 'NONE', *, *, #172, .T. ) ;
#160 = DIRECTION ( 'NONE',  ( -1.000000000000000000, 0.000000000000000000, 2.998440459291936381E-15 ) ) ;
#161 = EDGE_LOOP ( 'NONE', ( #5, #139 ) ) ;
#162 = CIRCLE ( 'NONE', #97, 22.14999999999998792 ) ;
#163 = CIRCLE ( 'NONE', #51, 24.14999999999999147 ) ;
#164 =( LENGTH_UNIT ( ) NAMED_UNIT ( * ) SI_UNIT ( .MILLI., .METRE. ) );
#165 = CARTESIAN_POINT ( 'NONE',  ( -85.85000000000000853, 0.000000000000000000, -1.471609361452246760E-14 ) ) ;
#166 = EDGE_CURVE ( 'NONE', #179, #133, #50, .T. ) ;
#167 = CIRCLE ( 'NONE', #104, 24.14999999999999147 ) ;
#168 = EDGE_CURVE ( 'NONE', #211, #60, #181, .T. ) ;
#169 = APPLICATION_CONTEXT ( 'configuration controlled 3d designs of mechanical parts and assemblies' ) ;
#170 = AXIS2_PLACEMENT_3D ( 'NONE', #191, #156, #62 ) ;
#171 = COORDINATED_UNIVERSAL_TIME_OFFSET ( 1, 0, .AHEAD. ) ;
#172 = EDGE_CURVE ( 'NONE', #82, #37, #136, .T. ) ;
#173 = CARTESIAN_POINT ( 'NONE',  ( -3.238315696035291134E-13, 0.000000000000000000, -108.0000000000000000 ) ) ;
#174 = PERSON_AND_ORGANIZATION ( #134, #40 ) ;
#175 = ORIENTED_EDGE ( 'NONE', *, *, #187, .T. ) ;
#176 = COORDINATED_UNIVERSAL_TIME_OFFSET ( 1, 0, .AHEAD. ) ;
#177 = VERTEX_POINT ( 'NONE', #182 ) ;
#178 = PRODUCT ( '3D_R1655_48.3x2_17362180_17362590', '3D_R1655_48.3x2_17362180_17362590', '', ( #14 ) ) ;
#179 = VERTEX_POINT ( 'NONE', #239 ) ;
#180 = CARTESIAN_POINT ( 'NONE',  ( -3.902470257768455084E-13, 0.000000000000000000, -130.1499999999999773 ) ) ;
#181 = CIRCLE ( 'NONE', #245, 83.85000000000000853 ) ;
#182 = CARTESIAN_POINT ( 'NONE',  ( -130.1499999999999773, 0.000000000000000000, -2.230983790250551299E-14 ) ) ;
#183 = CARTESIAN_POINT ( 'NONE',  ( -3.238315696035291134E-13, 0.000000000000000000, -108.0000000000000000 ) ) ;
#184 = DIRECTION ( 'NONE',  ( 2.998440459291935592E-15, 0.000000000000000000, 1.000000000000000000 ) ) ;
#185 = ADVANCED_FACE ( 'NONE', ( #146 ), #158, .T. ) ;
#186 = AXIS2_PLACEMENT_3D ( 'NONE', #9, #65, #89 ) ;
#187 = EDGE_CURVE ( 'NONE', #82, #211, #167, .T. ) ;
#188 = ORIENTED_EDGE ( 'NONE', *, *, #168, .F. ) ;
#189 = PRODUCT_RELATED_PRODUCT_CATEGORY ( 'detail', '', ( #178 ) ) ;
#190 = DATE_TIME_ROLE ( 'creation_date' ) ;
#191 = CARTESIAN_POINT ( 'NONE',  ( 0.000000000000000000, 0.000000000000000000, 0.000000000000000000 ) ) ;
#192 = CALENDAR_DATE ( 2024, 5, 8 ) ;
#193 = DIRECTION ( 'NONE',  ( 1.000000000000000000, 0.000000000000000000, 1.714163496158702212E-16 ) ) ;
#194 = EDGE_LOOP ( 'NONE', ( #105, #159, #101, #188 ) ) ;
#195 = LOCAL_TIME ( 10, 51, 1.000000000000000000, #171 ) ;
#196 = APPLICATION_CONTEXT ( 'configuration controlled 3d designs of mechanical parts and assemblies' ) ;
#197 = PERSON_AND_ORGANIZATION_ROLE ( 'creator' ) ;
#198 = EDGE_LOOP ( 'NONE', ( #20, #103, #21, #124 ) ) ;
#199 = CARTESIAN_POINT ( 'NONE',  ( -108.0000000000000000, 0.000000000000000000, -1.983927814618715080E-14 ) ) ;
#200 = ADVANCED_FACE ( 'NONE', ( #224 ), #129, .T. ) ;
#201 = DIRECTION ( 'NONE',  ( 0.000000000000000000, 0.000000000000000000, 1.000000000000000000 ) ) ;
#202 = CIRCLE ( 'NONE', #227, 24.14999999999999147 ) ;
#203 = FACE_BOUND ( 'NONE', #161, .T. ) ;
#204 = DIRECTION ( 'NONE',  ( 1.000000000000000000, 0.000000000000000000, 1.714163496158702458E-16 ) ) ;
#205 = PRODUCT_DEFINITION_SHAPE ( 'NONE', 'NONE',  #96 ) ;
#206 = DIRECTION ( 'NONE',  ( 0.000000000000000000, 0.000000000000000000, 1.000000000000000000 ) ) ;
#207 = LOCAL_TIME ( 10, 51, 1.000000000000000000, #36 ) ;
#208 = AXIS2_PLACEMENT_3D ( 'NONE', #64, #25, #111 ) ;
#209 = CC_DESIGN_PERSON_AND_ORGANIZATION_ASSIGNMENT ( #71, #155, ( #114 ) ) ;
#210 = PERSON_AND_ORGANIZATION ( #134, #40 ) ;
#211 = VERTEX_POINT ( 'NONE', #88 ) ;
#212 = PERSON_AND_ORGANIZATION_ROLE ( 'classification_officer' ) ;
#213 = EDGE_LOOP ( 'NONE', ( #56, #175, #217, #137 ) ) ;
#214 = CIRCLE ( 'NONE', #109, 24.14999999999999147 ) ;
#215 = ADVANCED_BREP_SHAPE_REPRESENTATION ( '3D_R1655_48.3x2_17362180_17362590', ( #44, #92 ), #242 ) ;
#216 = DIRECTION ( 'NONE',  ( 1.000000000000000000, 0.000000000000000000, 0.000000000000000000 ) ) ;
#217 = ORIENTED_EDGE ( 'NONE', *, *, #168, .T. ) ;
#218 = APPROVAL_DATE_TIME ( #135, #4 ) ;
#219 = EDGE_LOOP ( 'NONE', ( #237, #31 ) ) ;
#220 = CARTESIAN_POINT ( 'NONE',  ( -83.85000000000000853, 0.000000000000000000, -1.569957330296388593E-14 ) ) ;
#221 = EDGE_CURVE ( 'NONE', #133, #177, #67, .T. ) ;
#222 = DIRECTION ( 'NONE',  ( 1.000000000000000000, 0.000000000000000000, 1.714163496158702705E-16 ) ) ;
#223 = LOCAL_TIME ( 10, 51, 1.000000000000000000, #157 ) ;
#224 = FACE_OUTER_BOUND ( 'NONE', #213, .T. ) ;
#225 = DIRECTION ( 'NONE',  ( 0.000000000000000000, 0.000000000000000000, 1.000000000000000000 ) ) ;
#226 = DIRECTION ( 'NONE',  ( -1.000000000000000000, 0.000000000000000000, 2.998440459291936381E-15 ) ) ;
#227 = AXIS2_PLACEMENT_3D ( 'NONE', #110, #107, #204 ) ;
#228 = COORDINATED_UNIVERSAL_TIME_OFFSET ( 1, 0, .AHEAD. ) ;
#229 = DIRECTION ( 'NONE',  ( 1.000000000000000000, 0.000000000000000000, 1.714163496158702458E-16 ) ) ;
#230 = PERSON_AND_ORGANIZATION_ROLE ( 'design_supplier' ) ;
#231 = ORIENTED_EDGE ( 'NONE', *, *, #70, .T. ) ;
#232 = CIRCLE ( 'NONE', #45, 22.14999999999998792 ) ;
#233 = UNCERTAINTY_MEASURE_WITH_UNIT (LENGTH_MEASURE( 1.000000000000000082E-05 ), #164, 'distance_accuracy_value', 'NONE');
#234 = PERSON_AND_ORGANIZATION ( #134, #40 ) ;
#235 = ORIENTED_EDGE ( 'NONE', *, *, #63, .T. ) ;
#236 = DATE_AND_TIME ( #253, #195 ) ;
#237 = ORIENTED_EDGE ( 'NONE', *, *, #221, .F. ) ;
#238 = CC_DESIGN_PERSON_AND_ORGANIZATION_ASSIGNMENT ( #210, #212, ( #78 ) ) ;
#239 = CARTESIAN_POINT ( 'NONE',  ( -2.574161134302127688E-13, 0.000000000000000000, -85.85000000000000853 ) ) ;
#240 = PLANE ( 'NONE',  #69 ) ;
#241 = FACE_OUTER_BOUND ( 'NONE', #120, .T. ) ;
#242 =( GEOMETRIC_REPRESENTATION_CONTEXT ( 3 ) GLOBAL_UNCERTAINTY_ASSIGNED_CONTEXT ( ( #233 ) ) GLOBAL_UNIT_ASSIGNED_CONTEXT ( ( #164, #28, #30 ) ) REPRESENTATION_CONTEXT ( 'NONE', 'WORKASPACE' ) );
#243 = LOCAL_TIME ( 10, 51, 1.000000000000000000, #176 ) ;
#244 = APPROVAL ( #119, 'UNSPECIFIED' ) ;
#245 = AXIS2_PLACEMENT_3D ( 'NONE', #41, #23, #206 ) ;
#246 = CIRCLE ( 'NONE', #6, 22.14999999999998792 ) ;
#247 = ADVANCED_FACE ( 'NONE', ( #203, #241 ), #68, .F. ) ;
#248 = APPROVAL_STATUS ( 'not_yet_approved' ) ;
#249 = PERSON_AND_ORGANIZATION ( #134, #40 ) ;
#250 = DIRECTION ( 'NONE',  ( -1.000000000000000000, 0.000000000000000000, 2.998440459291936381E-15 ) ) ;
#251 = DATE_AND_TIME ( #121, #207 ) ;
#252 = VERTEX_POINT ( 'NONE', #180 ) ;
#253 = CALENDAR_DATE ( 2024, 5, 8 ) ;
ENDSEC;
END-ISO-10303-21;
