ISO-10303-21;
HEADER;
/****************************************************************
 * Generated by software with PDElib inside                    *
 * PDElib Version v51a, created Wed 07/06/2011                  *
 * ITI Transcendata (http://www.transcendata.com/)              *
 ****************************************************************/
FILE_DESCRIPTION(('Hygienic Clamp Joint - 12,7x1,65_V00'),'2;1');
FILE_NAME('E090_CC_12,7x1,65_MR28,58_L41,2_Fl25_00.stp','2013-09-04T16:34:48',(''),('DOCKWEILER AG'),'Autodesk Inventor 2012','Autodesk Inventor 2012','');
FILE_SCHEMA(('CONFIG_CONTROL_DESIGN'));
ENDSEC;
DATA;
#5=APPLICATION_CONTEXT('configuration controlled 3D designs of mechanical parts and assemblies');
#6=APPLICATION_PROTOCOL_DEFINITION('International Standard','ap203_configuration_controlled_3d_design_of_mechanical_parts_and_assemblies_mim_lf',2004,#5);
#7=PRODUCT_CONTEXT('',#5,'mechanical');
#8=PRODUCT('N0001_009_001','N0001_009_001',$,(#7));
#9=PRODUCT_RELATED_PRODUCT_CATEGORY('part',$,(#8));
#10=PRODUCT_DEFINITION_FORMATION('',$,#8);
#11=PRODUCT_DEFINITION_CONTEXT('part definition',#5,'design');
#12=PRODUCT_DEFINITION('',$,#10,#11);
#18=(NAMED_UNIT(*)PLANE_ANGLE_UNIT()SI_UNIT($,.RADIAN.));
#19=DIMENSIONAL_EXPONENTS(0.0,0.0,0.0,0.0,0.0,0.0,0.0);
#20=PLANE_ANGLE_MEASURE_WITH_UNIT(PLANE_ANGLE_MEASURE(0.0174532925),#18);
#24=(CONVERSION_BASED_UNIT('DEGREE',#20)NAMED_UNIT(#19)PLANE_ANGLE_UNIT());
#28=(NAMED_UNIT(*)SI_UNIT($,.STERADIAN.)SOLID_ANGLE_UNIT());
#32=(LENGTH_UNIT()NAMED_UNIT(*)SI_UNIT(.MILLI.,.METRE.));
#34=UNCERTAINTY_MEASURE_WITH_UNIT(LENGTH_MEASURE(0.01),#32,'DISTANCE_ACCURACY_VALUE','');
#36=(GEOMETRIC_REPRESENTATION_CONTEXT(3)GLOBAL_UNCERTAINTY_ASSIGNED_CONTEXT((#34))GLOBAL_UNIT_ASSIGNED_CONTEXT((#24,#28,#32))REPRESENTATION_CONTEXT('None','None'));
#37=AXIS2_PLACEMENT_3D('',#38,#39,#40);
#38=CARTESIAN_POINT('',(0.0,0.0,0.0));
#39=DIRECTION('',(0.0,0.0,1.0));
#40=DIRECTION('',(1.0,0.0,0.0));
#41=SHAPE_REPRESENTATION('',(#37,#209,#584,#596),#36);
#42=PRODUCT_DEFINITION_SHAPE('','',#12);
#43=SHAPE_DEFINITION_REPRESENTATION(#42,#41);
#44=APPLICATION_CONTEXT('configuration controlled 3D designs of mechanical parts and assemblies');
#45=APPLICATION_PROTOCOL_DEFINITION('International Standard','ap203_configuration_controlled_3d_design_of_mechanical_parts_and_assemblies_mim_lf',2004,#44);
#46=PRODUCT_CONTEXT('',#44,'mechanical');
#47=PRODUCT('N0001_001_001_11','N0001_001_001_11',$,(#46));
#48=PRODUCT_RELATED_PRODUCT_CATEGORY('part',$,(#47));
#49=PRODUCT_DEFINITION_FORMATION('',$,#47);
#50=PRODUCT_DEFINITION_CONTEXT('part definition',#44,'design');
#51=PRODUCT_DEFINITION('',$,#49,#50);
#57=(NAMED_UNIT(*)PLANE_ANGLE_UNIT()SI_UNIT($,.RADIAN.));
#58=DIMENSIONAL_EXPONENTS(0.0,0.0,0.0,0.0,0.0,0.0,0.0);
#59=PLANE_ANGLE_MEASURE_WITH_UNIT(PLANE_ANGLE_MEASURE(0.0174532925),#57);
#63=(CONVERSION_BASED_UNIT('DEGREE',#59)NAMED_UNIT(#58)PLANE_ANGLE_UNIT());
#67=(NAMED_UNIT(*)SI_UNIT($,.STERADIAN.)SOLID_ANGLE_UNIT());
#71=(LENGTH_UNIT()NAMED_UNIT(*)SI_UNIT(.MILLI.,.METRE.));
#73=UNCERTAINTY_MEASURE_WITH_UNIT(LENGTH_MEASURE(0.01),#71,'DISTANCE_ACCURACY_VALUE','');
#75=(GEOMETRIC_REPRESENTATION_CONTEXT(3)GLOBAL_UNCERTAINTY_ASSIGNED_CONTEXT((#73))GLOBAL_UNIT_ASSIGNED_CONTEXT((#63,#67,#71))REPRESENTATION_CONTEXT('None','None'));
#76=AXIS2_PLACEMENT_3D('',#77,#78,#79);
#77=CARTESIAN_POINT('',(0.0,0.0,0.0));
#78=DIRECTION('',(0.0,0.0,1.0));
#79=DIRECTION('',(1.0,0.0,0.0));
#80=SHAPE_REPRESENTATION('',(#76),#75);
#81=PRODUCT_DEFINITION_SHAPE('','',#51);
#82=SHAPE_DEFINITION_REPRESENTATION(#81,#80);
#88=(NAMED_UNIT(*)PLANE_ANGLE_UNIT()SI_UNIT($,.RADIAN.));
#89=DIMENSIONAL_EXPONENTS(0.0,0.0,0.0,0.0,0.0,0.0,0.0);
#90=PLANE_ANGLE_MEASURE_WITH_UNIT(PLANE_ANGLE_MEASURE(0.0174532925),#88);
#94=(CONVERSION_BASED_UNIT('DEGREE',#90)NAMED_UNIT(#89)PLANE_ANGLE_UNIT());
#98=(NAMED_UNIT(*)SI_UNIT($,.STERADIAN.)SOLID_ANGLE_UNIT());
#102=(LENGTH_UNIT()NAMED_UNIT(*)SI_UNIT(.MILLI.,.METRE.));
#104=UNCERTAINTY_MEASURE_WITH_UNIT(LENGTH_MEASURE(0.000001),#102,'DISTANCE_ACCURACY_VALUE','');
#106=(GEOMETRIC_REPRESENTATION_CONTEXT(3)GLOBAL_UNCERTAINTY_ASSIGNED_CONTEXT((#104))GLOBAL_UNIT_ASSIGNED_CONTEXT((#94,#98,#102))REPRESENTATION_CONTEXT('','3D'));
#107=CARTESIAN_POINT('',(0.0,0.0,47.600000000000016));
#108=DIRECTION('',(0.0,0.0,-1.0));
#109=DIRECTION('',(-1.0,0.0,0.0));
#110=AXIS2_PLACEMENT_3D('',#107,#108,#109);
#111=PLANE('',#110);
#112=CARTESIAN_POINT('',(6.349999999999998,7.776507E-016,47.600000000000023));
#113=VERTEX_POINT('',#112);
#114=CARTESIAN_POINT('',(2.660915E-016,0.0,47.600000000000023));
#115=DIRECTION('',(0.0,0.0,-1.0));
#116=DIRECTION('',(-1.0,0.0,0.0));
#117=AXIS2_PLACEMENT_3D('',#114,#115,#116);
#118=CIRCLE('',#117,6.349999999999998);
#119=EDGE_CURVE('',#113,#113,#118,.T.);
#120=ORIENTED_EDGE('',*,*,#119,.T.);
#121=EDGE_LOOP('',(#120));
#122=FACE_OUTER_BOUND('',#121,.T.);
#123=CARTESIAN_POINT('',(4.699999999999998,5.755840E-016,47.600000000000023));
#124=VERTEX_POINT('',#123);
#125=CARTESIAN_POINT('',(2.660915E-016,0.0,47.600000000000023));
#126=DIRECTION('',(0.0,0.0,-1.0));
#127=DIRECTION('',(-1.0,0.0,0.0));
#128=AXIS2_PLACEMENT_3D('',#125,#126,#127);
#129=CIRCLE('',#128,4.699999999999998);
#130=EDGE_CURVE('',#124,#124,#129,.T.);
#131=ORIENTED_EDGE('',*,*,#130,.F.);
#132=EDGE_LOOP('',(#131));
#133=FACE_BOUND('',#132,.T.);
#134=ADVANCED_FACE('',(#122,#133),#111,.T.);
#135=CARTESIAN_POINT('',(28.599999999999994,0.0,66.700000000000017));
#136=DIRECTION('',(-1.0,0.0,0.0));
#137=DIRECTION('',(0.0,0.0,1.0));
#138=AXIS2_PLACEMENT_3D('',#135,#136,#137);
#139=PLANE('',#138);
#140=CARTESIAN_POINT('',(28.600000000000012,7.776507E-016,69.850000000000037));
#141=VERTEX_POINT('',#140);
#142=CARTESIAN_POINT('',(28.600000000000012,0.0,76.200000000000017));
#143=DIRECTION('',(-1.0,0.0,0.0));
#144=DIRECTION('',(0.0,0.0,1.0));
#145=AXIS2_PLACEMENT_3D('',#142,#143,#144);
#146=CIRCLE('',#145,6.349999999999998);
#147=EDGE_CURVE('',#141,#141,#146,.T.);
#148=ORIENTED_EDGE('',*,*,#147,.F.);
#149=EDGE_LOOP('',(#148));
#150=FACE_OUTER_BOUND('',#149,.T.);
#151=CARTESIAN_POINT('',(28.600000000000012,5.755840E-016,71.500000000000043));
#152=VERTEX_POINT('',#151);
#153=CARTESIAN_POINT('',(28.600000000000012,0.0,76.200000000000017));
#154=DIRECTION('',(-1.0,0.0,0.0));
#155=DIRECTION('',(0.0,0.0,1.0));
#156=AXIS2_PLACEMENT_3D('',#153,#154,#155);
#157=CIRCLE('',#156,4.699999999999998);
#158=EDGE_CURVE('',#152,#152,#157,.T.);
#159=ORIENTED_EDGE('',*,*,#158,.T.);
#160=EDGE_LOOP('',(#159));
#161=FACE_BOUND('',#160,.T.);
#162=ADVANCED_FACE('',(#150,#161),#139,.F.);
#163=CARTESIAN_POINT('',(28.600000000000012,0.0,47.600000000000023));
#164=DIRECTION('',(0.0,1.0,0.0));
#165=DIRECTION('',(0.0,0.0,1.0));
#166=AXIS2_PLACEMENT_3D('',#163,#164,#165);
#167=TOROIDAL_SURFACE('',#166,28.600000000000012,4.699999999999998);
#168=ORIENTED_EDGE('',*,*,#158,.F.);
#169=EDGE_LOOP('',(#168));
#170=FACE_OUTER_BOUND('',#169,.T.);
#171=ORIENTED_EDGE('',*,*,#130,.T.);
#172=EDGE_LOOP('',(#171));
#173=FACE_BOUND('',#172,.T.);
#174=ADVANCED_FACE('',(#170,#173),#167,.F.);
#175=CARTESIAN_POINT('',(28.600000000000012,0.0,47.600000000000023));
#176=DIRECTION('',(0.0,1.0,0.0));
#177=DIRECTION('',(0.0,0.0,1.0));
#178=AXIS2_PLACEMENT_3D('',#175,#176,#177);
#179=TOROIDAL_SURFACE('',#178,28.600000000000012,6.349999999999998);
#180=ORIENTED_EDGE('',*,*,#147,.T.);
#181=EDGE_LOOP('',(#180));
#182=FACE_OUTER_BOUND('',#181,.T.);
#183=ORIENTED_EDGE('',*,*,#119,.F.);
#184=EDGE_LOOP('',(#183));
#185=FACE_BOUND('',#184,.T.);
#186=ADVANCED_FACE('',(#182,#185),#179,.T.);
#187=CLOSED_SHELL('',(#134,#162,#174,#186));
#188=MANIFOLD_SOLID_BREP('',#187);
#189=COLOUR_RGB('',0.639216005802155,0.639216005802155,0.686275005340576);
#190=FILL_AREA_STYLE_COLOUR('',#189);
#191=FILL_AREA_STYLE('',(#190));
#192=SURFACE_STYLE_FILL_AREA(#191);
#193=SURFACE_SIDE_STYLE('',(#192));
#194=SURFACE_STYLE_USAGE(.BOTH.,#193);
#195=PRESENTATION_STYLE_ASSIGNMENT((#194));
#196=STYLED_ITEM('',(#195),#174);
#197=STYLED_ITEM('',(#195),#186);
#198=MECHANICAL_DESIGN_GEOMETRIC_PRESENTATION_REPRESENTATION('',(#196,#197,#206,#581),#106);
#199=COLOUR_RGB('Metall - Stahl',0.639216005802155,0.639216005802155,0.686275005340576);
#200=FILL_AREA_STYLE_COLOUR('Metall - Stahl',#199);
#201=FILL_AREA_STYLE('Metall - Stahl',(#200));
#202=SURFACE_STYLE_FILL_AREA(#201);
#203=SURFACE_SIDE_STYLE('Metall - Stahl',(#202));
#204=SURFACE_STYLE_USAGE(.BOTH.,#203);
#205=PRESENTATION_STYLE_ASSIGNMENT((#204));
#206=STYLED_ITEM('',(#205),#188);
#207=ADVANCED_BREP_SHAPE_REPRESENTATION('ABSR',(#188),#75);
#208=SHAPE_REPRESENTATION_RELATIONSHIP('SRR','None',#207,#80);
#209=AXIS2_PLACEMENT_3D('',#210,#211,#212);
#210=CARTESIAN_POINT('',(0.0,0.0,0.0));
#211=DIRECTION('',(0.0,0.0,1.0));
#212=DIRECTION('',(1.0,0.0,0.0));
#213=NEXT_ASSEMBLY_USAGE_OCCURRENCE('N0001_001_001_11_1:1','N0001_001_001_11_1:1','N0001_001_001_11_1:1',#12,#51,'N0001_001_001_11_1:1');
#214=PRODUCT_DEFINITION_SHAPE('N0001_001_001_11_1:1','N0001_001_001_11_1:1',#213);
#215=ITEM_DEFINED_TRANSFORMATION('N0001_001_001_11_1:1','N0001_001_001_11_1:1',#76,#209);
#219=(REPRESENTATION_RELATIONSHIP('N0001_001_001_11_1:1','N0001_001_001_11_1:1',#80,#41)REPRESENTATION_RELATIONSHIP_WITH_TRANSFORMATION(#215)SHAPE_REPRESENTATION_RELATIONSHIP());
#220=CONTEXT_DEPENDENT_SHAPE_REPRESENTATION(#219,#214);
#221=APPLICATION_CONTEXT('configuration controlled 3D designs of mechanical parts and assemblies');
#222=APPLICATION_PROTOCOL_DEFINITION('International Standard','ap203_configuration_controlled_3d_design_of_mechanical_parts_and_assemblies_mim_lf',2004,#221);
#223=PRODUCT_CONTEXT('',#221,'mechanical');
#224=PRODUCT('N0003_003_001_26','N0003_003_001_26',$,(#223));
#225=PRODUCT_RELATED_PRODUCT_CATEGORY('part',$,(#224));
#226=PRODUCT_DEFINITION_FORMATION('',$,#224);
#227=PRODUCT_DEFINITION_CONTEXT('part definition',#221,'design');
#228=PRODUCT_DEFINITION('',$,#226,#227);
#234=(NAMED_UNIT(*)PLANE_ANGLE_UNIT()SI_UNIT($,.RADIAN.));
#235=DIMENSIONAL_EXPONENTS(0.0,0.0,0.0,0.0,0.0,0.0,0.0);
#236=PLANE_ANGLE_MEASURE_WITH_UNIT(PLANE_ANGLE_MEASURE(0.0174532925),#234);
#240=(CONVERSION_BASED_UNIT('DEGREE',#236)NAMED_UNIT(#235)PLANE_ANGLE_UNIT());
#244=(NAMED_UNIT(*)SI_UNIT($,.STERADIAN.)SOLID_ANGLE_UNIT());
#248=(LENGTH_UNIT()NAMED_UNIT(*)SI_UNIT(.MILLI.,.METRE.));
#250=UNCERTAINTY_MEASURE_WITH_UNIT(LENGTH_MEASURE(0.01),#248,'DISTANCE_ACCURACY_VALUE','');
#252=(GEOMETRIC_REPRESENTATION_CONTEXT(3)GLOBAL_UNCERTAINTY_ASSIGNED_CONTEXT((#250))GLOBAL_UNIT_ASSIGNED_CONTEXT((#240,#244,#248))REPRESENTATION_CONTEXT('None','None'));
#253=AXIS2_PLACEMENT_3D('',#254,#255,#256);
#254=CARTESIAN_POINT('',(0.0,0.0,0.0));
#255=DIRECTION('',(0.0,0.0,1.0));
#256=DIRECTION('',(1.0,0.0,0.0));
#257=SHAPE_REPRESENTATION('',(#253),#252);
#258=PRODUCT_DEFINITION_SHAPE('','',#228);
#259=SHAPE_DEFINITION_REPRESENTATION(#258,#257);
#265=(NAMED_UNIT(*)PLANE_ANGLE_UNIT()SI_UNIT($,.RADIAN.));
#266=DIMENSIONAL_EXPONENTS(0.0,0.0,0.0,0.0,0.0,0.0,0.0);
#267=PLANE_ANGLE_MEASURE_WITH_UNIT(PLANE_ANGLE_MEASURE(0.0174532925),#265);
#271=(CONVERSION_BASED_UNIT('DEGREE',#267)NAMED_UNIT(#266)PLANE_ANGLE_UNIT());
#275=(NAMED_UNIT(*)SI_UNIT($,.STERADIAN.)SOLID_ANGLE_UNIT());
#279=(LENGTH_UNIT()NAMED_UNIT(*)SI_UNIT(.MILLI.,.METRE.));
#281=UNCERTAINTY_MEASURE_WITH_UNIT(LENGTH_MEASURE(0.000001),#279,'DISTANCE_ACCURACY_VALUE','');
#283=(GEOMETRIC_REPRESENTATION_CONTEXT(3)GLOBAL_UNCERTAINTY_ASSIGNED_CONTEXT((#281))GLOBAL_UNIT_ASSIGNED_CONTEXT((#271,#275,#279))REPRESENTATION_CONTEXT('','3D'));
#284=CARTESIAN_POINT('',(5.525000000000004,12.699999999999999,0.0));
#285=DIRECTION('',(0.0,1.0,0.0));
#286=DIRECTION('',(0.0,0.0,1.0));
#287=AXIS2_PLACEMENT_3D('',#284,#285,#286);
#288=PLANE('',#287);
#289=CARTESIAN_POINT('',(6.350000000000005,12.699999999999999,0.0));
#290=VERTEX_POINT('',#289);
#291=CARTESIAN_POINT('',(0.0,12.699999999999999,0.0));
#292=DIRECTION('',(0.0,-1.0,0.0));
#293=DIRECTION('',(1.0,0.0,0.0));
#294=AXIS2_PLACEMENT_3D('',#291,#292,#293);
#295=CIRCLE('',#294,6.350000000000005);
#296=EDGE_CURVE('',#290,#290,#295,.T.);
#297=ORIENTED_EDGE('',*,*,#296,.F.);
#298=EDGE_LOOP('',(#297));
#299=FACE_OUTER_BOUND('',#298,.T.);
#300=CARTESIAN_POINT('',(4.700000000000005,12.699999999999999,0.0));
#301=VERTEX_POINT('',#300);
#302=CARTESIAN_POINT('',(0.0,12.699999999999999,0.0));
#303=DIRECTION('',(0.0,-1.0,0.0));
#304=DIRECTION('',(1.0,0.0,0.0));
#305=AXIS2_PLACEMENT_3D('',#302,#303,#304);
#306=CIRCLE('',#305,4.700000000000005);
#307=EDGE_CURVE('',#301,#301,#306,.T.);
#308=ORIENTED_EDGE('',*,*,#307,.T.);
#309=EDGE_LOOP('',(#308));
#310=FACE_BOUND('',#309,.T.);
#311=ADVANCED_FACE('',(#299,#310),#288,.T.);
#312=CARTESIAN_POINT('',(0.0,9.549291485652454,0.0));
#313=DIRECTION('',(0.0,-1.0,0.0));
#314=DIRECTION('',(1.0,0.0,0.0));
#315=AXIS2_PLACEMENT_3D('',#312,#313,#314);
#316=CYLINDRICAL_SURFACE('',#315,6.350000000000006);
#317=CARTESIAN_POINT('',(6.350000000000007,6.398582971304907,0.0));
#318=VERTEX_POINT('',#317);
#319=CARTESIAN_POINT('',(0.0,6.398582971304907,0.0));
#320=DIRECTION('',(0.0,-1.0,0.0));
#321=DIRECTION('',(1.0,0.0,0.0));
#322=AXIS2_PLACEMENT_3D('',#319,#320,#321);
#323=CIRCLE('',#322,6.350000000000007);
#324=EDGE_CURVE('',#318,#318,#323,.T.);
#325=ORIENTED_EDGE('',*,*,#324,.F.);
#326=EDGE_LOOP('',(#325));
#327=FACE_OUTER_BOUND('',#326,.T.);
#328=ORIENTED_EDGE('',*,*,#296,.T.);
#329=EDGE_LOOP('',(#328));
#330=FACE_BOUND('',#329,.T.);
#331=ADVANCED_FACE('',(#327,#330),#316,.T.);
#332=CARTESIAN_POINT('',(0.0,6.398582971304907,0.0));
#333=DIRECTION('',(0.0,-1.0,0.0));
#334=DIRECTION('',(0.0,0.0,-1.0));
#335=AXIS2_PLACEMENT_3D('',#332,#333,#334);
#336=TOROIDAL_SURFACE('',#335,7.150000000000008,0.8);
#337=CARTESIAN_POINT('',(6.876383885339473,5.64682887467618,0.0));
#338=VERTEX_POINT('',#337);
#339=CARTESIAN_POINT('',(0.0,5.64682887467618,0.0));
#340=DIRECTION('',(0.0,-1.0,0.0));
#341=DIRECTION('',(1.0,0.0,0.0));
#342=AXIS2_PLACEMENT_3D('',#339,#340,#341);
#343=CIRCLE('',#342,6.876383885339473);
#344=EDGE_CURVE('',#338,#338,#343,.T.);
#345=ORIENTED_EDGE('',*,*,#344,.F.);
#346=EDGE_LOOP('',(#345));
#347=FACE_OUTER_BOUND('',#346,.T.);
#348=ORIENTED_EDGE('',*,*,#324,.T.);
#349=EDGE_LOOP('',(#348));
#350=FACE_BOUND('',#349,.T.);
#351=ADVANCED_FACE('',(#347,#350),#336,.F.);
#352=CARTESIAN_POINT('',(0.0,4.719208470368569,0.0));
#353=DIRECTION('',(0.0,-1.0,0.0));
#354=DIRECTION('',(1.0,0.0,0.0));
#355=AXIS2_PLACEMENT_3D('',#352,#353,#354);
#356=CONICAL_SURFACE('',#355,9.425000000000004,70.000000000000014);
#357=CARTESIAN_POINT('',(11.973616114660533,3.791588066060959,0.0));
#358=VERTEX_POINT('',#357);
#359=CARTESIAN_POINT('',(0.0,3.791588066060959,0.0));
#360=DIRECTION('',(0.0,-1.0,0.0));
#361=DIRECTION('',(1.0,0.0,0.0));
#362=AXIS2_PLACEMENT_3D('',#359,#360,#361);
#363=CIRCLE('',#362,11.973616114660533);
#364=EDGE_CURVE('',#358,#358,#363,.T.);
#365=ORIENTED_EDGE('',*,*,#364,.F.);
#366=EDGE_LOOP('',(#365));
#367=FACE_OUTER_BOUND('',#366,.T.);
#368=ORIENTED_EDGE('',*,*,#344,.T.);
#369=EDGE_LOOP('',(#368));
#370=FACE_BOUND('',#369,.T.);
#371=ADVANCED_FACE('',(#367,#370),#356,.T.);
#372=CARTESIAN_POINT('',(0.0,3.039833969432233,0.0));
#373=DIRECTION('',(0.0,-1.0,0.0));
#374=DIRECTION('',(0.0,0.0,-1.0));
#375=AXIS2_PLACEMENT_3D('',#372,#373,#374);
#376=TOROIDAL_SURFACE('',#375,11.699999999999998,0.8);
#377=CARTESIAN_POINT('',(12.5,3.039833969432233,0.0));
#378=VERTEX_POINT('',#377);
#379=CARTESIAN_POINT('',(0.0,3.039833969432233,0.0));
#380=DIRECTION('',(0.0,-1.0,0.0));
#381=DIRECTION('',(1.0,0.0,0.0));
#382=AXIS2_PLACEMENT_3D('',#379,#380,#381);
#383=CIRCLE('',#382,12.5);
#384=EDGE_CURVE('',#378,#378,#383,.T.);
#385=ORIENTED_EDGE('',*,*,#384,.F.);
#386=EDGE_LOOP('',(#385));
#387=FACE_OUTER_BOUND('',#386,.T.);
#388=ORIENTED_EDGE('',*,*,#364,.T.);
#389=EDGE_LOOP('',(#388));
#390=FACE_BOUND('',#389,.T.);
#391=ADVANCED_FACE('',(#387,#390),#376,.T.);
#392=CARTESIAN_POINT('',(0.0,1.519916984716117,0.0));
#393=DIRECTION('',(0.0,-1.0,0.0));
#394=DIRECTION('',(1.0,0.0,0.0));
#395=AXIS2_PLACEMENT_3D('',#392,#393,#394);
#396=CYLINDRICAL_SURFACE('',#395,12.5);
#397=CARTESIAN_POINT('',(12.5,6.938894E-017,0.0));
#398=VERTEX_POINT('',#397);
#399=CARTESIAN_POINT('',(0.0,0.0,0.0));
#400=DIRECTION('',(0.0,-1.0,0.0));
#401=DIRECTION('',(1.0,0.0,0.0));
#402=AXIS2_PLACEMENT_3D('',#399,#400,#401);
#403=CIRCLE('',#402,12.5);
#404=EDGE_CURVE('',#398,#398,#403,.T.);
#405=ORIENTED_EDGE('',*,*,#404,.F.);
#406=EDGE_LOOP('',(#405));
#407=FACE_OUTER_BOUND('',#406,.T.);
#408=ORIENTED_EDGE('',*,*,#384,.T.);
#409=EDGE_LOOP('',(#408));
#410=FACE_BOUND('',#409,.T.);
#411=ADVANCED_FACE('',(#407,#410),#396,.T.);
#412=CARTESIAN_POINT('',(11.98,1.090599E-018,0.0));
#413=DIRECTION('',(0.0,-1.0,0.0));
#414=DIRECTION('',(0.0,0.0,-1.0));
#415=AXIS2_PLACEMENT_3D('',#412,#413,#414);
#416=PLANE('',#415);
#417=ORIENTED_EDGE('',*,*,#404,.T.);
#418=EDGE_LOOP('',(#417));
#419=FACE_OUTER_BOUND('',#418,.T.);
#420=CARTESIAN_POINT('',(11.460000000000001,-6.720774E-017,0.0));
#421=VERTEX_POINT('',#420);
#422=CARTESIAN_POINT('',(0.0,0.0,0.0));
#423=DIRECTION('',(0.0,-1.0,0.0));
#424=DIRECTION('',(1.0,0.0,0.0));
#425=AXIS2_PLACEMENT_3D('',#422,#423,#424);
#426=CIRCLE('',#425,11.460000000000001);
#427=EDGE_CURVE('',#421,#421,#426,.T.);
#428=ORIENTED_EDGE('',*,*,#427,.F.);
#429=EDGE_LOOP('',(#428));
#430=FACE_BOUND('',#429,.T.);
#431=ADVANCED_FACE('',(#419,#430),#416,.T.);
#432=CARTESIAN_POINT('',(0.0,0.5,0.0));
#433=DIRECTION('',(0.0,-1.0,0.0));
#434=DIRECTION('',(0.0,0.0,-1.0));
#435=AXIS2_PLACEMENT_3D('',#432,#433,#434);
#436=TOROIDAL_SURFACE('',#435,11.460000000000001,0.5);
#437=CARTESIAN_POINT('',(10.960000000000001,0.5,0.0));
#438=VERTEX_POINT('',#437);
#439=CARTESIAN_POINT('',(0.0,0.5,0.0));
#440=DIRECTION('',(0.0,-1.0,0.0));
#441=DIRECTION('',(1.0,0.0,0.0));
#442=AXIS2_PLACEMENT_3D('',#439,#440,#441);
#443=CIRCLE('',#442,10.960000000000001);
#444=EDGE_CURVE('',#438,#438,#443,.T.);
#445=ORIENTED_EDGE('',*,*,#444,.F.);
#446=EDGE_LOOP('',(#445));
#447=FACE_OUTER_BOUND('',#446,.T.);
#448=ORIENTED_EDGE('',*,*,#427,.T.);
#449=EDGE_LOOP('',(#448));
#450=FACE_BOUND('',#449,.T.);
#451=ADVANCED_FACE('',(#447,#450),#436,.T.);
#452=CARTESIAN_POINT('',(0.0,1.0,0.0));
#453=DIRECTION('',(0.0,-1.0,0.0));
#454=DIRECTION('',(1.0,0.0,0.0));
#455=AXIS2_PLACEMENT_3D('',#452,#453,#454);
#456=CYLINDRICAL_SURFACE('',#455,10.960000000000001);
#457=CARTESIAN_POINT('',(10.960000000000001,1.499999999999999,0.0));
#458=VERTEX_POINT('',#457);
#459=CARTESIAN_POINT('',(0.0,1.499999999999999,0.0));
#460=DIRECTION('',(0.0,-1.0,0.0));
#461=DIRECTION('',(1.0,0.0,0.0));
#462=AXIS2_PLACEMENT_3D('',#459,#460,#461);
#463=CIRCLE('',#462,10.960000000000001);
#464=EDGE_CURVE('',#458,#458,#463,.T.);
#465=ORIENTED_EDGE('',*,*,#464,.F.);
#466=EDGE_LOOP('',(#465));
#467=FACE_OUTER_BOUND('',#466,.T.);
#468=ORIENTED_EDGE('',*,*,#444,.T.);
#469=EDGE_LOOP('',(#468));
#470=FACE_BOUND('',#469,.T.);
#471=ADVANCED_FACE('',(#467,#470),#456,.F.);
#472=CARTESIAN_POINT('',(0.0,1.499999999999999,0.0));
#473=DIRECTION('',(0.0,-1.0,0.0));
#474=DIRECTION('',(0.0,0.0,-1.0));
#475=AXIS2_PLACEMENT_3D('',#472,#473,#474);
#476=TOROIDAL_SURFACE('',#475,10.16,0.8);
#477=CARTESIAN_POINT('',(9.504678364568806,1.958861149080837,0.0));
#478=VERTEX_POINT('',#477);
#479=CARTESIAN_POINT('',(0.0,1.958861149080837,0.0));
#480=DIRECTION('',(0.0,-1.0,0.0));
#481=DIRECTION('',(1.0,0.0,0.0));
#482=AXIS2_PLACEMENT_3D('',#479,#480,#481);
#483=CIRCLE('',#482,9.504678364568806);
#484=EDGE_CURVE('',#478,#478,#483,.T.);
#485=ORIENTED_EDGE('',*,*,#484,.F.);
#486=EDGE_LOOP('',(#485));
#487=FACE_OUTER_BOUND('',#486,.T.);
#488=ORIENTED_EDGE('',*,*,#464,.T.);
#489=EDGE_LOOP('',(#488));
#490=FACE_BOUND('',#489,.T.);
#491=ADVANCED_FACE('',(#487,#490),#476,.F.);
#492=CARTESIAN_POINT('',(0.0,1.486036465452657,0.0));
#493=DIRECTION('',(0.0,1.0,0.0));
#494=DIRECTION('',(1.0,0.0,0.0));
#495=AXIS2_PLACEMENT_3D('',#492,#493,#494);
#496=CONICAL_SURFACE('',#495,9.173602956840734,35.000000000000007);
#497=CARTESIAN_POINT('',(8.84252754911266,1.013211781824476,0.0));
#498=VERTEX_POINT('',#497);
#499=CARTESIAN_POINT('',(0.0,1.013211781824476,0.0));
#500=DIRECTION('',(0.0,-1.0,0.0));
#501=DIRECTION('',(1.0,0.0,0.0));
#502=AXIS2_PLACEMENT_3D('',#499,#500,#501);
#503=CIRCLE('',#502,8.84252754911266);
#504=EDGE_CURVE('',#498,#498,#503,.T.);
#505=ORIENTED_EDGE('',*,*,#504,.F.);
#506=EDGE_LOOP('',(#505));
#507=FACE_OUTER_BOUND('',#506,.T.);
#508=ORIENTED_EDGE('',*,*,#484,.T.);
#509=EDGE_LOOP('',(#508));
#510=FACE_BOUND('',#509,.T.);
#511=ADVANCED_FACE('',(#507,#510),#496,.T.);
#512=CARTESIAN_POINT('',(0.0,1.299999999999999,0.0));
#513=DIRECTION('',(0.0,-1.0,0.0));
#514=DIRECTION('',(0.0,0.0,-1.0));
#515=AXIS2_PLACEMENT_3D('',#512,#513,#514);
#516=TOROIDAL_SURFACE('',#515,8.432951526968164,0.5);
#517=CARTESIAN_POINT('',(8.432951526968164,0.8,0.0));
#518=VERTEX_POINT('',#517);
#519=CARTESIAN_POINT('',(0.0,0.8,0.0));
#520=DIRECTION('',(0.0,-1.0,0.0));
#521=DIRECTION('',(1.0,0.0,0.0));
#522=AXIS2_PLACEMENT_3D('',#519,#520,#521);
#523=CIRCLE('',#522,8.432951526968164);
#524=EDGE_CURVE('',#518,#518,#523,.T.);
#525=ORIENTED_EDGE('',*,*,#524,.F.);
#526=EDGE_LOOP('',(#525));
#527=FACE_OUTER_BOUND('',#526,.T.);
#528=ORIENTED_EDGE('',*,*,#504,.T.);
#529=EDGE_LOOP('',(#528));
#530=FACE_BOUND('',#529,.T.);
#531=ADVANCED_FACE('',(#527,#530),#516,.T.);
#532=CARTESIAN_POINT('',(6.566475763484086,0.8,0.0));
#533=DIRECTION('',(0.0,-1.0,0.0));
#534=DIRECTION('',(0.0,0.0,-1.0));
#535=AXIS2_PLACEMENT_3D('',#532,#533,#534);
#536=PLANE('',#535);
#537=ORIENTED_EDGE('',*,*,#524,.T.);
#538=EDGE_LOOP('',(#537));
#539=FACE_OUTER_BOUND('',#538,.T.);
#540=CARTESIAN_POINT('',(4.700000000000009,0.8,0.0));
#541=VERTEX_POINT('',#540);
#542=CARTESIAN_POINT('',(0.0,0.8,0.0));
#543=DIRECTION('',(0.0,-1.0,0.0));
#544=DIRECTION('',(1.0,0.0,0.0));
#545=AXIS2_PLACEMENT_3D('',#542,#543,#544);
#546=CIRCLE('',#545,4.700000000000009);
#547=EDGE_CURVE('',#541,#541,#546,.T.);
#548=ORIENTED_EDGE('',*,*,#547,.F.);
#549=EDGE_LOOP('',(#548));
#550=FACE_BOUND('',#549,.T.);
#551=ADVANCED_FACE('',(#539,#550),#536,.T.);
#552=CARTESIAN_POINT('',(0.0,6.75,0.0));
#553=DIRECTION('',(0.0,-1.0,0.0));
#554=DIRECTION('',(1.0,0.0,0.0));
#555=AXIS2_PLACEMENT_3D('',#552,#553,#554);
#556=CYLINDRICAL_SURFACE('',#555,4.700000000000006);
#557=ORIENTED_EDGE('',*,*,#307,.F.);
#558=EDGE_LOOP('',(#557));
#559=FACE_OUTER_BOUND('',#558,.T.);
#560=ORIENTED_EDGE('',*,*,#547,.T.);
#561=EDGE_LOOP('',(#560));
#562=FACE_BOUND('',#561,.T.);
#563=ADVANCED_FACE('',(#559,#562),#556,.F.);
#564=CLOSED_SHELL('',(#311,#331,#351,#371,#391,#411,#431,#451,#471,#491,#511,#531,#551,#563));
#565=MANIFOLD_SOLID_BREP('Volumenk\S\vrper1',#564);
#566=STYLED_ITEM('',(#195),#311);
#567=STYLED_ITEM('',(#195),#331);
#568=STYLED_ITEM('',(#195),#351);
#569=STYLED_ITEM('',(#195),#371);
#570=STYLED_ITEM('',(#195),#391);
#571=STYLED_ITEM('',(#195),#411);
#572=STYLED_ITEM('',(#195),#431);
#573=STYLED_ITEM('',(#195),#451);
#574=STYLED_ITEM('',(#195),#471);
#575=STYLED_ITEM('',(#195),#491);
#576=STYLED_ITEM('',(#195),#511);
#577=STYLED_ITEM('',(#195),#531);
#578=STYLED_ITEM('',(#195),#551);
#579=STYLED_ITEM('',(#195),#563);
#580=MECHANICAL_DESIGN_GEOMETRIC_PRESENTATION_REPRESENTATION('',(#566,#567,#568,#569,#570,#571,#572,#573,#574,#575,#576,#577,#578,#579),#283);
#581=STYLED_ITEM('',(#205),#565);
#582=ADVANCED_BREP_SHAPE_REPRESENTATION('ABSR',(#565),#252);
#583=SHAPE_REPRESENTATION_RELATIONSHIP('SRR','None',#582,#257);
#584=AXIS2_PLACEMENT_3D('',#585,#586,#587);
#585=CARTESIAN_POINT('',(41.299999999999997,-9.860761E-031,76.200000000000017));
#586=DIRECTION('',(6.065927E-017,7.413584E-017,1.0));
#587=DIRECTION('',(-4.996004E-016,1.000000000000001,-1.665335E-016));
#588=NEXT_ASSEMBLY_USAGE_OCCURRENCE('N0003_003_001_26:1','N0003_003_001_26:1','N0003_003_001_26:1',#12,#228,'N0003_003_001_26:1');
#589=PRODUCT_DEFINITION_SHAPE('N0003_003_001_26:1','N0003_003_001_26:1',#588);
#590=ITEM_DEFINED_TRANSFORMATION('N0003_003_001_26:1','N0003_003_001_26:1',#253,#584);
#594=(REPRESENTATION_RELATIONSHIP('N0003_003_001_26:1','N0003_003_001_26:1',#257,#41)REPRESENTATION_RELATIONSHIP_WITH_TRANSFORMATION(#590)SHAPE_REPRESENTATION_RELATIONSHIP());
#595=CONTEXT_DEPENDENT_SHAPE_REPRESENTATION(#594,#589);
#596=AXIS2_PLACEMENT_3D('',#597,#598,#599);
#597=CARTESIAN_POINT('',(0.0,0.0,34.900000000000013));
#598=DIRECTION('',(-0.26712276122782,-0.963662508575499,0.0));
#599=DIRECTION('',(0.963662508575499,-0.26712276122782,0.0));
#600=NEXT_ASSEMBLY_USAGE_OCCURRENCE('N0003_003_001_26:2','N0003_003_001_26:2','N0003_003_001_26:2',#12,#228,'N0003_003_001_26:2');
#601=PRODUCT_DEFINITION_SHAPE('N0003_003_001_26:2','N0003_003_001_26:2',#600);
#602=ITEM_DEFINED_TRANSFORMATION('N0003_003_001_26:2','N0003_003_001_26:2',#253,#596);
#606=(REPRESENTATION_RELATIONSHIP('N0003_003_001_26:2','N0003_003_001_26:2',#257,#41)REPRESENTATION_RELATIONSHIP_WITH_TRANSFORMATION(#602)SHAPE_REPRESENTATION_RELATIONSHIP());
#607=CONTEXT_DEPENDENT_SHAPE_REPRESENTATION(#606,#601);
ENDSEC;
END-ISO-10303-21;
