ISO-10303-21;
HEADER;
FILE_DESCRIPTION (( 'STEP AP203' ),
    '1' );
FILE_NAME ('3D_GR1184_42.4x2_183802874.STEP',
    '2024-09-23T06:25:29',
    ( '' ),
    ( '' ),
    'SwSTEP 2.0',
    'SolidWorks 2024',
    '' );
FILE_SCHEMA (( 'CONFIG_CONTROL_DESIGN' ));
ENDSEC;

DATA;
#1 = ORIENTED_EDGE ( 'NONE', *, *, #94, .F. ) ;
#2 = ORIENTED_EDGE ( 'NONE', *, *, #154, .F. ) ;
#3 = ADVANCED_FACE ( 'NONE', ( #358 ), #389, .T. ) ;
#4 = ORIENTED_EDGE ( 'NONE', *, *, #94, .T. ) ;
#5 = CARTESIAN_POINT ( 'NONE',  ( 7.999999999999979572, 0.000000000000000000, 19.20000000000002416 ) ) ;
#6 = CIRCLE ( 'NONE', #384, 1.000000000000000888 ) ;
#7 = ORIENTED_EDGE ( 'NONE', *, *, #9, .T. ) ;
#8 = CYLINDRICAL_SURFACE ( 'NONE', #262, 19.20000000000002416 ) ;
#9 = EDGE_CURVE ( 'NONE', #21, #318, #121, .T. ) ;
#10 = DIRECTION ( 'NONE',  ( 0.000000000000000000, -1.000000000000000000, 0.000000000000000000 ) ) ;
#11 = EDGE_LOOP ( 'NONE', ( #1, #74 ) ) ;
#12 = DIRECTION ( 'NONE',  ( 0.000000000000000000, 0.000000000000000000, 1.000000000000000000 ) ) ;
#13 = AXIS2_PLACEMENT_3D ( 'NONE', #31, #280, #244 ) ;
#14 = LOCAL_TIME ( 8, 25, 29.00000000000000000, #120 ) ;
#15 = CARTESIAN_POINT ( 'NONE',  ( 8.999999999999982236, 6.628682924999631928E-16, 0.000000000000000000 ) ) ;
#16 = CARTESIAN_POINT ( 'NONE',  ( -2.068188661490077074, 2.473786534277655988E-15, -20.20000000000002061 ) ) ;
#17 = ADVANCED_FACE ( 'NONE', ( #174, #364 ), #139, .F. ) ;
#18 = CARTESIAN_POINT ( 'NONE',  ( 8.999999999999980460, 0.000000000000000000, 0.000000000000000000 ) ) ;
#19 = APPROVAL_ROLE ( '' ) ;
#20 = VECTOR ( 'NONE', #197, 1000.000000000000000 ) ;
#21 = VERTEX_POINT ( 'NONE', #387 ) ;
#22 = AXIS2_PLACEMENT_3D ( 'NONE', #199, #39, #48 ) ;
#23 =( GEOMETRIC_REPRESENTATION_CONTEXT ( 3 ) GLOBAL_UNCERTAINTY_ASSIGNED_CONTEXT ( ( #363 ) ) GLOBAL_UNIT_ASSIGNED_CONTEXT ( ( #101, #73, #317 ) ) REPRESENTATION_CONTEXT ( 'NONE', 'WORKASPACE' ) );
#24 = EDGE_CURVE ( 'NONE', #318, #21, #393, .T. ) ;
#25 = FACE_OUTER_BOUND ( 'NONE', #102, .T. ) ;
#26 = DIRECTION ( 'NONE',  ( 0.000000000000000000, 0.000000000000000000, 1.000000000000000000 ) ) ;
#27 = DIRECTION ( 'NONE',  ( 0.000000000000000000, 1.000000000000000000, 0.000000000000000000 ) ) ;
#28 = COORDINATED_UNIVERSAL_TIME_OFFSET ( 1, 0, .AHEAD. ) ;
#29 = LINE ( 'NONE', #152, #221 ) ;
#30 = AXIS2_PLACEMENT_3D ( 'NONE', #15, #138, #297 ) ;
#31 = CARTESIAN_POINT ( 'NONE',  ( 19.68764705882348665, 0.000000000000000000, 0.000000000000000000 ) ) ;
#32 = PRODUCT_RELATED_PRODUCT_CATEGORY ( 'detail', '', ( #111 ) ) ;
#33 = DIRECTION ( 'NONE',  ( 0.000000000000000000, 1.224646799147353207E-16, -1.000000000000000000 ) ) ;
#34 = ORIENTED_EDGE ( 'NONE', *, *, #208, .F. ) ;
#35 = AXIS2_PLACEMENT_3D ( 'NONE', #402, #61, #182 ) ;
#36 = EDGE_CURVE ( 'NONE', #159, #233, #300, .T. ) ;
#37 = ORIENTED_EDGE ( 'NONE', *, *, #271, .T. ) ;
#38 = ORIENTED_EDGE ( 'NONE', *, *, #160, .T. ) ;
#39 = DIRECTION ( 'NONE',  ( -1.000000000000000000, -0.000000000000000000, -0.000000000000000000 ) ) ;
#40 = ORIENTED_EDGE ( 'NONE', *, *, #378, .T. ) ;
#41 = DIRECTION ( 'NONE',  ( 0.000000000000000000, 0.000000000000000000, 1.000000000000000000 ) ) ;
#42 = CIRCLE ( 'NONE', #352, 19.20000000000002416 ) ;
#43 = CC_DESIGN_APPROVAL ( #63, ( #105 ) ) ;
#44 = DIRECTION ( 'NONE',  ( 0.000000000000000000, 0.000000000000000000, 1.000000000000000000 ) ) ;
#45 = VERTEX_POINT ( 'NONE', #292 ) ;
#46 = CARTESIAN_POINT ( 'NONE',  ( 8.999999999999980460, 0.000000000000000000, 0.000000000000000000 ) ) ;
#47 = ORIENTED_EDGE ( 'NONE', *, *, #378, .F. ) ;
#48 = DIRECTION ( 'NONE',  ( 0.000000000000000000, 0.000000000000000000, 1.000000000000000000 ) ) ;
#49 = PERSON ( 'UNSPECIFIED', 'UNSPECIFIED', 'UNSPECIFIED', ('UNSPECIFIED'), ('UNSPECIFIED'), ('UNSPECIFIED') ) ;
#50 = AXIS2_PLACEMENT_3D ( 'NONE', #211, #184, #153 ) ;
#51 = EDGE_CURVE ( 'NONE', #45, #260, #375, .T. ) ;
#52 = CARTESIAN_POINT ( 'NONE',  ( 7.999999999999979572, 0.000000000000000000, 0.000000000000000000 ) ) ;
#53 = CALENDAR_DATE ( 2024, 23, 9 ) ;
#54 = DIRECTION ( 'NONE',  ( 0.000000000000000000, -1.224646799147353454E-16, 1.000000000000000000 ) ) ;
#55 = EDGE_LOOP ( 'NONE', ( #109, #95, #100, #321 ) ) ;
#56 = EDGE_CURVE ( 'NONE', #233, #260, #72, .T. ) ;
#57 = PERSON_AND_ORGANIZATION ( #49, #314 ) ;
#58 = AXIS2_PLACEMENT_3D ( 'NONE', #161, #108, #257 ) ;
#59 = CARTESIAN_POINT ( 'NONE',  ( -154.8395502972293230, 0.000000000000000000, 21.20000000000001705 ) ) ;
#60 = DATE_TIME_ROLE ( 'classification_date' ) ;
#61 = DIRECTION ( 'NONE',  ( -1.000000000000000000, -0.000000000000000000, -0.000000000000000000 ) ) ;
#62 = CARTESIAN_POINT ( 'NONE',  ( 19.68764705882348665, 0.000000000000000000, 0.000000000000000000 ) ) ;
#63 = APPROVAL ( #143, 'UNSPECIFIED' ) ;
#64 = CLOSED_SHELL ( 'NONE', ( #349, #3, #332, #339, #308, #114, #248, #311, #17, #397, #126, #91 ) ) ;
#65 = LINE ( 'NONE', #281, #313 ) ;
#66 = ORIENTED_EDGE ( 'NONE', *, *, #196, .T. ) ;
#67 = AXIS2_PLACEMENT_3D ( 'NONE', #16, #203, #54 ) ;
#68 = APPROVAL_PERSON_ORGANIZATION ( #304, #140, #19 ) ;
#69 = ORIENTED_EDGE ( 'NONE', *, *, #150, .F. ) ;
#70 = EDGE_CURVE ( 'NONE', #21, #165, #236, .T. ) ;
#71 = EDGE_LOOP ( 'NONE', ( #258, #2 ) ) ;
#72 = CIRCLE ( 'NONE', #67, 1.000000000000000888 ) ;
#73 =( NAMED_UNIT ( * ) PLANE_ANGLE_UNIT ( ) SI_UNIT ( $, .RADIAN. ) );
#74 = ORIENTED_EDGE ( 'NONE', *, *, #401, .F. ) ;
#75 = DIRECTION ( 'NONE',  ( 0.000000000000000000, 0.000000000000000000, 1.000000000000000000 ) ) ;
#76 = ORIENTED_EDGE ( 'NONE', *, *, #56, .T. ) ;
#77 = DIRECTION ( 'NONE',  ( -1.000000000000000000, -0.000000000000000000, -0.000000000000000000 ) ) ;
#78 = CARTESIAN_POINT ( 'NONE',  ( -154.8395502972293230, 0.000000000000000000, 0.000000000000000000 ) ) ;
#79 = CALENDAR_DATE ( 2024, 23, 9 ) ;
#80 = AXIS2_PLACEMENT_3D ( 'NONE', #230, #357, #44 ) ;
#81 = DIRECTION ( 'NONE',  ( -1.000000000000000000, -0.000000000000000000, -0.000000000000000000 ) ) ;
#82 = DIRECTION ( 'NONE',  ( -1.000000000000000000, -0.000000000000000000, -0.000000000000000000 ) ) ;
#83 = CC_DESIGN_DATE_AND_TIME_ASSIGNMENT ( #367, #60, ( #294 ) ) ;
#84 = PERSON_AND_ORGANIZATION ( #49, #314 ) ;
#85 = SPHERICAL_SURFACE ( 'NONE', #13, 30.68764705882351507 ) ;
#86 = COORDINATED_UNIVERSAL_TIME_OFFSET ( 1, 0, .AHEAD. ) ;
#87 = VECTOR ( 'NONE', #93, 1000.000000000000000 ) ;
#88 = LINE ( 'NONE', #119, #87 ) ;
#89 = COORDINATED_UNIVERSAL_TIME_OFFSET ( 1, 0, .AHEAD. ) ;
#90 = DIRECTION ( 'NONE',  ( -1.000000000000000000, -0.000000000000000000, -0.000000000000000000 ) ) ;
#91 = ADVANCED_FACE ( 'NONE', ( #198 ), #326, .F. ) ;
#92 = DIRECTION ( 'NONE',  ( 0.000000000000000000, 0.000000000000000000, 1.000000000000000000 ) ) ;
#93 = DIRECTION ( 'NONE',  ( -1.000000000000000000, -0.000000000000000000, -0.000000000000000000 ) ) ;
#94 = EDGE_CURVE ( 'NONE', #324, #194, #293, .T. ) ;
#95 = ORIENTED_EDGE ( 'NONE', *, *, #401, .T. ) ;
#96 = CIRCLE ( 'NONE', #35, 20.88041768214153393 ) ;
#97 = FACE_OUTER_BOUND ( 'NONE', #168, .T. ) ;
#98 = CARTESIAN_POINT ( 'NONE',  ( -2.801013181978562194, -20.88041768214153038, -2.557113667929442054E-15 ) ) ;
#99 = EDGE_CURVE ( 'NONE', #392, #360, #96, .T. ) ;
#100 = ORIENTED_EDGE ( 'NONE', *, *, #183, .T. ) ;
#101 =( LENGTH_UNIT ( ) NAMED_UNIT ( * ) SI_UNIT ( .MILLI., .METRE. ) );
#102 = EDGE_LOOP ( 'NONE', ( #106, #256, #219, #129 ) ) ;
#103 = CONICAL_SURFACE ( 'NONE', #336, 18.20000000000002061, 0.7853981633974482790 ) ;
#104 = FACE_OUTER_BOUND ( 'NONE', #315, .T. ) ;
#105 = PRODUCT_DEFINITION_FORMATION_WITH_SPECIFIED_SOURCE ( 'ANY', '', #111, .NOT_KNOWN. ) ;
#106 = ORIENTED_EDGE ( 'NONE', *, *, #271, .F. ) ;
#107 = EDGE_CURVE ( 'NONE', #360, #45, #277, .T. ) ;
#108 = DIRECTION ( 'NONE',  ( -1.000000000000000000, -0.000000000000000000, -0.000000000000000000 ) ) ;
#109 = ORIENTED_EDGE ( 'NONE', *, *, #220, .F. ) ;
#110 = DIRECTION ( 'NONE',  ( 0.000000000000000000, 0.000000000000000000, 1.000000000000000000 ) ) ;
#111 = PRODUCT ( '3D_GR1184_42.4x2_183802874', '3D_GR1184_42.4x2_183802874', '', ( #238 ) ) ;
#112 = APPROVAL_DATE_TIME ( #302, #140 ) ;
#113 = AXIS2_PLACEMENT_3D ( 'NONE', #62, #33, #305 ) ;
#114 = ADVANCED_FACE ( 'NONE', ( #25 ), #276, .T. ) ;
#115 = ORIENTED_EDGE ( 'NONE', *, *, #343, .T. ) ;
#116 = APPROVAL ( #334, 'UNSPECIFIED' ) ;
#117 = DIRECTION ( 'NONE',  ( 0.000000000000000000, 0.000000000000000000, 1.000000000000000000 ) ) ;
#118 = PERSON_AND_ORGANIZATION_ROLE ( 'creator' ) ;
#119 = CARTESIAN_POINT ( 'NONE',  ( -154.8395502972293230, 0.000000000000000000, 19.20000000000002416 ) ) ;
#120 = COORDINATED_UNIVERSAL_TIME_OFFSET ( 1, 0, .AHEAD. ) ;
#121 = CIRCLE ( 'NONE', #345, 19.20000000000002416 ) ;
#122 = CARTESIAN_POINT ( 'NONE',  ( 0.000000000000000000, 0.000000000000000000, 0.000000000000000000 ) ) ;
#123 = AXIS2_PLACEMENT_3D ( 'NONE', #365, #26, #148 ) ;
#124 = CARTESIAN_POINT ( 'NONE',  ( 19.68764705882348665, 0.000000000000000000, 0.000000000000000000 ) ) ;
#125 = LINE ( 'NONE', #59, #144 ) ;
#126 = ADVANCED_FACE ( 'NONE', ( #217 ), #201, .T. ) ;
#127 = AXIS2_PLACEMENT_3D ( 'NONE', #124, #250, #368 ) ;
#128 = ORIENTED_EDGE ( 'NONE', *, *, #343, .F. ) ;
#129 = ORIENTED_EDGE ( 'NONE', *, *, #237, .T. ) ;
#130 = EDGE_LOOP ( 'NONE', ( #227, #76, #299, #347, #47 ) ) ;
#131 = DIRECTION ( 'NONE',  ( -1.000000000000000000, -0.000000000000000000, -0.000000000000000000 ) ) ;
#132 = ORIENTED_EDGE ( 'NONE', *, *, #51, .T. ) ;
#133 = CARTESIAN_POINT ( 'NONE',  ( -2.775557561562891351E-14, 0.000000000000000000, 0.000000000000000000 ) ) ;
#134 = CARTESIAN_POINT ( 'NONE',  ( -154.8395502972293230, 0.000000000000000000, 0.000000000000000000 ) ) ;
#135 = ORIENTED_EDGE ( 'NONE', *, *, #24, .F. ) ;
#136 = AXIS2_PLACEMENT_3D ( 'NONE', #307, #278, #400 ) ;
#137 = DIRECTION ( 'NONE',  ( 0.000000000000000000, 0.000000000000000000, 1.000000000000000000 ) ) ;
#138 = DIRECTION ( 'NONE',  ( -1.000000000000000000, 0.000000000000000000, -0.000000000000000000 ) ) ;
#139 = PLANE ( 'NONE',  #269 ) ;
#140 = APPROVAL ( #212, 'UNSPECIFIED' ) ;
#141 = PERSON_AND_ORGANIZATION_ROLE ( 'classification_officer' ) ;
#142 = DIRECTION ( 'NONE',  ( -1.000000000000000000, -0.000000000000000000, -0.000000000000000000 ) ) ;
#143 = APPROVAL_STATUS ( 'not_yet_approved' ) ;
#144 = VECTOR ( 'NONE', #303, 1000.000000000000000 ) ;
#145 = LOCAL_TIME ( 8, 25, 29.00000000000000000, #86 ) ;
#146 = CARTESIAN_POINT ( 'NONE',  ( -2.068188661490083291, 0.000000000000000000, 0.000000000000000000 ) ) ;
#147 = DIRECTION ( 'NONE',  ( 0.000000000000000000, 0.000000000000000000, 1.000000000000000000 ) ) ;
#148 = DIRECTION ( 'NONE',  ( 1.000000000000000000, 0.000000000000000000, 0.000000000000000000 ) ) ;
#149 = DIRECTION ( 'NONE',  ( -1.000000000000000000, -0.000000000000000000, -0.000000000000000000 ) ) ;
#150 = EDGE_CURVE ( 'NONE', #344, #159, #125, .T. ) ;
#151 = CIRCLE ( 'NONE', #136, 19.20000000000002416 ) ;
#152 = CARTESIAN_POINT ( 'NONE',  ( 8.999999999999980460, 2.228857174448185692E-15, -18.20000000000002061 ) ) ;
#153 = DIRECTION ( 'NONE',  ( 0.000000000000000000, 0.000000000000000000, 1.000000000000000000 ) ) ;
#154 = EDGE_CURVE ( 'NONE', #253, #344, #216, .T. ) ;
#155 = CARTESIAN_POINT ( 'NONE',  ( 0.000000000000000000, 0.000000000000000000, 0.000000000000000000 ) ) ;
#156 = VECTOR ( 'NONE', #381, 1000.000000000000000 ) ;
#157 = ORIENTED_EDGE ( 'NONE', *, *, #196, .F. ) ;
#158 = ORIENTED_EDGE ( 'NONE', *, *, #319, .F. ) ;
#159 = VERTEX_POINT ( 'NONE', #242 ) ;
#160 = EDGE_CURVE ( 'NONE', #344, #253, #261, .T. ) ;
#161 = CARTESIAN_POINT ( 'NONE',  ( -2.068188661490077074, 0.000000000000000000, 0.000000000000000000 ) ) ;
#162 = AXIS2_PLACEMENT_3D ( 'NONE', #18, #142, #335 ) ;
#163 = LOCAL_TIME ( 8, 25, 29.00000000000000000, #388 ) ;
#164 = CARTESIAN_POINT ( 'NONE',  ( -154.8395502972293230, 0.000000000000000000, 0.000000000000000000 ) ) ;
#165 = VERTEX_POINT ( 'NONE', #274 ) ;
#166 = APPLICATION_CONTEXT ( 'configuration controlled 3d designs of mechanical parts and assemblies' ) ;
#167 = CARTESIAN_POINT ( 'NONE',  ( 0.000000000000000000, 0.000000000000000000, 21.20000000000001705 ) ) ;
#168 = EDGE_LOOP ( 'NONE', ( #179, #7, #66, #34 ) ) ;
#169 = CARTESIAN_POINT ( 'NONE',  ( -154.8395502972293230, 2.596251214192391136E-15, -21.20000000000001705 ) ) ;
#170 = CARTESIAN_POINT ( 'NONE',  ( -7.362755078324381194E-15, 19.20000000000002416, 0.000000000000000000 ) ) ;
#171 = AXIS2_PLACEMENT_3D ( 'NONE', #396, #190, #147 ) ;
#172 = FACE_OUTER_BOUND ( 'NONE', #130, .T. ) ;
#173 = AXIS2_PLACEMENT_3D ( 'NONE', #226, #295, #75 ) ;
#174 = FACE_OUTER_BOUND ( 'NONE', #71, .T. ) ;
#175 = PERSON_AND_ORGANIZATION ( #49, #314 ) ;
#176 = CARTESIAN_POINT ( 'NONE',  ( 7.999999999999979572, 0.000000000000000000, 0.000000000000000000 ) ) ;
#177 = CC_DESIGN_PERSON_AND_ORGANIZATION_ASSIGNMENT ( #180, #362, ( #105 ) ) ;
#178 = APPROVAL_ROLE ( '' ) ;
#179 = ORIENTED_EDGE ( 'NONE', *, *, #70, .F. ) ;
#180 = PERSON_AND_ORGANIZATION ( #49, #314 ) ;
#181 = AXIS2_PLACEMENT_3D ( 'NONE', #134, #131, #255 ) ;
#182 = DIRECTION ( 'NONE',  ( 0.000000000000000000, 0.000000000000000000, 1.000000000000000000 ) ) ;
#183 = EDGE_CURVE ( 'NONE', #324, #318, #65, .T. ) ;
#184 = DIRECTION ( 'NONE',  ( -1.000000000000000000, -0.000000000000000000, -0.000000000000000000 ) ) ;
#185 = APPROVAL_DATE_TIME ( #209, #116 ) ;
#186 = DIRECTION ( 'NONE',  ( 0.000000000000000000, 0.000000000000000000, 1.000000000000000000 ) ) ;
#187 = CIRCLE ( 'NONE', #113, 30.68764705882351507 ) ;
#188 = FACE_OUTER_BOUND ( 'NONE', #231, .T. ) ;
#189 = PRODUCT_DEFINITION ( 'UNKNOWN', '', #105, #204 ) ;
#190 = DIRECTION ( 'NONE',  ( -1.000000000000000000, -0.000000000000000000, -0.000000000000000000 ) ) ;
#191 = TOROIDAL_SURFACE ( 'NONE', #369, 20.20000000000002061, 0.9999999999999995559 ) ;
#192 = ORIENTED_EDGE ( 'NONE', *, *, #325, .T. ) ;
#193 = CARTESIAN_POINT ( 'NONE',  ( -2.775557561562891351E-14, 0.000000000000000000, 19.20000000000002416 ) ) ;
#194 = VERTEX_POINT ( 'NONE', #243 ) ;
#195 = CIRCLE ( 'NONE', #127, 30.68764705882351862 ) ;
#196 = EDGE_CURVE ( 'NONE', #318, #377, #88, .T. ) ;
#197 = DIRECTION ( 'NONE',  ( -1.000000000000000000, -0.000000000000000000, -0.000000000000000000 ) ) ;
#198 = FACE_OUTER_BOUND ( 'NONE', #11, .T. ) ;
#199 = CARTESIAN_POINT ( 'NONE',  ( -2.068188661490083291, 0.000000000000000000, 0.000000000000000000 ) ) ;
#200 = DIRECTION ( 'NONE',  ( -1.000000000000000000, -0.000000000000000000, -0.000000000000000000 ) ) ;
#201 = CONICAL_SURFACE ( 'NONE', #171, 18.20000000000002061, 0.7853981633974482790 ) ;
#202 = CC_DESIGN_PERSON_AND_ORGANIZATION_ASSIGNMENT ( #370, #275, ( #189 ) ) ;
#203 = DIRECTION ( 'NONE',  ( -0.000000000000000000, 1.000000000000000000, 1.224646799147353207E-16 ) ) ;
#204 = DESIGN_CONTEXT ( 'detailed design', #166, 'design' ) ;
#205 = ORIENTED_EDGE ( 'NONE', *, *, #374, .F. ) ;
#206 = CALENDAR_DATE ( 2024, 23, 9 ) ;
#207 = CARTESIAN_POINT ( 'NONE',  ( 19.68764705882348665, 0.000000000000000000, 0.000000000000000000 ) ) ;
#208 = EDGE_CURVE ( 'NONE', #165, #377, #151, .T. ) ;
#209 = DATE_AND_TIME ( #53, #145 ) ;
#210 = AXIS2_PLACEMENT_3D ( 'NONE', #207, #342, #27 ) ;
#211 = CARTESIAN_POINT ( 'NONE',  ( -2.801013181978562194, 0.000000000000000000, 0.000000000000000000 ) ) ;
#212 = APPROVAL_STATUS ( 'not_yet_approved' ) ;
#213 = ADVANCED_BREP_SHAPE_REPRESENTATION ( '3D_GR1184_42.4x2_183802874', ( #323, #123 ), #23 ) ;
#214 = DIRECTION ( 'NONE',  ( 0.000000000000000000, 0.000000000000000000, 1.000000000000000000 ) ) ;
#215 = CARTESIAN_POINT ( 'NONE',  ( -2.801013181978562194, 2.576682441060916793E-15, -20.88041768214153393 ) ) ;
#216 = CIRCLE ( 'NONE', #399, 21.20000000000001705 ) ;
#217 = FACE_OUTER_BOUND ( 'NONE', #55, .T. ) ;
#218 = CC_DESIGN_APPROVAL ( #140, ( #189 ) ) ;
#219 = ORIENTED_EDGE ( 'NONE', *, *, #107, .T. ) ;
#220 = EDGE_CURVE ( 'NONE', #194, #21, #29, .T. ) ;
#221 = VECTOR ( 'NONE', #310, 1000.000000000000114 ) ;
#222 = CARTESIAN_POINT ( 'NONE',  ( 8.999999999999980460, 0.000000000000000000, 18.20000000000002061 ) ) ;
#223 = ORIENTED_EDGE ( 'NONE', *, *, #56, .F. ) ;
#224 = CYLINDRICAL_SURFACE ( 'NONE', #181, 21.20000000000001705 ) ;
#225 = CC_DESIGN_PERSON_AND_ORGANIZATION_ASSIGNMENT ( #338, #141, ( #294 ) ) ;
#226 = CARTESIAN_POINT ( 'NONE',  ( 8.999999999999980460, 0.000000000000000000, 0.000000000000000000 ) ) ;
#227 = ORIENTED_EDGE ( 'NONE', *, *, #36, .T. ) ;
#228 = AXIS2_PLACEMENT_3D ( 'NONE', #331, #81, #356 ) ;
#229 = VERTEX_POINT ( 'NONE', #239 ) ;
#230 = CARTESIAN_POINT ( 'NONE',  ( -2.801013181978562194, 0.000000000000000000, 0.000000000000000000 ) ) ;
#231 = EDGE_LOOP ( 'NONE', ( #132, #115, #37, #247 ) ) ;
#232 = APPROVAL_DATE_TIME ( #240, #63 ) ;
#233 = VERTEX_POINT ( 'NONE', #341 ) ;
#234 = PERSON_AND_ORGANIZATION ( #49, #314 ) ;
#235 = ORIENTED_EDGE ( 'NONE', *, *, #70, .T. ) ;
#236 = LINE ( 'NONE', #366, #20 ) ;
#237 = EDGE_CURVE ( 'NONE', #45, #229, #195, .T. ) ;
#238 = MECHANICAL_CONTEXT ( 'NONE', #251, 'mechanical' ) ;
#239 = CARTESIAN_POINT ( 'NONE',  ( -11.00000000000002665, 1.879076437197595307E-15, 0.000000000000000000 ) ) ;
#240 = DATE_AND_TIME ( #206, #283 ) ;
#241 = AXIS2_PLACEMENT_3D ( 'NONE', #146, #272, #117 ) ;
#242 = CARTESIAN_POINT ( 'NONE',  ( -2.068188661490083291, 0.000000000000000000, 21.20000000000001705 ) ) ;
#243 = CARTESIAN_POINT ( 'NONE',  ( 8.999999999999980460, 2.290089514405553266E-15, -18.20000000000002061 ) ) ;
#244 = DIRECTION ( 'NONE',  ( 0.000000000000000000, 1.000000000000000000, 0.000000000000000000 ) ) ;
#245 = AXIS2_PLACEMENT_3D ( 'NONE', #78, #200, #264 ) ;
#246 = TOROIDAL_SURFACE ( 'NONE', #58, 20.20000000000002061, 0.9999999999999995559 ) ;
#247 = ORIENTED_EDGE ( 'NONE', *, *, #237, .F. ) ;
#248 = ADVANCED_FACE ( 'NONE', ( #337 ), #191, .T. ) ;
#249 = EDGE_LOOP ( 'NONE', ( #223, #289, #40, #284, #128 ) ) ;
#250 = DIRECTION ( 'NONE',  ( -0.000000000000000000, 0.000000000000000000, 1.000000000000000000 ) ) ;
#251 = APPLICATION_CONTEXT ( 'configuration controlled 3d designs of mechanical parts and assemblies' ) ;
#252 = CIRCLE ( 'NONE', #22, 21.20000000000001350 ) ;
#253 = VERTEX_POINT ( 'NONE', #403 ) ;
#254 = LOCAL_TIME ( 8, 25, 29.00000000000000000, #28 ) ;
#255 = DIRECTION ( 'NONE',  ( 0.000000000000000000, 0.000000000000000000, 1.000000000000000000 ) ) ;
#256 = ORIENTED_EDGE ( 'NONE', *, *, #99, .T. ) ;
#257 = DIRECTION ( 'NONE',  ( 0.000000000000000000, 0.000000000000000000, 1.000000000000000000 ) ) ;
#258 = ORIENTED_EDGE ( 'NONE', *, *, #160, .F. ) ;
#259 = CARTESIAN_POINT ( 'NONE',  ( -2.068188661490077074, 0.000000000000000000, 20.20000000000002061 ) ) ;
#260 = VERTEX_POINT ( 'NONE', #215 ) ;
#261 = CIRCLE ( 'NONE', #286, 21.20000000000001705 ) ;
#262 = AXIS2_PLACEMENT_3D ( 'NONE', #348, #327, #382 ) ;
#263 = LINE ( 'NONE', #169, #156 ) ;
#264 = DIRECTION ( 'NONE',  ( 0.000000000000000000, 0.000000000000000000, 1.000000000000000000 ) ) ;
#265 = DATE_AND_TIME ( #273, #14 ) ;
#266 = ORIENTED_EDGE ( 'NONE', *, *, #220, .T. ) ;
#267 = PERSON_AND_ORGANIZATION_ROLE ( 'design_owner' ) ;
#268 = EDGE_LOOP ( 'NONE', ( #376, #235, #354, #157 ) ) ;
#269 = AXIS2_PLACEMENT_3D ( 'NONE', #170, #385, #394 ) ;
#270 = APPROVAL_ROLE ( '' ) ;
#271 = EDGE_CURVE ( 'NONE', #392, #229, #187, .T. ) ;
#272 = DIRECTION ( 'NONE',  ( -1.000000000000000000, -0.000000000000000000, -0.000000000000000000 ) ) ;
#273 = CALENDAR_DATE ( 2024, 23, 9 ) ;
#274 = CARTESIAN_POINT ( 'NONE',  ( -2.775557561562891351E-14, 2.351321854362920840E-15, -19.20000000000002416 ) ) ;
#275 = PERSON_AND_ORGANIZATION_ROLE ( 'creator' ) ;
#276 = SPHERICAL_SURFACE ( 'NONE', #210, 30.68764705882351507 ) ;
#277 = CIRCLE ( 'NONE', #50, 20.88041768214153393 ) ;
#278 = DIRECTION ( 'NONE',  ( -1.000000000000000000, -0.000000000000000000, -0.000000000000000000 ) ) ;
#279 = CC_DESIGN_PERSON_AND_ORGANIZATION_ASSIGNMENT ( #57, #267, ( #111 ) ) ;
#280 = DIRECTION ( 'NONE',  ( -0.000000000000000000, 0.000000000000000000, -1.000000000000000000 ) ) ;
#281 = CARTESIAN_POINT ( 'NONE',  ( 8.999999999999980460, 0.000000000000000000, 18.20000000000002061 ) ) ;
#282 = CIRCLE ( 'NONE', #80, 20.88041768214153393 ) ;
#283 = LOCAL_TIME ( 8, 25, 29.00000000000000000, #89 ) ;
#284 = ORIENTED_EDGE ( 'NONE', *, *, #99, .F. ) ;
#285 = ORIENTED_EDGE ( 'NONE', *, *, #150, .T. ) ;
#286 = AXIS2_PLACEMENT_3D ( 'NONE', #155, #90, #214 ) ;
#287 = ORIENTED_EDGE ( 'NONE', *, *, #208, .T. ) ;
#288 = DIRECTION ( 'NONE',  ( -1.000000000000000000, -0.000000000000000000, -0.000000000000000000 ) ) ;
#289 = ORIENTED_EDGE ( 'NONE', *, *, #319, .T. ) ;
#290 = APPLICATION_PROTOCOL_DEFINITION ( 'international standard', 'config_control_design', 1994, #251 ) ;
#291 = DIRECTION ( 'NONE',  ( -1.000000000000000000, -0.000000000000000000, -0.000000000000000000 ) ) ;
#292 = CARTESIAN_POINT ( 'NONE',  ( -2.801013181978562194, 20.88041768214153038, 0.000000000000000000 ) ) ;
#293 = CIRCLE ( 'NONE', #162, 18.20000000000002061 ) ;
#294 = SECURITY_CLASSIFICATION ( '', '', #359 ) ;
#295 = DIRECTION ( 'NONE',  ( -1.000000000000000000, -0.000000000000000000, -0.000000000000000000 ) ) ;
#296 = ORIENTED_EDGE ( 'NONE', *, *, #374, .T. ) ;
#297 = DIRECTION ( 'NONE',  ( -0.000000000000000000, 0.000000000000000000, 1.000000000000000000 ) ) ;
#298 = CC_DESIGN_DATE_AND_TIME_ASSIGNMENT ( #265, #398, ( #189 ) ) ;
#299 = ORIENTED_EDGE ( 'NONE', *, *, #51, .F. ) ;
#300 = CIRCLE ( 'NONE', #241, 21.20000000000001350 ) ;
#301 = CC_DESIGN_SECURITY_CLASSIFICATION ( #294, ( #105 ) ) ;
#302 = DATE_AND_TIME ( #330, #254 ) ;
#303 = DIRECTION ( 'NONE',  ( -1.000000000000000000, -0.000000000000000000, -0.000000000000000000 ) ) ;
#304 = PERSON_AND_ORGANIZATION ( #49, #314 ) ;
#305 = DIRECTION ( 'NONE',  ( 0.000000000000000000, 1.000000000000000000, 1.224646799147353207E-16 ) ) ;
#306 = SHAPE_DEFINITION_REPRESENTATION ( #390, #213 ) ;
#307 = CARTESIAN_POINT ( 'NONE',  ( -2.775557561562891351E-14, 0.000000000000000000, 0.000000000000000000 ) ) ;
#308 = ADVANCED_FACE ( 'NONE', ( #188 ), #85, .T. ) ;
#309 = FACE_OUTER_BOUND ( 'NONE', #380, .T. ) ;
#310 = DIRECTION ( 'NONE',  ( -0.7071067811865474617, 8.659560562354932858E-17, -0.7071067811865474617 ) ) ;
#311 = ADVANCED_FACE ( 'NONE', ( #309 ), #373, .T. ) ;
#312 = EDGE_LOOP ( 'NONE', ( #192, #287 ) ) ;
#313 = VECTOR ( 'NONE', #340, 1000.000000000000114 ) ;
#314 = ORGANIZATION ( 'UNSPECIFIED', 'UNSPECIFIED', '' ) ;
#315 = EDGE_LOOP ( 'NONE', ( #4, #266, #135, #333 ) ) ;
#316 = ORIENTED_EDGE ( 'NONE', *, *, #154, .T. ) ;
#317 =( NAMED_UNIT ( * ) SI_UNIT ( $, .STERADIAN. ) SOLID_ANGLE_UNIT ( ) );
#318 = VERTEX_POINT ( 'NONE', #5 ) ;
#319 = EDGE_CURVE ( 'NONE', #233, #159, #252, .T. ) ;
#320 = DIRECTION ( 'NONE',  ( -1.000000000000000000, -0.000000000000000000, -0.000000000000000000 ) ) ;
#321 = ORIENTED_EDGE ( 'NONE', *, *, #9, .F. ) ;
#322 = CIRCLE ( 'NONE', #173, 18.20000000000002061 ) ;
#323 = MANIFOLD_SOLID_BREP ( 'Rotation1', #64 ) ;
#324 = VERTEX_POINT ( 'NONE', #222 ) ;
#325 = EDGE_CURVE ( 'NONE', #377, #165, #42, .T. ) ;
#326 = PLANE ( 'NONE',  #30 ) ;
#327 = DIRECTION ( 'NONE',  ( -1.000000000000000000, -0.000000000000000000, -0.000000000000000000 ) ) ;
#328 = DIRECTION ( 'NONE',  ( 0.000000000000000000, 0.000000000000000000, 1.000000000000000000 ) ) ;
#329 = AXIS2_PLACEMENT_3D ( 'NONE', #164, #320, #12 ) ;
#330 = CALENDAR_DATE ( 2024, 23, 9 ) ;
#331 = CARTESIAN_POINT ( 'NONE',  ( -2.801013181978562194, 0.000000000000000000, 0.000000000000000000 ) ) ;
#332 = ADVANCED_FACE ( 'NONE', ( #351 ), #224, .T. ) ;
#333 = ORIENTED_EDGE ( 'NONE', *, *, #183, .F. ) ;
#334 = APPROVAL_STATUS ( 'not_yet_approved' ) ;
#335 = DIRECTION ( 'NONE',  ( 0.000000000000000000, 0.000000000000000000, 1.000000000000000000 ) ) ;
#336 = AXIS2_PLACEMENT_3D ( 'NONE', #46, #288, #41 ) ;
#337 = FACE_OUTER_BOUND ( 'NONE', #249, .T. ) ;
#338 = PERSON_AND_ORGANIZATION ( #49, #314 ) ;
#339 = ADVANCED_FACE ( 'NONE', ( #172 ), #246, .T. ) ;
#340 = DIRECTION ( 'NONE',  ( -0.7071067811865474617, 0.000000000000000000, 0.7071067811865474617 ) ) ;
#341 = CARTESIAN_POINT ( 'NONE',  ( -2.068188661490083291, 2.596251214192391136E-15, -21.20000000000001705 ) ) ;
#342 = DIRECTION ( 'NONE',  ( -0.000000000000000000, 0.000000000000000000, -1.000000000000000000 ) ) ;
#343 = EDGE_CURVE ( 'NONE', #260, #392, #282, .T. ) ;
#344 = VERTEX_POINT ( 'NONE', #167 ) ;
#345 = AXIS2_PLACEMENT_3D ( 'NONE', #176, #291, #328 ) ;
#346 = APPROVAL_PERSON_ORGANIZATION ( #175, #116, #178 ) ;
#347 = ORIENTED_EDGE ( 'NONE', *, *, #107, .F. ) ;
#348 = CARTESIAN_POINT ( 'NONE',  ( -154.8395502972293230, 0.000000000000000000, 0.000000000000000000 ) ) ;
#349 = ADVANCED_FACE ( 'NONE', ( #104 ), #103, .T. ) ;
#350 = ORIENTED_EDGE ( 'NONE', *, *, #36, .F. ) ;
#351 = FACE_OUTER_BOUND ( 'NONE', #383, .T. ) ;
#352 = AXIS2_PLACEMENT_3D ( 'NONE', #133, #77, #137 ) ;
#353 = CC_DESIGN_APPROVAL ( #116, ( #294 ) ) ;
#354 = ORIENTED_EDGE ( 'NONE', *, *, #325, .F. ) ;
#355 = CARTESIAN_POINT ( 'NONE',  ( -2.801013181978562194, 0.000000000000000000, 20.88041768214153393 ) ) ;
#356 = DIRECTION ( 'NONE',  ( 0.000000000000000000, 0.000000000000000000, 1.000000000000000000 ) ) ;
#357 = DIRECTION ( 'NONE',  ( -1.000000000000000000, -0.000000000000000000, -0.000000000000000000 ) ) ;
#358 = FACE_OUTER_BOUND ( 'NONE', #268, .T. ) ;
#359 = SECURITY_CLASSIFICATION_LEVEL ( 'unclassified' ) ;
#360 = VERTEX_POINT ( 'NONE', #355 ) ;
#361 = APPROVAL_PERSON_ORGANIZATION ( #84, #63, #270 ) ;
#362 = PERSON_AND_ORGANIZATION_ROLE ( 'design_supplier' ) ;
#363 = UNCERTAINTY_MEASURE_WITH_UNIT (LENGTH_MEASURE( 1.000000000000000082E-05 ), #101, 'distance_accuracy_value', 'NONE');
#364 = FACE_BOUND ( 'NONE', #312, .T. ) ;
#365 = CARTESIAN_POINT ( 'NONE',  ( 0.000000000000000000, 0.000000000000000000, 0.000000000000000000 ) ) ;
#366 = CARTESIAN_POINT ( 'NONE',  ( -154.8395502972293230, 2.351321854362920840E-15, -19.20000000000002416 ) ) ;
#367 = DATE_AND_TIME ( #79, #163 ) ;
#368 = DIRECTION ( 'NONE',  ( 1.000000000000000000, 0.000000000000000000, 0.000000000000000000 ) ) ;
#369 = AXIS2_PLACEMENT_3D ( 'NONE', #372, #149, #92 ) ;
#370 = PERSON_AND_ORGANIZATION ( #49, #314 ) ;
#371 = DIRECTION ( 'NONE',  ( -1.000000000000000000, -0.000000000000000000, -0.000000000000000000 ) ) ;
#372 = CARTESIAN_POINT ( 'NONE',  ( -2.068188661490077074, 0.000000000000000000, 0.000000000000000000 ) ) ;
#373 = CYLINDRICAL_SURFACE ( 'NONE', #329, 21.20000000000001705 ) ;
#374 = EDGE_CURVE ( 'NONE', #253, #233, #263, .T. ) ;
#375 = CIRCLE ( 'NONE', #228, 20.88041768214153393 ) ;
#376 = ORIENTED_EDGE ( 'NONE', *, *, #24, .T. ) ;
#377 = VERTEX_POINT ( 'NONE', #193 ) ;
#378 = EDGE_CURVE ( 'NONE', #159, #360, #6, .T. ) ;
#379 = AXIS2_PLACEMENT_3D ( 'NONE', #52, #82, #110 ) ;
#380 = EDGE_LOOP ( 'NONE', ( #205, #316, #285, #158 ) ) ;
#381 = DIRECTION ( 'NONE',  ( -1.000000000000000000, -0.000000000000000000, -0.000000000000000000 ) ) ;
#382 = DIRECTION ( 'NONE',  ( 0.000000000000000000, 0.000000000000000000, 1.000000000000000000 ) ) ;
#383 = EDGE_LOOP ( 'NONE', ( #38, #296, #350, #69 ) ) ;
#384 = AXIS2_PLACEMENT_3D ( 'NONE', #259, #10, #386 ) ;
#385 = DIRECTION ( 'NONE',  ( -1.000000000000000000, 0.000000000000000000, -0.000000000000000000 ) ) ;
#386 = DIRECTION ( 'NONE',  ( 0.000000000000000000, 0.000000000000000000, -1.000000000000000000 ) ) ;
#387 = CARTESIAN_POINT ( 'NONE',  ( 7.999999999999979572, 2.351321854362920840E-15, -19.20000000000002416 ) ) ;
#388 = COORDINATED_UNIVERSAL_TIME_OFFSET ( 1, 0, .AHEAD. ) ;
#389 = CYLINDRICAL_SURFACE ( 'NONE', #245, 19.20000000000002416 ) ;
#390 = PRODUCT_DEFINITION_SHAPE ( 'NONE', 'NONE',  #189 ) ;
#391 = CC_DESIGN_PERSON_AND_ORGANIZATION_ASSIGNMENT ( #234, #118, ( #105 ) ) ;
#392 = VERTEX_POINT ( 'NONE', #98 ) ;
#393 = CIRCLE ( 'NONE', #379, 19.20000000000002416 ) ;
#394 = DIRECTION ( 'NONE',  ( -0.000000000000000000, 0.000000000000000000, 1.000000000000000000 ) ) ;
#395 = APPLICATION_PROTOCOL_DEFINITION ( 'international standard', 'config_control_design', 1994, #166 ) ;
#396 = CARTESIAN_POINT ( 'NONE',  ( 8.999999999999980460, 0.000000000000000000, 0.000000000000000000 ) ) ;
#397 = ADVANCED_FACE ( 'NONE', ( #97 ), #8, .T. ) ;
#398 = DATE_TIME_ROLE ( 'creation_date' ) ;
#399 = AXIS2_PLACEMENT_3D ( 'NONE', #122, #371, #186 ) ;
#400 = DIRECTION ( 'NONE',  ( 0.000000000000000000, 0.000000000000000000, 1.000000000000000000 ) ) ;
#401 = EDGE_CURVE ( 'NONE', #194, #324, #322, .T. ) ;
#402 = CARTESIAN_POINT ( 'NONE',  ( -2.801013181978562194, 0.000000000000000000, 0.000000000000000000 ) ) ;
#403 = CARTESIAN_POINT ( 'NONE',  ( 0.000000000000000000, 2.596251214192391136E-15, -21.20000000000001705 ) ) ;
ENDSEC;
END-ISO-10303-21;
