ISO-10303-21;
HEADER;
FILE_DESCRIPTION (( 'STEP AP203' ),
    '1' );
FILE_NAME ('6018060_OSTP.step',
    '2024-03-20T08:41:06',
    ( '' ),
    ( '' ),
    'SwSTEP 2.0',
    'SolidWorks 2014',
    '' );
FILE_SCHEMA (( 'CONFIG_CONTROL_DESIGN' ));
ENDSEC;

DATA;
#1 = CARTESIAN_POINT ( 'NONE',  ( 105.5500000000000800, 27.99999999999996800, 1.292614696500032400E-014 ) ) ;
#2 = VERTEX_POINT ( 'NONE', #8 ) ;
#3 = ORIENTED_EDGE ( 'NONE', *, *, #124, .T. ) ;
#4 = DIRECTION ( 'NONE',  ( 1.000000000000000000, -1.982489495665708100E-016, 0.0000000000000000000 ) ) ;
#5 = DIRECTION ( 'NONE',  ( -1.000000000000000000, 0.0000000000000000000, 0.0000000000000000000 ) ) ;
#6 = DATE_TIME_ROLE ( 'creation_date' ) ;
#7 = AXIS2_PLACEMENT_3D ( 'NONE', #261, #351, #353 ) ;
#8 = CARTESIAN_POINT ( 'NONE',  ( 109.5500000000000100, 8.000000000000001800, 1.341600568465925500E-014 ) ) ;
#9 = PERSON_AND_ORGANIZATION_ROLE ( 'design_supplier' ) ;
#10 = LINE ( 'NONE', #342, #96 ) ;
#11 = PERSON_AND_ORGANIZATION ( #106, #200 ) ;
#12 = DIRECTION ( 'NONE',  ( 1.982489495665708100E-016, 1.000000000000000000, -0.0000000000000000000 ) ) ;
#13 = CIRCLE ( 'NONE', #181, 105.5500000000000800 ) ;
#14 = AXIS2_PLACEMENT_3D ( 'NONE', #278, #244, #176 ) ;
#15 = CYLINDRICAL_SURFACE ( 'NONE', #341, 105.5500000000000800 ) ;
#16 = DATE_AND_TIME ( #397, #121 ) ;
#17 = CC_DESIGN_DATE_AND_TIME_ASSIGNMENT ( #175, #126, ( #270 ) ) ;
#18 = EDGE_CURVE ( 'NONE', #120, #28, #143, .T. ) ;
#19 = ORIENTED_EDGE ( 'NONE', *, *, #240, .F. ) ;
#20 = ORIENTED_EDGE ( 'NONE', *, *, #381, .T. ) ;
#21 = DIRECTION ( 'NONE',  ( 1.000000000000000000, -1.982489495665708100E-016, 0.0000000000000000000 ) ) ;
#22 = PERSON_AND_ORGANIZATION ( #106, #200 ) ;
#23 = CARTESIAN_POINT ( 'NONE',  ( 105.5500000000000800, 27.99999999999995000, 1.292614696500032400E-014 ) ) ;
#24 = DIRECTION ( 'NONE',  ( 1.000000000000000000, -1.978772025829057200E-016, 0.0000000000000000000 ) ) ;
#25 = ORIENTED_EDGE ( 'NONE', *, *, #399, .T. ) ;
#26 = DIRECTION ( 'NONE',  ( -1.982489495665708100E-016, -1.000000000000000000, 0.0000000000000000000 ) ) ;
#27 = CARTESIAN_POINT ( 'NONE',  ( 1.694818351060767600E-029, 8.673617379884035500E-014, 0.0000000000000000000 ) ) ;
#28 = VERTEX_POINT ( 'NONE', #354 ) ;
#29 = CARTESIAN_POINT ( 'NONE',  ( 135.5000000000000300, 7.162433144724331300E-014, 0.0000000000000000000 ) ) ;
#30 = ORIENTED_EDGE ( 'NONE', *, *, #156, .T. ) ;
#31 = AXIS2_PLACEMENT_3D ( 'NONE', #256, #61, #185 ) ;
#32 = PERSON_AND_ORGANIZATION ( #106, #200 ) ;
#33 = DIRECTION ( 'NONE',  ( 1.000000000000000000, -1.982489495665708100E-016, 0.0000000000000000000 ) ) ;
#34 = CARTESIAN_POINT ( 'NONE',  ( 105.5500000000000800, 6.581099717208878500E-014, 1.292614696500032400E-014 ) ) ;
#35 = DIRECTION ( 'NONE',  ( 1.982489495665708100E-016, 1.000000000000000000, -0.0000000000000000000 ) ) ;
#36 = APPLICATION_PROTOCOL_DEFINITION ( 'international standard', 'config_control_design', 1994, #228 ) ;
#37 = APPROVAL_STATUS ( 'not_yet_approved' ) ;
#38 = DIRECTION ( 'NONE',  ( 1.000000000000000000, 0.0000000000000000000, -1.224646799147353500E-016 ) ) ;
#39 = EDGE_CURVE ( 'NONE', #267, #292, #82, .T. ) ;
#40 = FACE_OUTER_BOUND ( 'NONE', #247, .T. ) ;
#41 = EDGE_CURVE ( 'NONE', #202, #292, #159, .T. ) ;
#42 = ORIENTED_EDGE ( 'NONE', *, *, #83, .F. ) ;
#43 = ORIENTED_EDGE ( 'NONE', *, *, #101, .F. ) ;
#44 = COORDINATED_UNIVERSAL_TIME_OFFSET ( 1, 0, .AHEAD. ) ;
#45 = CIRCLE ( 'NONE', #331, 4.000000000000003600 ) ;
#46 = EDGE_CURVE ( 'NONE', #186, #382, #78, .T. ) ;
#47 = PRODUCT_DEFINITION ( 'UNKNOWN', '', #72, #335 ) ;
#48 = CIRCLE ( 'NONE', #275, 131.5000000000000300 ) ;
#49 = CYLINDRICAL_SURFACE ( 'NONE', #76, 105.5500000000000800 ) ;
#50 = DATE_AND_TIME ( #151, #216 ) ;
#51 = AXIS2_PLACEMENT_3D ( 'NONE', #344, #222, #4 ) ;
#52 = CARTESIAN_POINT ( 'NONE',  ( -113.5500000000000100, 4.000000000000047100, 1.390586440431819700E-014 ) ) ;
#53 = EDGE_LOOP ( 'NONE', ( #230, #198, #241, #376 ) ) ;
#54 = LINE ( 'NONE', #23, #388 ) ;
#55 = DIRECTION ( 'NONE',  ( 1.982489495665708100E-016, 1.000000000000000000, -0.0000000000000000000 ) ) ;
#56 = ADVANCED_FACE ( 'NONE', ( #225 ), #15, .F. ) ;
#57 = DIRECTION ( 'NONE',  ( 1.000000000000000000, 0.0000000000000000000, -1.224646799147353500E-016 ) ) ;
#58 = ORIENTED_EDGE ( 'NONE', *, *, #124, .F. ) ;
#59 = ORIENTED_EDGE ( 'NONE', *, *, #293, .F. ) ;
#60 = ADVANCED_FACE ( 'NONE', ( #177 ), #396, .T. ) ;
#61 = DIRECTION ( 'NONE',  ( -1.982489495665708100E-016, -1.000000000000000000, 0.0000000000000000000 ) ) ;
#62 = DIRECTION ( 'NONE',  ( 1.000000000000000000, -1.986033041629105100E-016, 0.0000000000000000000 ) ) ;
#63 = DIRECTION ( 'NONE',  ( 1.982489495665708100E-016, 1.000000000000000000, -0.0000000000000000000 ) ) ;
#64 = VERTEX_POINT ( 'NONE', #297 ) ;
#65 = CARTESIAN_POINT ( 'NONE',  ( 1.585991596532571000E-015, 8.000000000000024900, 0.0000000000000000000 ) ) ;
#66 = CIRCLE ( 'NONE', #145, 135.5000000000000300 ) ;
#67 = EDGE_CURVE ( 'NONE', #197, #213, #310, .T. ) ;
#68 = DIRECTION ( 'NONE',  ( -1.000000000000000000, 1.900199152142554300E-016, 0.0000000000000000000 ) ) ;
#69 = CARTESIAN_POINT ( 'NONE',  ( 105.5500000000000100, 23.99999999999998200, 0.0000000000000000000 ) ) ;
#70 =( NAMED_UNIT ( * ) SI_UNIT ( $, .STERADIAN. ) SOLID_ANGLE_UNIT ( ) );
#71 = ADVANCED_FACE ( 'NONE', ( #360 ), #137, .T. ) ;
#72 = PRODUCT_DEFINITION_FORMATION_WITH_SPECIFIED_SOURCE ( 'ANY', '', #366, .NOT_KNOWN. ) ;
#73 =( LENGTH_UNIT ( ) NAMED_UNIT ( * ) SI_UNIT ( .MILLI., .METRE. ) );
#74 = VECTOR ( 'NONE', #339, 1000.000000000000000 ) ;
#75 = LOCAL_TIME ( 9, 41, 6.000000000000000000, #178 ) ;
#76 = AXIS2_PLACEMENT_3D ( 'NONE', #179, #274, #86 ) ;
#77 = VERTEX_POINT ( 'NONE', #105 ) ;
#78 = CIRCLE ( 'NONE', #167, 4.000000000000003600 ) ;
#79 = LOCAL_TIME ( 9, 41, 6.000000000000000000, #44 ) ;
#80 = CC_DESIGN_APPROVAL ( #245, ( #270 ) ) ;
#81 = VERTEX_POINT ( 'NONE', #34 ) ;
#82 = CIRCLE ( 'NONE', #303, 105.5500000000000800 ) ;
#83 = EDGE_CURVE ( 'NONE', #28, #382, #66, .T. ) ;
#84 = AXIS2_PLACEMENT_3D ( 'NONE', #290, #323, #161 ) ;
#85 = ORIENTED_EDGE ( 'NONE', *, *, #203, .F. ) ;
#86 = DIRECTION ( 'NONE',  ( -1.000000000000000000, 1.972210489030949100E-016, 0.0000000000000000000 ) ) ;
#87 = EDGE_LOOP ( 'NONE', ( #116, #254, #359, #387 ) ) ;
#88 = DIRECTION ( 'NONE',  ( -1.982489495665708100E-016, -1.000000000000000000, 0.0000000000000000000 ) ) ;
#89 = AXIS2_PLACEMENT_3D ( 'NONE', #340, #208, #144 ) ;
#90 = FACE_BOUND ( 'NONE', #171, .T. ) ;
#91 = DIRECTION ( 'NONE',  ( -1.000000000000000000, 1.982489495665707400E-016, 0.0000000000000000000 ) ) ;
#92 = CC_DESIGN_PERSON_AND_ORGANIZATION_ASSIGNMENT ( #11, #258, ( #270 ) ) ;
#93 = CIRCLE ( 'NONE', #286, 131.5000000000000300 ) ;
#94 = DIRECTION ( 'NONE',  ( 1.982489495665708100E-016, 1.000000000000000000, -0.0000000000000000000 ) ) ;
#95 = DIRECTION ( 'NONE',  ( -1.982489495665708100E-016, -1.000000000000000000, 0.0000000000000000000 ) ) ;
#96 = VECTOR ( 'NONE', #147, 1000.000000000000000 ) ;
#97 = CARTESIAN_POINT ( 'NONE',  ( 5.550970587863977100E-015, 27.99999999999997200, 0.0000000000000000000 ) ) ;
#98 = APPLICATION_PROTOCOL_DEFINITION ( 'international standard', 'config_control_design', 1994, #164 ) ;
#99 = APPROVAL_STATUS ( 'not_yet_approved' ) ;
#100 = DIRECTION ( 'NONE',  ( -1.000000000000000000, 0.0000000000000000000, 0.0000000000000000000 ) ) ;
#101 = EDGE_CURVE ( 'NONE', #77, #197, #300, .T. ) ;
#102 = ORIENTED_EDGE ( 'NONE', *, *, #296, .T. ) ;
#103 = CIRCLE ( 'NONE', #199, 135.5000000000000300 ) ;
#104 = SHAPE_DEFINITION_REPRESENTATION ( #298, #172 ) ;
#105 = CARTESIAN_POINT ( 'NONE',  ( 113.5500000000000100, 4.000000000000001800, 0.0000000000000000000 ) ) ;
#106 = PERSON ( 'UNSPECIFIED', 'UNSPECIFIED', 'UNSPECIFIED', ('UNSPECIFIED'), ('UNSPECIFIED'), ('UNSPECIFIED') ) ;
#107 = CLOSED_SHELL ( 'NONE', ( #252, #135, #212, #56, #60, #71, #210, #322, #221, #268, #299, #279 ) ) ;
#108 = CC_DESIGN_PERSON_AND_ORGANIZATION_ASSIGNMENT ( #235, #9, ( #72 ) ) ;
#109 = ORIENTED_EDGE ( 'NONE', *, *, #46, .T. ) ;
#110 = CIRCLE ( 'NONE', #372, 109.5500000000000100 ) ;
#111 = DIRECTION ( 'NONE',  ( 1.000000000000000000, -1.982489495665708100E-016, 0.0000000000000000000 ) ) ;
#112 = EDGE_CURVE ( 'NONE', #382, #28, #103, .T. ) ;
#113 = CARTESIAN_POINT ( 'NONE',  ( -105.5500000000000800, 1.076613504255919200E-013, 0.0000000000000000000 ) ) ;
#114 = CARTESIAN_POINT ( 'NONE',  ( 7.929957982662878800E-016, 4.000000000000024000, 0.0000000000000000000 ) ) ;
#115 = DIRECTION ( 'NONE',  ( 1.000000000000000000, -2.058549081487767200E-016, 0.0000000000000000000 ) ) ;
#116 = ORIENTED_EDGE ( 'NONE', *, *, #138, .F. ) ;
#117 = CARTESIAN_POINT ( 'NONE',  ( 135.5000000000000300, 8.415956979624531200E-014, 0.0000000000000000000 ) ) ;
#118 = EDGE_CURVE ( 'NONE', #2, #213, #110, .T. ) ;
#119 = DIRECTION ( 'NONE',  ( 1.000000000000000000, -1.978772025829057200E-016, 0.0000000000000000000 ) ) ;
#120 = VERTEX_POINT ( 'NONE', #395 ) ;
#121 = LOCAL_TIME ( 9, 41, 6.000000000000000000, #248 ) ;
#122 = CARTESIAN_POINT ( 'NONE',  ( -131.5000000000000300, 5.035586553167936900E-014, 1.610410540878770000E-014 ) ) ;
#123 = SECURITY_CLASSIFICATION_LEVEL ( 'unclassified' ) ;
#124 = EDGE_CURVE ( 'NONE', #64, #401, #403, .T. ) ;
#125 = EDGE_LOOP ( 'NONE', ( #349, #30, #394, #136 ) ) ;
#126 = DATE_TIME_ROLE ( 'classification_date' ) ;
#127 = APPROVAL_ROLE ( '' ) ;
#128 = AXIS2_PLACEMENT_3D ( 'NONE', #149, #348, #33 ) ;
#129 = DIRECTION ( 'NONE',  ( 1.000000000000000000, 0.0000000000000000000, -1.224646799147349500E-016 ) ) ;
#130 = CIRCLE ( 'NONE', #355, 109.5500000000000100 ) ;
#131 = LOCAL_TIME ( 9, 41, 6.000000000000000000, #160 ) ;
#132 = EDGE_CURVE ( 'NONE', #213, #2, #130, .T. ) ;
#133 = EDGE_LOOP ( 'NONE', ( #209, #42 ) ) ;
#134 = FACE_OUTER_BOUND ( 'NONE', #233, .T. ) ;
#135 = ADVANCED_FACE ( 'NONE', ( #234 ), #338, .F. ) ;
#136 = ORIENTED_EDGE ( 'NONE', *, *, #41, .F. ) ;
#137 = CYLINDRICAL_SURFACE ( 'NONE', #311, 109.5500000000000100 ) ;
#138 = EDGE_CURVE ( 'NONE', #120, #186, #93, .T. ) ;
#139 = COORDINATED_UNIVERSAL_TIME_OFFSET ( 1, 0, .AHEAD. ) ;
#140 = CC_DESIGN_PERSON_AND_ORGANIZATION_ASSIGNMENT ( #385, #264, ( #366 ) ) ;
#141 = DIRECTION ( 'NONE',  ( 1.000000000000000000, -2.058549081487767200E-016, 0.0000000000000000000 ) ) ;
#142 = ORIENTED_EDGE ( 'NONE', *, *, #18, .F. ) ;
#143 = CIRCLE ( 'NONE', #386, 4.000000000000003600 ) ;
#144 = DIRECTION ( 'NONE',  ( 1.000000000000000000, -1.986033041629105100E-016, 0.0000000000000000000 ) ) ;
#145 = AXIS2_PLACEMENT_3D ( 'NONE', #337, #364, #280 ) ;
#146 = DIRECTION ( 'NONE',  ( 1.982489495665708100E-016, 1.000000000000000000, -0.0000000000000000000 ) ) ;
#147 = DIRECTION ( 'NONE',  ( 1.982489495665708100E-016, 1.000000000000000000, -0.0000000000000000000 ) ) ;
#148 = CC_DESIGN_SECURITY_CLASSIFICATION ( #270, ( #72 ) ) ;
#149 = CARTESIAN_POINT ( 'NONE',  ( 4.622231866529366000E-030, 2.428612866367529900E-014, 0.0000000000000000000 ) ) ;
#150 = FACE_OUTER_BOUND ( 'NONE', #191, .T. ) ;
#151 = CALENDAR_DATE ( 2024, 20, 3 ) ;
#152 = CARTESIAN_POINT ( 'NONE',  ( 113.5500000000000100, 8.000000000000001800, 0.0000000000000000000 ) ) ;
#153 = TOROIDAL_SURFACE ( 'NONE', #211, 105.5500000000000100, 4.000000000000000000 ) ;
#154 = DIRECTION ( 'NONE',  ( 1.982489495665708100E-016, 1.000000000000000000, -0.0000000000000000000 ) ) ;
#155 = CARTESIAN_POINT ( 'NONE',  ( -105.5500000000000800, 28.00000000000001100, 0.0000000000000000000 ) ) ;
#156 = EDGE_CURVE ( 'NONE', #81, #267, #54, .T. ) ;
#157 = ORIENTED_EDGE ( 'NONE', *, *, #240, .T. ) ;
#158 = DIRECTION ( 'NONE',  ( 1.000000000000000000, -1.982489495665708100E-016, 0.0000000000000000000 ) ) ;
#159 = LINE ( 'NONE', #195, #262 ) ;
#160 = COORDINATED_UNIVERSAL_TIME_OFFSET ( 1, 0, .AHEAD. ) ;
#161 = DIRECTION ( 'NONE',  ( 1.000000000000000000, 0.0000000000000000000, 0.0000000000000000000 ) ) ;
#162 = APPROVAL ( #289, 'UNSPECIFIED' ) ;
#163 = FACE_OUTER_BOUND ( 'NONE', #327, .T. ) ;
#164 = APPLICATION_CONTEXT ( 'configuration controlled 3d designs of mechanical parts and assemblies' ) ;
#165 = ORIENTED_EDGE ( 'NONE', *, *, #259, .F. ) ;
#166 = APPROVAL_PERSON_ORGANIZATION ( #301, #245, #127 ) ;
#167 = AXIS2_PLACEMENT_3D ( 'NONE', #350, #189, #5 ) ;
#168 = FACE_OUTER_BOUND ( 'NONE', #295, .T. ) ;
#169 = CC_DESIGN_DATE_AND_TIME_ASSIGNMENT ( #384, #6, ( #47 ) ) ;
#170 = ORIENTED_EDGE ( 'NONE', *, *, #404, .T. ) ;
#171 = EDGE_LOOP ( 'NONE', ( #102, #304 ) ) ;
#172 = ADVANCED_BREP_SHAPE_REPRESENTATION ( '6018060_OSTP', ( #334, #84 ), #352 ) ;
#173 = AXIS2_PLACEMENT_3D ( 'NONE', #29, #154, #284 ) ;
#174 = ORIENTED_EDGE ( 'NONE', *, *, #132, .T. ) ;
#175 = DATE_AND_TIME ( #391, #75 ) ;
#176 = DIRECTION ( 'NONE',  ( 1.000000000000000000, -1.982489495665708100E-016, 0.0000000000000000000 ) ) ;
#177 = FACE_OUTER_BOUND ( 'NONE', #277, .T. ) ;
#178 = COORDINATED_UNIVERSAL_TIME_OFFSET ( 1, 0, .AHEAD. ) ;
#179 = CARTESIAN_POINT ( 'NONE',  ( 5.550970587863977100E-015, 27.99999999999997200, 0.0000000000000000000 ) ) ;
#180 = CARTESIAN_POINT ( 'NONE',  ( 1.585991596532571000E-015, 8.000000000000024900, 0.0000000000000000000 ) ) ;
#181 = AXIS2_PLACEMENT_3D ( 'NONE', #217, #94, #214 ) ;
#182 = CARTESIAN_POINT ( 'NONE',  ( 1.585991596532571000E-015, 8.000000000000024900, 0.0000000000000000000 ) ) ;
#183 = DIRECTION ( 'NONE',  ( 1.982489495665708100E-016, 1.000000000000000000, -0.0000000000000000000 ) ) ;
#184 = DIRECTION ( 'NONE',  ( -1.000000000000000000, 0.0000000000000000000, 0.0000000000000000000 ) ) ;
#185 = DIRECTION ( 'NONE',  ( 1.000000000000000000, -1.900199152142554300E-016, 0.0000000000000000000 ) ) ;
#186 = VERTEX_POINT ( 'NONE', #308 ) ;
#187 = CARTESIAN_POINT ( 'NONE',  ( 7.929957982662876800E-016, 4.000000000000024000, 0.0000000000000000000 ) ) ;
#188 = AXIS2_PLACEMENT_3D ( 'NONE', #309, #402, #57 ) ;
#189 = DIRECTION ( 'NONE',  ( 0.0000000000000000000, -0.0000000000000000000, -1.000000000000000000 ) ) ;
#190 = MECHANICAL_CONTEXT ( 'NONE', #228, 'mechanical' ) ;
#191 = EDGE_LOOP ( 'NONE', ( #347, #357, #371, #170 ) ) ;
#192 = APPROVAL_DATE_TIME ( #50, #245 ) ;
#193 =( NAMED_UNIT ( * ) PLANE_ANGLE_UNIT ( ) SI_UNIT ( $, .RADIAN. ) );
#194 = CC_DESIGN_APPROVAL ( #201, ( #72 ) ) ;
#195 = CARTESIAN_POINT ( 'NONE',  ( -105.5500000000000800, 27.99999999999999300, 0.0000000000000000000 ) ) ;
#196 = CIRCLE ( 'NONE', #307, 4.000000000000003600 ) ;
#197 = VERTEX_POINT ( 'NONE', #52 ) ;
#198 = ORIENTED_EDGE ( 'NONE', *, *, #67, .T. ) ;
#199 = AXIS2_PLACEMENT_3D ( 'NONE', #365, #183, #91 ) ;
#200 = ORGANIZATION ( 'UNSPECIFIED', 'UNSPECIFIED', '' ) ;
#201 = APPROVAL ( #99, 'UNSPECIFIED' ) ;
#202 = VERTEX_POINT ( 'NONE', #113 ) ;
#203 = EDGE_CURVE ( 'NONE', #2, #401, #10, .T. ) ;
#204 = ORIENTED_EDGE ( 'NONE', *, *, #399, .F. ) ;
#205 = ORIENTED_EDGE ( 'NONE', *, *, #404, .F. ) ;
#206 = CARTESIAN_POINT ( 'NONE',  ( 4.622231866529366000E-030, 2.428612866367529900E-014, 0.0000000000000000000 ) ) ;
#207 = CIRCLE ( 'NONE', #31, 109.5500000000000100 ) ;
#208 = DIRECTION ( 'NONE',  ( -1.982489495665708100E-016, -1.000000000000000000, 0.0000000000000000000 ) ) ;
#209 = ORIENTED_EDGE ( 'NONE', *, *, #112, .F. ) ;
#210 = ADVANCED_FACE ( 'NONE', ( #306, #215 ), #362, .F. ) ;
#211 = AXIS2_PLACEMENT_3D ( 'NONE', #285, #95, #219 ) ;
#212 = ADVANCED_FACE ( 'NONE', ( #238 ), #332, .T. ) ;
#213 = VERTEX_POINT ( 'NONE', #239 ) ;
#214 = DIRECTION ( 'NONE',  ( -1.000000000000000000, 1.982489495665708600E-016, 0.0000000000000000000 ) ) ;
#215 = FACE_BOUND ( 'NONE', #316, .T. ) ;
#216 = LOCAL_TIME ( 9, 41, 6.000000000000000000, #139 ) ;
#217 = CARTESIAN_POINT ( 'NONE',  ( 1.694818351060767600E-029, 8.673617379884035500E-014, 0.0000000000000000000 ) ) ;
#218 = CIRCLE ( 'NONE', #227, 113.5500000000000100 ) ;
#219 = DIRECTION ( 'NONE',  ( 1.000000000000000000, -1.982489495665708100E-016, 0.0000000000000000000 ) ) ;
#220 = AXIS2_PLACEMENT_3D ( 'NONE', #246, #398, #111 ) ;
#221 = ADVANCED_FACE ( 'NONE', ( #150 ), #49, .F. ) ;
#222 = DIRECTION ( 'NONE',  ( -1.982489495665708100E-016, -1.000000000000000000, 0.0000000000000000000 ) ) ;
#223 = DIRECTION ( 'NONE',  ( 1.224646799147353200E-016, -2.427849415210259900E-032, 1.000000000000000000 ) ) ;
#224 = ORIENTED_EDGE ( 'NONE', *, *, #378, .F. ) ;
#225 = FACE_OUTER_BOUND ( 'NONE', #125, .T. ) ;
#226 = DIRECTION ( 'NONE',  ( 1.982489495665708100E-016, 1.000000000000000000, -0.0000000000000000000 ) ) ;
#227 = AXIS2_PLACEMENT_3D ( 'NONE', #187, #313, #62 ) ;
#228 = APPLICATION_CONTEXT ( 'configuration controlled 3d designs of mechanical parts and assemblies' ) ;
#229 = DIRECTION ( 'NONE',  ( 0.0000000000000000000, -0.0000000000000000000, -1.000000000000000000 ) ) ;
#230 = ORIENTED_EDGE ( 'NONE', *, *, #321, .F. ) ;
#231 = EDGE_LOOP ( 'NONE', ( #85, #328, #157, #3 ) ) ;
#232 = CALENDAR_DATE ( 2024, 20, 3 ) ;
#233 = EDGE_LOOP ( 'NONE', ( #205, #271, #165, #204 ) ) ;
#234 = FACE_OUTER_BOUND ( 'NONE', #53, .T. ) ;
#235 = PERSON_AND_ORGANIZATION ( #106, #200 ) ;
#236 = TOROIDAL_SURFACE ( 'NONE', #128, 131.5000000000000300, 4.000000000000000000 ) ;
#237 = CC_DESIGN_PERSON_AND_ORGANIZATION_ASSIGNMENT ( #243, #379, ( #72 ) ) ;
#238 = FACE_OUTER_BOUND ( 'NONE', #87, .T. ) ;
#239 = CARTESIAN_POINT ( 'NONE',  ( -109.5500000000000100, 8.000000000000046200, 0.0000000000000000000 ) ) ;
#240 = EDGE_CURVE ( 'NONE', #213, #64, #326, .T. ) ;
#241 = ORIENTED_EDGE ( 'NONE', *, *, #118, .F. ) ;
#242 = ORIENTED_EDGE ( 'NONE', *, *, #112, .T. ) ;
#243 = PERSON_AND_ORGANIZATION ( #106, #200 ) ;
#244 = DIRECTION ( 'NONE',  ( -1.982489495665708100E-016, -1.000000000000000000, 0.0000000000000000000 ) ) ;
#245 = APPROVAL ( #37, 'UNSPECIFIED' ) ;
#246 = CARTESIAN_POINT ( 'NONE',  ( 1.585991596532571000E-015, 8.000000000000024900, 0.0000000000000000000 ) ) ;
#247 = EDGE_LOOP ( 'NONE', ( #142, #59, #109, #242 ) ) ;
#248 = COORDINATED_UNIVERSAL_TIME_OFFSET ( 1, 0, .AHEAD. ) ;
#249 = DIRECTION ( 'NONE',  ( 1.982489495665708100E-016, 1.000000000000000000, -0.0000000000000000000 ) ) ;
#250 = TOROIDAL_SURFACE ( 'NONE', #389, 113.5500000000000100, 4.000000000000000000 ) ;
#251 = AXIS2_PLACEMENT_3D ( 'NONE', #374, #223, #38 ) ;
#252 = ADVANCED_FACE ( 'NONE', ( #134 ), #257, .T. ) ;
#253 = CARTESIAN_POINT ( 'NONE',  ( 7.929957982662878800E-016, 4.000000000000024000, 0.0000000000000000000 ) ) ;
#254 = ORIENTED_EDGE ( 'NONE', *, *, #18, .T. ) ;
#255 = CALENDAR_DATE ( 2024, 20, 3 ) ;
#256 = CARTESIAN_POINT ( 'NONE',  ( 4.757974789597700100E-015, 24.00000000000000400, 0.0000000000000000000 ) ) ;
#257 = TOROIDAL_SURFACE ( 'NONE', #51, 105.5500000000000100, 4.000000000000000000 ) ;
#258 = PERSON_AND_ORGANIZATION_ROLE ( 'classification_officer' ) ;
#259 = EDGE_CURVE ( 'NONE', #401, #64, #207, .T. ) ;
#260 = DIRECTION ( 'NONE',  ( -1.000000000000000000, 1.900199152142554300E-016, 0.0000000000000000000 ) ) ;
#261 = CARTESIAN_POINT ( 'NONE',  ( 5.550970587863979500E-015, 27.99999999999998900, 0.0000000000000000000 ) ) ;
#262 = VECTOR ( 'NONE', #12, 1000.000000000000000 ) ;
#263 = CARTESIAN_POINT ( 'NONE',  ( 5.550970587863977100E-015, 27.99999999999997200, 0.0000000000000000000 ) ) ;
#264 = PERSON_AND_ORGANIZATION_ROLE ( 'design_owner' ) ;
#265 = UNCERTAINTY_MEASURE_WITH_UNIT (LENGTH_MEASURE( 1.000000000000000100E-005 ), #73, 'distance_accuracy_value', 'NONE');
#266 = CARTESIAN_POINT ( 'NONE',  ( 5.550970587863979500E-015, 27.99999999999998900, 0.0000000000000000000 ) ) ;
#267 = VERTEX_POINT ( 'NONE', #1 ) ;
#268 = ADVANCED_FACE ( 'NONE', ( #40 ), #236, .T. ) ;
#269 = AXIS2_PLACEMENT_3D ( 'NONE', #97, #35, #68 ) ;
#270 = SECURITY_CLASSIFICATION ( '', '', #123 ) ;
#271 = ORIENTED_EDGE ( 'NONE', *, *, #378, .T. ) ;
#272 = ORIENTED_EDGE ( 'NONE', *, *, #203, .T. ) ;
#273 = APPROVAL_DATE_TIME ( #361, #162 ) ;
#274 = DIRECTION ( 'NONE',  ( 1.982489495665708100E-016, 1.000000000000000000, -0.0000000000000000000 ) ) ;
#275 = AXIS2_PLACEMENT_3D ( 'NONE', #253, #63, #119 ) ;
#276 = DIRECTION ( 'NONE',  ( 1.982489495665708100E-016, 1.000000000000000000, -0.0000000000000000000 ) ) ;
#277 = EDGE_LOOP ( 'NONE', ( #174, #272, #383, #19 ) ) ;
#278 = CARTESIAN_POINT ( 'NONE',  ( 109.5500000000000300, 4.000000000000002700, 0.0000000000000000000 ) ) ;
#279 = ADVANCED_FACE ( 'NONE', ( #168 ), #153, .T. ) ;
#280 = DIRECTION ( 'NONE',  ( -1.000000000000000000, 1.982489495665707400E-016, 0.0000000000000000000 ) ) ;
#281 = CC_DESIGN_PERSON_AND_ORGANIZATION_ASSIGNMENT ( #22, #288, ( #47 ) ) ;
#282 = CIRCLE ( 'NONE', #188, 4.000000000000003600 ) ;
#283 = ORIENTED_EDGE ( 'NONE', *, *, #138, .T. ) ;
#284 = DIRECTION ( 'NONE',  ( -1.000000000000000000, 1.982489495665708100E-016, 0.0000000000000000000 ) ) ;
#285 = CARTESIAN_POINT ( 'NONE',  ( 4.757974789597700100E-015, 24.00000000000000400, 0.0000000000000000000 ) ) ;
#286 = AXIS2_PLACEMENT_3D ( 'NONE', #114, #55, #24 ) ;
#287 = DIRECTION ( 'NONE',  ( 1.982489495665708100E-016, 1.000000000000000000, -0.0000000000000000000 ) ) ;
#288 = PERSON_AND_ORGANIZATION_ROLE ( 'creator' ) ;
#289 = APPROVAL_STATUS ( 'not_yet_approved' ) ;
#290 = CARTESIAN_POINT ( 'NONE',  ( 0.0000000000000000000, 0.0000000000000000000, 0.0000000000000000000 ) ) ;
#291 = ORIENTED_EDGE ( 'NONE', *, *, #101, .T. ) ;
#292 = VERTEX_POINT ( 'NONE', #155 ) ;
#293 = EDGE_CURVE ( 'NONE', #186, #120, #48, .T. ) ;
#294 = PRODUCT_RELATED_PRODUCT_CATEGORY ( 'detail', '', ( #366 ) ) ;
#295 = EDGE_LOOP ( 'NONE', ( #224, #315, #25, #58 ) ) ;
#296 = EDGE_CURVE ( 'NONE', #202, #81, #13, .T. ) ;
#297 = CARTESIAN_POINT ( 'NONE',  ( -109.5500000000000100, 24.00000000000002500, 0.0000000000000000000 ) ) ;
#298 = PRODUCT_DEFINITION_SHAPE ( 'NONE', 'NONE',  #47 ) ;
#299 = ADVANCED_FACE ( 'NONE', ( #163 ), #250, .F. ) ;
#300 = CIRCLE ( 'NONE', #89, 113.5500000000000100 ) ;
#301 = PERSON_AND_ORGANIZATION ( #106, #200 ) ;
#302 = CARTESIAN_POINT ( 'NONE',  ( -109.5500000000000100, 27.99999999999999300, 0.0000000000000000000 ) ) ;
#303 = AXIS2_PLACEMENT_3D ( 'NONE', #266, #312, #320 ) ;
#304 = ORIENTED_EDGE ( 'NONE', *, *, #363, .T. ) ;
#305 = DIRECTION ( 'NONE',  ( 1.000000000000000000, -1.900199152142554300E-016, 0.0000000000000000000 ) ) ;
#306 = FACE_OUTER_BOUND ( 'NONE', #370, .T. ) ;
#307 = AXIS2_PLACEMENT_3D ( 'NONE', #152, #369, #184 ) ;
#308 = CARTESIAN_POINT ( 'NONE',  ( 131.5000000000000300, 3.999999999999998200, 0.0000000000000000000 ) ) ;
#309 = CARTESIAN_POINT ( 'NONE',  ( -105.5500000000000100, 24.00000000000002500, 1.292614696500031400E-014 ) ) ;
#310 = CIRCLE ( 'NONE', #251, 4.000000000000003600 ) ;
#311 = AXIS2_PLACEMENT_3D ( 'NONE', #317, #287, #260 ) ;
#312 = DIRECTION ( 'NONE',  ( 1.982489495665708100E-016, 1.000000000000000000, -0.0000000000000000000 ) ) ;
#313 = DIRECTION ( 'NONE',  ( -1.982489495665708100E-016, -1.000000000000000000, 0.0000000000000000000 ) ) ;
#314 = PERSON_AND_ORGANIZATION ( #106, #200 ) ;
#315 = ORIENTED_EDGE ( 'NONE', *, *, #39, .F. ) ;
#316 = EDGE_LOOP ( 'NONE', ( #291, #343 ) ) ;
#317 = CARTESIAN_POINT ( 'NONE',  ( 5.550970587863977100E-015, 27.99999999999997200, 0.0000000000000000000 ) ) ;
#318 = APPROVAL_PERSON_ORGANIZATION ( #32, #201, #319 ) ;
#319 = APPROVAL_ROLE ( '' ) ;
#320 = DIRECTION ( 'NONE',  ( -1.000000000000000000, 1.972210489030949100E-016, 0.0000000000000000000 ) ) ;
#321 = EDGE_CURVE ( 'NONE', #197, #77, #218, .T. ) ;
#322 = ADVANCED_FACE ( 'NONE', ( #392, #90 ), #367, .F. ) ;
#323 = DIRECTION ( 'NONE',  ( 0.0000000000000000000, 0.0000000000000000000, 1.000000000000000000 ) ) ;
#324 = DIRECTION ( 'NONE',  ( 1.224646799147353200E-016, -2.427849415210259900E-032, 1.000000000000000000 ) ) ;
#325 = ORIENTED_EDGE ( 'NONE', *, *, #132, .F. ) ;
#326 = LINE ( 'NONE', #302, #74 ) ;
#327 = EDGE_LOOP ( 'NONE', ( #356, #43, #20, #325 ) ) ;
#328 = ORIENTED_EDGE ( 'NONE', *, *, #118, .T. ) ;
#329 = AXIS2_PLACEMENT_3D ( 'NONE', #206, #88, #21 ) ;
#330 = APPROVAL_PERSON_ORGANIZATION ( #314, #162, #377 ) ;
#331 = AXIS2_PLACEMENT_3D ( 'NONE', #69, #229, #100 ) ;
#332 = TOROIDAL_SURFACE ( 'NONE', #329, 131.5000000000000300, 4.000000000000000000 ) ;
#333 = APPROVAL_DATE_TIME ( #16, #201 ) ;
#334 = MANIFOLD_SOLID_BREP ( 'Cosmetic_Fillet', #107 ) ;
#335 = DESIGN_CONTEXT ( 'detailed design', #164, 'design' ) ;
#336 = AXIS2_PLACEMENT_3D ( 'NONE', #400, #26, #305 ) ;
#337 = CARTESIAN_POINT ( 'NONE',  ( 2.157041537713704200E-029, 1.110223024625156500E-013, 0.0000000000000000000 ) ) ;
#338 = TOROIDAL_SURFACE ( 'NONE', #220, 113.5500000000000100, 4.000000000000000000 ) ;
#339 = DIRECTION ( 'NONE',  ( 1.982489495665708100E-016, 1.000000000000000000, -0.0000000000000000000 ) ) ;
#340 = CARTESIAN_POINT ( 'NONE',  ( 7.929957982662876800E-016, 4.000000000000024000, 0.0000000000000000000 ) ) ;
#341 = AXIS2_PLACEMENT_3D ( 'NONE', #263, #226, #375 ) ;
#342 = CARTESIAN_POINT ( 'NONE',  ( 109.5500000000000100, 27.99999999999995000, 1.341600568465925500E-014 ) ) ;
#343 = ORIENTED_EDGE ( 'NONE', *, *, #321, .T. ) ;
#344 = CARTESIAN_POINT ( 'NONE',  ( 4.757974789597700100E-015, 24.00000000000000400, 0.0000000000000000000 ) ) ;
#345 = DIRECTION ( 'NONE',  ( -1.000000000000000000, 1.982489495665708600E-016, 0.0000000000000000000 ) ) ;
#346 = DIRECTION ( 'NONE',  ( -1.982489495665708100E-016, -1.000000000000000000, 0.0000000000000000000 ) ) ;
#347 = ORIENTED_EDGE ( 'NONE', *, *, #156, .F. ) ;
#348 = DIRECTION ( 'NONE',  ( -1.982489495665708100E-016, -1.000000000000000000, 0.0000000000000000000 ) ) ;
#349 = ORIENTED_EDGE ( 'NONE', *, *, #363, .F. ) ;
#350 = CARTESIAN_POINT ( 'NONE',  ( 131.5000000000000300, -1.783608204328769800E-015, 0.0000000000000000000 ) ) ;
#351 = DIRECTION ( 'NONE',  ( 1.982489495665708100E-016, 1.000000000000000000, -0.0000000000000000000 ) ) ;
#352 =( GEOMETRIC_REPRESENTATION_CONTEXT ( 3 ) GLOBAL_UNCERTAINTY_ASSIGNED_CONTEXT ( ( #265 ) ) GLOBAL_UNIT_ASSIGNED_CONTEXT ( ( #73, #193, #70 ) ) REPRESENTATION_CONTEXT ( 'NONE', 'WORKASPACE' ) );
#353 = DIRECTION ( 'NONE',  ( -1.000000000000000000, 1.972210489030949100E-016, 0.0000000000000000000 ) ) ;
#354 = CARTESIAN_POINT ( 'NONE',  ( -135.5000000000000300, 1.378850351287860000E-013, 1.659396412844663800E-014 ) ) ;
#355 = AXIS2_PLACEMENT_3D ( 'NONE', #182, #393, #141 ) ;
#356 = ORIENTED_EDGE ( 'NONE', *, *, #67, .F. ) ;
#357 = ORIENTED_EDGE ( 'NONE', *, *, #296, .F. ) ;
#358 = CC_DESIGN_APPROVAL ( #162, ( #47 ) ) ;
#359 = ORIENTED_EDGE ( 'NONE', *, *, #83, .T. ) ;
#360 = FACE_OUTER_BOUND ( 'NONE', #231, .T. ) ;
#361 = DATE_AND_TIME ( #232, #79 ) ;
#362 = PLANE ( 'NONE',  #14 ) ;
#363 = EDGE_CURVE ( 'NONE', #81, #202, #368, .T. ) ;
#364 = DIRECTION ( 'NONE',  ( 1.982489495665708100E-016, 1.000000000000000000, -0.0000000000000000000 ) ) ;
#365 = CARTESIAN_POINT ( 'NONE',  ( 2.157041537713704200E-029, 1.110223024625156500E-013, 0.0000000000000000000 ) ) ;
#366 = PRODUCT ( '6018060_OSTP', '6018060_OSTP', '', ( #190 ) ) ;
#367 = PLANE ( 'NONE',  #173 ) ;
#368 = CIRCLE ( 'NONE', #405, 105.5500000000000800 ) ;
#369 = DIRECTION ( 'NONE',  ( 0.0000000000000000000, -0.0000000000000000000, -1.000000000000000000 ) ) ;
#370 = EDGE_LOOP ( 'NONE', ( #390, #283 ) ) ;
#371 = ORIENTED_EDGE ( 'NONE', *, *, #41, .T. ) ;
#372 = AXIS2_PLACEMENT_3D ( 'NONE', #180, #276, #115 ) ;
#373 = CARTESIAN_POINT ( 'NONE',  ( 109.5500000000000100, 23.99999999999998200, 1.341600568465925500E-014 ) ) ;
#374 = CARTESIAN_POINT ( 'NONE',  ( -113.5500000000000100, 8.000000000000046200, 1.390586440431819700E-014 ) ) ;
#375 = DIRECTION ( 'NONE',  ( -1.000000000000000000, 1.972210489030949100E-016, 0.0000000000000000000 ) ) ;
#376 = ORIENTED_EDGE ( 'NONE', *, *, #381, .F. ) ;
#377 = APPROVAL_ROLE ( '' ) ;
#378 = EDGE_CURVE ( 'NONE', #292, #64, #282, .T. ) ;
#379 = PERSON_AND_ORGANIZATION_ROLE ( 'creator' ) ;
#380 = CIRCLE ( 'NONE', #7, 105.5500000000000800 ) ;
#381 = EDGE_CURVE ( 'NONE', #77, #2, #196, .T. ) ;
#382 = VERTEX_POINT ( 'NONE', #117 ) ;
#383 = ORIENTED_EDGE ( 'NONE', *, *, #259, .T. ) ;
#384 = DATE_AND_TIME ( #255, #131 ) ;
#385 = PERSON_AND_ORGANIZATION ( #106, #200 ) ;
#386 = AXIS2_PLACEMENT_3D ( 'NONE', #122, #324, #129 ) ;
#387 = ORIENTED_EDGE ( 'NONE', *, *, #46, .F. ) ;
#388 = VECTOR ( 'NONE', #146, 1000.000000000000000 ) ;
#389 = AXIS2_PLACEMENT_3D ( 'NONE', #65, #346, #158 ) ;
#390 = ORIENTED_EDGE ( 'NONE', *, *, #293, .T. ) ;
#391 = CALENDAR_DATE ( 2024, 20, 3 ) ;
#392 = FACE_OUTER_BOUND ( 'NONE', #133, .T. ) ;
#393 = DIRECTION ( 'NONE',  ( 1.982489495665708100E-016, 1.000000000000000000, -0.0000000000000000000 ) ) ;
#394 = ORIENTED_EDGE ( 'NONE', *, *, #39, .T. ) ;
#395 = CARTESIAN_POINT ( 'NONE',  ( -131.5000000000000300, 4.000000000000050600, 1.634903476861717100E-014 ) ) ;
#396 = CYLINDRICAL_SURFACE ( 'NONE', #269, 109.5500000000000100 ) ;
#397 = CALENDAR_DATE ( 2024, 20, 3 ) ;
#398 = DIRECTION ( 'NONE',  ( -1.982489495665708100E-016, -1.000000000000000000, 0.0000000000000000000 ) ) ;
#399 = EDGE_CURVE ( 'NONE', #267, #401, #45, .T. ) ;
#400 = CARTESIAN_POINT ( 'NONE',  ( 4.757974789597700100E-015, 24.00000000000000400, 0.0000000000000000000 ) ) ;
#401 = VERTEX_POINT ( 'NONE', #373 ) ;
#402 = DIRECTION ( 'NONE',  ( 1.224646799147353200E-016, -2.427849415210259900E-032, 1.000000000000000000 ) ) ;
#403 = CIRCLE ( 'NONE', #336, 109.5500000000000100 ) ;
#404 = EDGE_CURVE ( 'NONE', #292, #267, #380, .T. ) ;
#405 = AXIS2_PLACEMENT_3D ( 'NONE', #27, #249, #345 ) ;
ENDSEC;
END-ISO-10303-21;
