ISO-10303-21;
HEADER;
FILE_DESCRIPTION (( 'STEP AP203' ),
    '1' );
FILE_NAME ('6015283_OSTP.step',
    '2024-03-20T08:46:09',
    ( '' ),
    ( '' ),
    'SwSTEP 2.0',
    'SolidWorks 2014',
    '' );
FILE_SCHEMA (( 'CONFIG_CONTROL_DESIGN' ));
ENDSEC;

DATA;
#1 = CARTESIAN_POINT ( 'NONE',  ( -6.445509469196598000E-016, 8.000000000000003600, 0.0000000000000000000 ) ) ;
#2 = CIRCLE ( 'NONE', #155, 200.0000000000000600 ) ;
#3 = EDGE_CURVE ( 'NONE', #11, #164, #87, .T. ) ;
#4 = FACE_OUTER_BOUND ( 'NONE', #306, .T. ) ;
#5 = LOCAL_TIME ( 9, 46, 9.000000000000000000, #272 ) ;
#6 = APPROVAL ( #92, 'UNSPECIFIED' ) ;
#7 = CARTESIAN_POINT ( 'NONE',  ( 204.0000000000000300, 4.000000000000022200, 0.0000000000000000000 ) ) ;
#8 = VERTEX_POINT ( 'NONE', #401 ) ;
#9 = CIRCLE ( 'NONE', #362, 4.000000000000003600 ) ;
#10 = FACE_OUTER_BOUND ( 'NONE', #184, .T. ) ;
#11 = VERTEX_POINT ( 'NONE', #363 ) ;
#12 = FACE_BOUND ( 'NONE', #390, .T. ) ;
#13 = APPROVAL_PERSON_ORGANIZATION ( #215, #6, #337 ) ;
#14 = DIRECTION ( 'NONE',  ( 8.056886836495747500E-017, -1.000000000000000000, 0.0000000000000000000 ) ) ;
#15 = ADVANCED_FACE ( 'NONE', ( #4 ), #101, .F. ) ;
#16 = CARTESIAN_POINT ( 'NONE',  ( -208.0000000000000000, 7.999999999999986700, 2.547265342226494600E-014 ) ) ;
#17 = DIRECTION ( 'NONE',  ( 8.056886836495747500E-017, -1.000000000000000000, 0.0000000000000000000 ) ) ;
#18 = ADVANCED_FACE ( 'NONE', ( #319 ), #160, .T. ) ;
#19 = ORIENTED_EDGE ( 'NONE', *, *, #34, .T. ) ;
#20 = AXIS2_PLACEMENT_3D ( 'NONE', #293, #292, #113 ) ;
#21 = CARTESIAN_POINT ( 'NONE',  ( -6.445509469196598000E-016, 8.000000000000003600, 0.0000000000000000000 ) ) ;
#22 = VERTEX_POINT ( 'NONE', #340 ) ;
#23 = EDGE_LOOP ( 'NONE', ( #89, #403, #169, #257 ) ) ;
#24 = APPROVAL_PERSON_ORGANIZATION ( #196, #378, #151 ) ;
#25 = EDGE_CURVE ( 'NONE', #22, #400, #75, .T. ) ;
#26 = PERSON_AND_ORGANIZATION_ROLE ( 'design_supplier' ) ;
#27 = EDGE_LOOP ( 'NONE', ( #334, #239, #253, #150 ) ) ;
#28 = VECTOR ( 'NONE', #250, 1000.000000000000000 ) ;
#29 = CARTESIAN_POINT ( 'NONE',  ( -2.739341524408550900E-015, 33.99999999999995700, 0.0000000000000000000 ) ) ;
#30 = PRODUCT_DEFINITION_SHAPE ( 'NONE', 'NONE',  #268 ) ;
#31 = PERSON_AND_ORGANIZATION_ROLE ( 'creator' ) ;
#32 = CARTESIAN_POINT ( 'NONE',  ( 208.0000000000000000, 8.000000000000021300, 0.0000000000000000000 ) ) ;
#33 = DIRECTION ( 'NONE',  ( 1.000000000000000000, 8.085575523620711400E-017, 0.0000000000000000000 ) ) ;
#34 = EDGE_CURVE ( 'NONE', #37, #11, #331, .T. ) ;
#35 = DIRECTION ( 'NONE',  ( 0.0000000000000000000, 0.0000000000000000000, 1.000000000000000000 ) ) ;
#36 = CARTESIAN_POINT ( 'NONE',  ( -204.0000000000000000, 7.999999999999988500, 0.0000000000000000000 ) ) ;
#37 = VERTEX_POINT ( 'NONE', #36 ) ;
#38 = COORDINATED_UNIVERSAL_TIME_OFFSET ( 1, 0, .AHEAD. ) ;
#39 = DIRECTION ( 'NONE',  ( -8.056886836495747500E-017, 1.000000000000000000, -0.0000000000000000000 ) ) ;
#40 = DIRECTION ( 'NONE',  ( -1.000000000000000000, -6.938893903907225900E-017, 0.0000000000000000000 ) ) ;
#41 = CC_DESIGN_DATE_AND_TIME_ASSIGNMENT ( #397, #116, ( #268 ) ) ;
#42 = EDGE_CURVE ( 'NONE', #8, #271, #307, .T. ) ;
#43 = CARTESIAN_POINT ( 'NONE',  ( -200.0000000000000600, 37.99999999999995000, 0.0000000000000000000 ) ) ;
#44 = EDGE_CURVE ( 'NONE', #271, #8, #2, .T. ) ;
#45 = ADVANCED_FACE ( 'NONE', ( #252, #159 ), #282, .F. ) ;
#46 = DIRECTION ( 'NONE',  ( 1.000000000000000000, 7.923015875855608800E-017, 0.0000000000000000000 ) ) ;
#47 = ADVANCED_FACE ( 'NONE', ( #329 ), #395, .T. ) ;
#48 = FACE_OUTER_BOUND ( 'NONE', #27, .T. ) ;
#49 = EDGE_CURVE ( 'NONE', #71, #11, #170, .T. ) ;
#50 = ORIENTED_EDGE ( 'NONE', *, *, #44, .F. ) ;
#51 = PERSON_AND_ORGANIZATION ( #168, #131 ) ;
#52 = CIRCLE ( 'NONE', #311, 208.0000000000000000 ) ;
#53 = CC_DESIGN_PERSON_AND_ORGANIZATION_ASSIGNMENT ( #296, #31, ( #268 ) ) ;
#54 = EDGE_CURVE ( 'NONE', #8, #71, #99, .T. ) ;
#55 = APPLICATION_CONTEXT ( 'configuration controlled 3d designs of mechanical parts and assemblies' ) ;
#56 = CARTESIAN_POINT ( 'NONE',  ( 236.0000000000000000, 2.595314683803719200E-014, 0.0000000000000000000 ) ) ;
#57 = APPLICATION_PROTOCOL_DEFINITION ( 'international standard', 'config_control_design', 1994, #186 ) ;
#58 = VERTEX_POINT ( 'NONE', #162 ) ;
#59 =( NAMED_UNIT ( * ) PLANE_ANGLE_UNIT ( ) SI_UNIT ( $, .RADIAN. ) );
#60 = DIRECTION ( 'NONE',  ( 1.000000000000000000, 8.085575523620711400E-017, 0.0000000000000000000 ) ) ;
#61 = CARTESIAN_POINT ( 'NONE',  ( -2.739341524408550500E-015, 33.99999999999995700, 0.0000000000000000000 ) ) ;
#62 = AXIS2_PLACEMENT_3D ( 'NONE', #7, #198, #348 ) ;
#63 = ORIENTED_EDGE ( 'NONE', *, *, #44, .T. ) ;
#64 = LINE ( 'NONE', #201, #318 ) ;
#65 = CALENDAR_DATE ( 2024, 20, 3 ) ;
#66 = AXIS2_PLACEMENT_3D ( 'NONE', #94, #35, #370 ) ;
#67 = DIRECTION ( 'NONE',  ( 8.056886836495747500E-017, -1.000000000000000000, 0.0000000000000000000 ) ) ;
#68 = FACE_OUTER_BOUND ( 'NONE', #100, .T. ) ;
#69 = DIRECTION ( 'NONE',  ( -8.056886836495747500E-017, 1.000000000000000000, -0.0000000000000000000 ) ) ;
#70 = EDGE_LOOP ( 'NONE', ( #265, #115, #350, #399 ) ) ;
#71 = VERTEX_POINT ( 'NONE', #377 ) ;
#72 = EDGE_CURVE ( 'NONE', #158, #164, #64, .T. ) ;
#73 = CIRCLE ( 'NONE', #398, 200.0000000000000600 ) ;
#74 = ADVANCED_FACE ( 'NONE', ( #10 ), #384, .T. ) ;
#75 = CIRCLE ( 'NONE', #275, 236.0000000000000000 ) ;
#76 = CALENDAR_DATE ( 2024, 20, 3 ) ;
#77 = DIRECTION ( 'NONE',  ( -8.056886836495747500E-017, 1.000000000000000000, -0.0000000000000000000 ) ) ;
#78 = DIRECTION ( 'NONE',  ( -8.056886836495747500E-017, 1.000000000000000000, -0.0000000000000000000 ) ) ;
#79 = ADVANCED_FACE ( 'NONE', ( #85, #12 ), #165, .F. ) ;
#80 = VECTOR ( 'NONE', #219, 1000.000000000000000 ) ;
#81 = CC_DESIGN_PERSON_AND_ORGANIZATION_ASSIGNMENT ( #345, #190, ( #349 ) ) ;
#82 = ORIENTED_EDGE ( 'NONE', *, *, #3, .F. ) ;
#83 = CARTESIAN_POINT ( 'NONE',  ( 204.0000000000000000, 33.99999999999997200, 2.498279470260600200E-014 ) ) ;
#84 = ORIENTED_EDGE ( 'NONE', *, *, #114, .T. ) ;
#85 = FACE_OUTER_BOUND ( 'NONE', #248, .T. ) ;
#86 = EDGE_CURVE ( 'NONE', #136, #37, #144, .T. ) ;
#87 = CIRCLE ( 'NONE', #359, 204.0000000000000000 ) ;
#88 = LOCAL_TIME ( 9, 46, 9.000000000000000000, #38 ) ;
#89 = ORIENTED_EDGE ( 'NONE', *, *, #281, .F. ) ;
#90 = ORIENTED_EDGE ( 'NONE', *, *, #42, .F. ) ;
#91 = FACE_OUTER_BOUND ( 'NONE', #344, .T. ) ;
#92 = APPROVAL_STATUS ( 'not_yet_approved' ) ;
#93 = CARTESIAN_POINT ( 'NONE',  ( -236.0000000000000000, 3.999999999999987100, 2.914659381970700300E-014 ) ) ;
#94 = CARTESIAN_POINT ( 'NONE',  ( 0.0000000000000000000, 0.0000000000000000000, 0.0000000000000000000 ) ) ;
#95 = DIRECTION ( 'NONE',  ( 0.0000000000000000000, 0.0000000000000000000, -1.000000000000000000 ) ) ;
#96 = DIRECTION ( 'NONE',  ( 1.000000000000000000, 7.923015875855608800E-017, 0.0000000000000000000 ) ) ;
#97 = CARTESIAN_POINT ( 'NONE',  ( -9.629649721936179300E-030, 1.249000902703301100E-013, 0.0000000000000000000 ) ) ;
#98 = CARTESIAN_POINT ( 'NONE',  ( 200.0000000000000600, 1.271360761355071400E-013, 2.449293598294707100E-014 ) ) ;
#99 = LINE ( 'NONE', #43, #242 ) ;
#100 = EDGE_LOOP ( 'NONE', ( #223, #194, #392, #396 ) ) ;
#101 = CYLINDRICAL_SURFACE ( 'NONE', #238, 200.0000000000000600 ) ;
#102 = CARTESIAN_POINT ( 'NONE',  ( -3.222754734598302500E-016, 4.000000000000006200, 0.0000000000000000000 ) ) ;
#103 = COORDINATED_UNIVERSAL_TIME_OFFSET ( 1, 0, .AHEAD. ) ;
#104 = EDGE_LOOP ( 'NONE', ( #313, #90, #243, #382 ) ) ;
#105 = DIRECTION ( 'NONE',  ( 1.224646799147353200E-016, 9.866840675406961300E-033, 1.000000000000000000 ) ) ;
#106 = PRODUCT_DEFINITION_FORMATION_WITH_SPECIFIED_SOURCE ( 'ANY', '', #349, .NOT_KNOWN. ) ;
#107 = ORIENTED_EDGE ( 'NONE', *, *, #326, .F. ) ;
#108 = PERSON_AND_ORGANIZATION ( #168, #131 ) ;
#109 = AXIS2_PLACEMENT_3D ( 'NONE', #381, #202, #251 ) ;
#110 = CC_DESIGN_APPROVAL ( #347, ( #268 ) ) ;
#111 = LINE ( 'NONE', #119, #28 ) ;
#112 = DIRECTION ( 'NONE',  ( 1.000000000000000000, 7.653191805780031200E-017, 0.0000000000000000000 ) ) ;
#113 = DIRECTION ( 'NONE',  ( 1.000000000000000000, 8.056886836495747500E-017, 0.0000000000000000000 ) ) ;
#114 = EDGE_CURVE ( 'NONE', #181, #71, #73, .T. ) ;
#115 = ORIENTED_EDGE ( 'NONE', *, *, #72, .T. ) ;
#116 = DATE_TIME_ROLE ( 'creation_date' ) ;
#117 = CIRCLE ( 'NONE', #351, 200.0000000000000600 ) ;
#118 = EDGE_CURVE ( 'NONE', #136, #58, #233, .T. ) ;
#119 = CARTESIAN_POINT ( 'NONE',  ( 200.0000000000000600, 37.99999999999997900, 2.449293598294707100E-014 ) ) ;
#120 = DIRECTION ( 'NONE',  ( -8.056886836495747500E-017, 1.000000000000000000, -0.0000000000000000000 ) ) ;
#121 = MECHANICAL_CONTEXT ( 'NONE', #55, 'mechanical' ) ;
#122 = DIRECTION ( 'NONE',  ( -8.056886836495747500E-017, 1.000000000000000000, -0.0000000000000000000 ) ) ;
#123 = CARTESIAN_POINT ( 'NONE',  ( -6.445509469196598000E-016, 8.000000000000003600, 0.0000000000000000000 ) ) ;
#124 = DIRECTION ( 'NONE',  ( -8.056886836495747500E-017, 1.000000000000000000, -0.0000000000000000000 ) ) ;
#125 = DIRECTION ( 'NONE',  ( 1.000000000000000000, 8.056886836495747500E-017, 0.0000000000000000000 ) ) ;
#126 = APPROVAL_STATUS ( 'not_yet_approved' ) ;
#127 = AXIS2_PLACEMENT_3D ( 'NONE', #102, #220, #33 ) ;
#128 = CARTESIAN_POINT ( 'NONE',  ( -3.851859888774471700E-031, 6.938893903907228400E-015, 0.0000000000000000000 ) ) ;
#129 = CC_DESIGN_PERSON_AND_ORGANIZATION_ASSIGNMENT ( #137, #333, ( #106 ) ) ;
#130 = DIRECTION ( 'NONE',  ( 1.000000000000000000, 8.056886836495747500E-017, 0.0000000000000000000 ) ) ;
#131 = ORGANIZATION ( 'UNSPECIFIED', 'UNSPECIFIED', '' ) ;
#132 = UNCERTAINTY_MEASURE_WITH_UNIT (LENGTH_MEASURE( 1.000000000000000100E-005 ), #188, 'distance_accuracy_value', 'NONE');
#133 = CARTESIAN_POINT ( 'NONE',  ( -3.061616997868380700E-015, 37.99999999999996400, 0.0000000000000000000 ) ) ;
#134 = EDGE_CURVE ( 'NONE', #22, #325, #284, .T. ) ;
#135 = CARTESIAN_POINT ( 'NONE',  ( -2.739341524408550900E-015, 33.99999999999995700, 0.0000000000000000000 ) ) ;
#136 = VERTEX_POINT ( 'NONE', #289 ) ;
#137 = PERSON_AND_ORGANIZATION ( #168, #131 ) ;
#138 = ADVANCED_FACE ( 'NONE', ( #148 ), #389, .F. ) ;
#139 = FACE_OUTER_BOUND ( 'NONE', #23, .T. ) ;
#140 = PRODUCT_RELATED_PRODUCT_CATEGORY ( 'detail', '', ( #349 ) ) ;
#141 = DIRECTION ( 'NONE',  ( -8.056886836495747500E-017, 1.000000000000000000, -0.0000000000000000000 ) ) ;
#142 = ORIENTED_EDGE ( 'NONE', *, *, #3, .T. ) ;
#143 = CLOSED_SHELL ( 'NONE', ( #207, #288, #47, #15, #178, #74, #45, #79, #138, #175, #323, #18 ) ) ;
#144 = CIRCLE ( 'NONE', #204, 4.000000000000003600 ) ;
#145 = AXIS2_PLACEMENT_3D ( 'NONE', #341, #120, #276 ) ;
#146 = COORDINATED_UNIVERSAL_TIME_OFFSET ( 1, 0, .AHEAD. ) ;
#147 = AXIS2_PLACEMENT_3D ( 'NONE', #156, #304, #192 ) ;
#148 = FACE_OUTER_BOUND ( 'NONE', #104, .T. ) ;
#149 = CARTESIAN_POINT ( 'NONE',  ( 199.9999999999999700, 33.99999999999997200, 0.0000000000000000000 ) ) ;
#150 = ORIENTED_EDGE ( 'NONE', *, *, #383, .F. ) ;
#151 = APPROVAL_ROLE ( '' ) ;
#152 = ORIENTED_EDGE ( 'NONE', *, *, #336, .T. ) ;
#153 = DIRECTION ( 'NONE',  ( 0.0000000000000000000, 0.0000000000000000000, -1.000000000000000000 ) ) ;
#154 = CARTESIAN_POINT ( 'NONE',  ( -3.222754734598301000E-016, 4.000000000000006200, 0.0000000000000000000 ) ) ;
#155 = AXIS2_PLACEMENT_3D ( 'NONE', #310, #39, #255 ) ;
#156 = CARTESIAN_POINT ( 'NONE',  ( -2.739341524408550500E-015, 33.99999999999995700, 0.0000000000000000000 ) ) ;
#157 = CARTESIAN_POINT ( 'NONE',  ( 200.0000000000000600, 37.99999999999995700, 2.449293598294707100E-014 ) ) ;
#158 = VERTEX_POINT ( 'NONE', #267 ) ;
#159 = FACE_BOUND ( 'NONE', #315, .T. ) ;
#160 = TOROIDAL_SURFACE ( 'NONE', #147, 199.9999999999999700, 4.000000000000000000 ) ;
#161 = DIRECTION ( 'NONE',  ( -1.000000000000000000, -8.056886836495747500E-017, 0.0000000000000000000 ) ) ;
#162 = CARTESIAN_POINT ( 'NONE',  ( 208.0000000000000000, 4.000000000000022200, 0.0000000000000000000 ) ) ;
#163 = ORIENTED_EDGE ( 'NONE', *, *, #326, .T. ) ;
#164 = VERTEX_POINT ( 'NONE', #83 ) ;
#165 = PLANE ( 'NONE',  #109 ) ;
#166 = EDGE_CURVE ( 'NONE', #37, #158, #208, .T. ) ;
#167 = EDGE_LOOP ( 'NONE', ( #176, #278 ) ) ;
#168 = PERSON ( 'UNSPECIFIED', 'UNSPECIFIED', 'UNSPECIFIED', ('UNSPECIFIED'), ('UNSPECIFIED'), ('UNSPECIFIED') ) ;
#169 = ORIENTED_EDGE ( 'NONE', *, *, #343, .F. ) ;
#170 = CIRCLE ( 'NONE', #380, 4.000000000000003600 ) ;
#171 = ORIENTED_EDGE ( 'NONE', *, *, #393, .T. ) ;
#172 = ORIENTED_EDGE ( 'NONE', *, *, #260, .T. ) ;
#173 = EDGE_CURVE ( 'NONE', #158, #37, #237, .T. ) ;
#174 = DIRECTION ( 'NONE',  ( -1.000000000000000000, -6.938893903907225900E-017, 0.0000000000000000000 ) ) ;
#175 = ADVANCED_FACE ( 'NONE', ( #68 ), #298, .T. ) ;
#176 = ORIENTED_EDGE ( 'NONE', *, *, #25, .T. ) ;
#177 = DIRECTION ( 'NONE',  ( 1.000000000000000000, 8.056886836495747500E-017, 0.0000000000000000000 ) ) ;
#178 = ADVANCED_FACE ( 'NONE', ( #365 ), #291, .T. ) ;
#179 = AXIS2_PLACEMENT_3D ( 'NONE', #133, #69, #283 ) ;
#180 = ORIENTED_EDGE ( 'NONE', *, *, #49, .F. ) ;
#181 = VERTEX_POINT ( 'NONE', #157 ) ;
#182 = DATE_AND_TIME ( #287, #376 ) ;
#183 = SECURITY_CLASSIFICATION_LEVEL ( 'unclassified' ) ;
#184 = EDGE_LOOP ( 'NONE', ( #353, #245, #19, #142 ) ) ;
#185 = CIRCLE ( 'NONE', #213, 240.0000000000000000 ) ;
#186 = APPLICATION_CONTEXT ( 'configuration controlled 3d designs of mechanical parts and assemblies' ) ;
#187 = AXIS2_PLACEMENT_3D ( 'NONE', #29, #405, #246 ) ;
#188 =( LENGTH_UNIT ( ) NAMED_UNIT ( * ) SI_UNIT ( .MILLI., .METRE. ) );
#189 = DIRECTION ( 'NONE',  ( 8.056886836495747500E-017, -1.000000000000000000, 0.0000000000000000000 ) ) ;
#190 = PERSON_AND_ORGANIZATION_ROLE ( 'design_owner' ) ;
#191 = SECURITY_CLASSIFICATION ( '', '', #183 ) ;
#192 = DIRECTION ( 'NONE',  ( 1.000000000000000000, 8.056886836495747500E-017, 0.0000000000000000000 ) ) ;
#193 = DIRECTION ( 'NONE',  ( -1.000000000000000000, -6.938893903907225900E-017, 0.0000000000000000000 ) ) ;
#194 = ORIENTED_EDGE ( 'NONE', *, *, #25, .F. ) ;
#195 = DIRECTION ( 'NONE',  ( 8.056886836495747500E-017, -1.000000000000000000, 0.0000000000000000000 ) ) ;
#196 = PERSON_AND_ORGANIZATION ( #168, #131 ) ;
#197 = AXIS2_PLACEMENT_3D ( 'NONE', #1, #305, #125 ) ;
#198 = DIRECTION ( 'NONE',  ( 8.056886836495747500E-017, -1.000000000000000000, 0.0000000000000000000 ) ) ;
#199 = TOROIDAL_SURFACE ( 'NONE', #234, 208.0000000000000000, 4.000000000000000000 ) ;
#200 = AXIS2_PLACEMENT_3D ( 'NONE', #128, #67, #130 ) ;
#201 = CARTESIAN_POINT ( 'NONE',  ( 204.0000000000000000, 37.99999999999997900, 2.498279470260600200E-014 ) ) ;
#202 = DIRECTION ( 'NONE',  ( -8.056886836495747500E-017, 1.000000000000000000, 0.0000000000000000000 ) ) ;
#203 = EDGE_LOOP ( 'NONE', ( #218, #241, #163, #302 ) ) ;
#204 = AXIS2_PLACEMENT_3D ( 'NONE', #16, #357, #206 ) ;
#205 = CALENDAR_DATE ( 2024, 20, 3 ) ;
#206 = DIRECTION ( 'NONE',  ( 1.000000000000000000, 0.0000000000000000000, -1.224646799147349500E-016 ) ) ;
#207 = ADVANCED_FACE ( 'NONE', ( #139 ), #228, .T. ) ;
#208 = CIRCLE ( 'NONE', #361, 204.0000000000000000 ) ;
#209 = DESIGN_CONTEXT ( 'detailed design', #186, 'design' ) ;
#210 = DIRECTION ( 'NONE',  ( 1.000000000000000000, 7.653191805780031200E-017, 0.0000000000000000000 ) ) ;
#211 = CC_DESIGN_DATE_AND_TIME_ASSIGNMENT ( #182, #402, ( #191 ) ) ;
#212 = LOCAL_TIME ( 9, 46, 9.000000000000000000, #332 ) ;
#213 = AXIS2_PLACEMENT_3D ( 'NONE', #97, #124, #372 ) ;
#214 = APPROVAL_STATUS ( 'not_yet_approved' ) ;
#215 = PERSON_AND_ORGANIZATION ( #168, #131 ) ;
#216 = CIRCLE ( 'NONE', #269, 4.000000000000003600 ) ;
#217 = CARTESIAN_POINT ( 'NONE',  ( -236.0000000000000000, -1.207535903022273300E-014, 2.890166445987753300E-014 ) ) ;
#218 = ORIENTED_EDGE ( 'NONE', *, *, #256, .F. ) ;
#219 = DIRECTION ( 'NONE',  ( -8.056886836495747500E-017, 1.000000000000000000, -0.0000000000000000000 ) ) ;
#220 = DIRECTION ( 'NONE',  ( -8.056886836495747500E-017, 1.000000000000000000, -0.0000000000000000000 ) ) ;
#221 = EDGE_CURVE ( 'NONE', #400, #314, #216, .T. ) ;
#222 = DIRECTION ( 'NONE',  ( 1.224646799147353200E-016, 9.866840675406961300E-033, 1.000000000000000000 ) ) ;
#223 = ORIENTED_EDGE ( 'NONE', *, *, #221, .F. ) ;
#224 = DIRECTION ( 'NONE',  ( -8.056886836495747500E-017, 1.000000000000000000, -0.0000000000000000000 ) ) ;
#225 = APPROVAL_DATE_TIME ( #387, #378 ) ;
#226 = CARTESIAN_POINT ( 'NONE',  ( -8.474091755303837800E-030, 1.110223024625156500E-013, 0.0000000000000000000 ) ) ;
#227 = DIRECTION ( 'NONE',  ( -8.056886836495747500E-017, 1.000000000000000000, -0.0000000000000000000 ) ) ;
#228 = TOROIDAL_SURFACE ( 'NONE', #290, 199.9999999999999700, 4.000000000000000000 ) ;
#229 = DIRECTION ( 'NONE',  ( -8.056886836495747500E-017, 1.000000000000000000, -0.0000000000000000000 ) ) ;
#230 = AXIS2_PLACEMENT_3D ( 'NONE', #322, #17, #46 ) ;
#231 = ORIENTED_EDGE ( 'NONE', *, *, #86, .F. ) ;
#232 = DIRECTION ( 'NONE',  ( 1.000000000000000000, 6.802837160693361600E-017, 0.0000000000000000000 ) ) ;
#233 = CIRCLE ( 'NONE', #230, 208.0000000000000000 ) ;
#234 = AXIS2_PLACEMENT_3D ( 'NONE', #123, #195, #177 ) ;
#235 = APPROVAL_PERSON_ORGANIZATION ( #309, #347, #274 ) ;
#236 = ADVANCED_BREP_SHAPE_REPRESENTATION ( '6015283_OSTP', ( #297, #66 ), #285 ) ;
#237 = CIRCLE ( 'NONE', #249, 204.0000000000000000 ) ;
#238 = AXIS2_PLACEMENT_3D ( 'NONE', #356, #386, #40 ) ;
#239 = ORIENTED_EDGE ( 'NONE', *, *, #86, .T. ) ;
#240 = AXIS2_PLACEMENT_3D ( 'NONE', #56, #95, #375 ) ;
#241 = ORIENTED_EDGE ( 'NONE', *, *, #221, .T. ) ;
#242 = VECTOR ( 'NONE', #229, 1000.000000000000000 ) ;
#243 = ORIENTED_EDGE ( 'NONE', *, *, #54, .T. ) ;
#244 = CALENDAR_DATE ( 2024, 20, 3 ) ;
#245 = ORIENTED_EDGE ( 'NONE', *, *, #173, .T. ) ;
#246 = DIRECTION ( 'NONE',  ( 1.000000000000000000, 6.802837160693361600E-017, 0.0000000000000000000 ) ) ;
#247 = AXIS2_PLACEMENT_3D ( 'NONE', #149, #300, #364 ) ;
#248 = EDGE_LOOP ( 'NONE', ( #317, #107 ) ) ;
#249 = AXIS2_PLACEMENT_3D ( 'NONE', #21, #391, #210 ) ;
#250 = DIRECTION ( 'NONE',  ( -8.056886836495747500E-017, 1.000000000000000000, -0.0000000000000000000 ) ) ;
#251 = DIRECTION ( 'NONE',  ( -1.000000000000000000, -8.056886836495747500E-017, 0.0000000000000000000 ) ) ;
#252 = FACE_OUTER_BOUND ( 'NONE', #167, .T. ) ;
#253 = ORIENTED_EDGE ( 'NONE', *, *, #173, .F. ) ;
#254 = ORIENTED_EDGE ( 'NONE', *, *, #118, .T. ) ;
#255 = DIRECTION ( 'NONE',  ( -1.000000000000000000, -8.056886836495747500E-017, 0.0000000000000000000 ) ) ;
#256 = EDGE_CURVE ( 'NONE', #400, #22, #379, .T. ) ;
#257 = ORIENTED_EDGE ( 'NONE', *, *, #393, .F. ) ;
#258 = CIRCLE ( 'NONE', #145, 240.0000000000000000 ) ;
#259 = DIRECTION ( 'NONE',  ( 1.000000000000000000, 0.0000000000000000000, -1.224646799147349500E-016 ) ) ;
#260 = EDGE_CURVE ( 'NONE', #58, #136, #52, .T. ) ;
#261 = ORIENTED_EDGE ( 'NONE', *, *, #54, .F. ) ;
#262 = LOCAL_TIME ( 9, 46, 9.000000000000000000, #146 ) ;
#263 = CARTESIAN_POINT ( 'NONE',  ( -3.061616997868379100E-015, 37.99999999999994300, 0.0000000000000000000 ) ) ;
#264 = DIRECTION ( 'NONE',  ( -1.000000000000000000, -6.802837160693361600E-017, 0.0000000000000000000 ) ) ;
#265 = ORIENTED_EDGE ( 'NONE', *, *, #166, .T. ) ;
#266 = CIRCLE ( 'NONE', #187, 204.0000000000000000 ) ;
#267 = CARTESIAN_POINT ( 'NONE',  ( 204.0000000000000000, 8.000000000000019500, 2.498279470260600200E-014 ) ) ;
#268 = PRODUCT_DEFINITION ( 'UNKNOWN', '', #106, #209 ) ;
#269 = AXIS2_PLACEMENT_3D ( 'NONE', #217, #222, #280 ) ;
#270 = CARTESIAN_POINT ( 'NONE',  ( -6.445509469196598000E-016, 8.000000000000003600, 0.0000000000000000000 ) ) ;
#271 = VERTEX_POINT ( 'NONE', #98 ) ;
#272 = COORDINATED_UNIVERSAL_TIME_OFFSET ( 1, 0, .AHEAD. ) ;
#273 = SHAPE_DEFINITION_REPRESENTATION ( #30, #236 ) ;
#274 = APPROVAL_ROLE ( '' ) ;
#275 = AXIS2_PLACEMENT_3D ( 'NONE', #303, #122, #60 ) ;
#276 = DIRECTION ( 'NONE',  ( -1.000000000000000000, -8.056886836495746300E-017, 0.0000000000000000000 ) ) ;
#277 = APPLICATION_PROTOCOL_DEFINITION ( 'international standard', 'config_control_design', 1994, #55 ) ;
#278 = ORIENTED_EDGE ( 'NONE', *, *, #256, .T. ) ;
#279 = CARTESIAN_POINT ( 'NONE',  ( -204.0000000000000000, 37.99999999999995000, 0.0000000000000000000 ) ) ;
#280 = DIRECTION ( 'NONE',  ( 1.000000000000000000, 0.0000000000000000000, -1.224646799147349500E-016 ) ) ;
#281 = EDGE_CURVE ( 'NONE', #71, #181, #117, .T. ) ;
#282 = PLANE ( 'NONE',  #62 ) ;
#283 = DIRECTION ( 'NONE',  ( -1.000000000000000000, -6.802837160693361600E-017, 0.0000000000000000000 ) ) ;
#284 = CIRCLE ( 'NONE', #240, 4.000000000000003600 ) ;
#285 =( GEOMETRIC_REPRESENTATION_CONTEXT ( 3 ) GLOBAL_UNCERTAINTY_ASSIGNED_CONTEXT ( ( #132 ) ) GLOBAL_UNIT_ASSIGNED_CONTEXT ( ( #188, #59, #404 ) ) REPRESENTATION_CONTEXT ( 'NONE', 'WORKASPACE' ) );
#286 = AXIS2_PLACEMENT_3D ( 'NONE', #327, #141, #264 ) ;
#287 = CALENDAR_DATE ( 2024, 20, 3 ) ;
#288 = ADVANCED_FACE ( 'NONE', ( #48 ), #358, .F. ) ;
#289 = CARTESIAN_POINT ( 'NONE',  ( -208.0000000000000000, 3.999999999999988000, 2.547265342226494600E-014 ) ) ;
#290 = AXIS2_PLACEMENT_3D ( 'NONE', #61, #189, #374 ) ;
#291 = CYLINDRICAL_SURFACE ( 'NONE', #286, 204.0000000000000000 ) ;
#292 = DIRECTION ( 'NONE',  ( 8.056886836495747500E-017, -1.000000000000000000, 0.0000000000000000000 ) ) ;
#293 = CARTESIAN_POINT ( 'NONE',  ( -3.851859888774471700E-031, 6.938893903907228400E-015, 0.0000000000000000000 ) ) ;
#294 = EDGE_LOOP ( 'NONE', ( #180, #308, #171, #82 ) ) ;
#295 = EDGE_CURVE ( 'NONE', #325, #314, #258, .T. ) ;
#296 = PERSON_AND_ORGANIZATION ( #168, #131 ) ;
#297 = MANIFOLD_SOLID_BREP ( 'Cosmetic_Fillet', #143 ) ;
#298 = TOROIDAL_SURFACE ( 'NONE', #20, 236.0000000000000000, 4.000000000000000000 ) ;
#299 = ORIENTED_EDGE ( 'NONE', *, *, #42, .T. ) ;
#300 = DIRECTION ( 'NONE',  ( 0.0000000000000000000, 0.0000000000000000000, -1.000000000000000000 ) ) ;
#301 = AXIS2_PLACEMENT_3D ( 'NONE', #388, #78, #312 ) ;
#302 = ORIENTED_EDGE ( 'NONE', *, *, #134, .F. ) ;
#303 = CARTESIAN_POINT ( 'NONE',  ( -3.222754734598302500E-016, 4.000000000000006200, 0.0000000000000000000 ) ) ;
#304 = DIRECTION ( 'NONE',  ( 8.056886836495747500E-017, -1.000000000000000000, 0.0000000000000000000 ) ) ;
#305 = DIRECTION ( 'NONE',  ( 8.056886836495747500E-017, -1.000000000000000000, 0.0000000000000000000 ) ) ;
#306 = EDGE_LOOP ( 'NONE', ( #50, #152, #84, #261 ) ) ;
#307 = CIRCLE ( 'NONE', #369, 200.0000000000000600 ) ;
#308 = ORIENTED_EDGE ( 'NONE', *, *, #114, .F. ) ;
#309 = PERSON_AND_ORGANIZATION ( #168, #131 ) ;
#310 = CARTESIAN_POINT ( 'NONE',  ( -8.474091755303837800E-030, 1.110223024625156500E-013, 0.0000000000000000000 ) ) ;
#311 = AXIS2_PLACEMENT_3D ( 'NONE', #154, #338, #96 ) ;
#312 = DIRECTION ( 'NONE',  ( -1.000000000000000000, -6.938893903907225900E-017, 0.0000000000000000000 ) ) ;
#313 = ORIENTED_EDGE ( 'NONE', *, *, #336, .F. ) ;
#314 = VERTEX_POINT ( 'NONE', #368 ) ;
#315 = EDGE_LOOP ( 'NONE', ( #172, #254 ) ) ;
#316 = DATE_AND_TIME ( #205, #212 ) ;
#317 = ORIENTED_EDGE ( 'NONE', *, *, #295, .F. ) ;
#318 = VECTOR ( 'NONE', #227, 1000.000000000000000 ) ;
#319 = FACE_OUTER_BOUND ( 'NONE', #294, .T. ) ;
#320 = DATE_AND_TIME ( #244, #88 ) ;
#321 = CARTESIAN_POINT ( 'NONE',  ( -199.9999999999999700, 33.99999999999995000, 2.449293598294706100E-014 ) ) ;
#322 = CARTESIAN_POINT ( 'NONE',  ( -3.222754734598301000E-016, 4.000000000000006200, 0.0000000000000000000 ) ) ;
#323 = ADVANCED_FACE ( 'NONE', ( #91 ), #199, .F. ) ;
#324 = ORIENTED_EDGE ( 'NONE', *, *, #166, .F. ) ;
#325 = VERTEX_POINT ( 'NONE', #367 ) ;
#326 = EDGE_CURVE ( 'NONE', #314, #325, #185, .T. ) ;
#327 = CARTESIAN_POINT ( 'NONE',  ( -3.061616997868380700E-015, 37.99999999999996400, 0.0000000000000000000 ) ) ;
#328 = CC_DESIGN_APPROVAL ( #378, ( #106 ) ) ;
#329 = FACE_OUTER_BOUND ( 'NONE', #203, .T. ) ;
#330 = ORIENTED_EDGE ( 'NONE', *, *, #260, .F. ) ;
#331 = LINE ( 'NONE', #279, #80 ) ;
#332 = COORDINATED_UNIVERSAL_TIME_OFFSET ( 1, 0, .AHEAD. ) ;
#333 = PERSON_AND_ORGANIZATION_ROLE ( 'creator' ) ;
#334 = ORIENTED_EDGE ( 'NONE', *, *, #118, .F. ) ;
#335 = CIRCLE ( 'NONE', #247, 4.000000000000003600 ) ;
#336 = EDGE_CURVE ( 'NONE', #271, #181, #111, .T. ) ;
#337 = APPROVAL_ROLE ( '' ) ;
#338 = DIRECTION ( 'NONE',  ( 8.056886836495747500E-017, -1.000000000000000000, 0.0000000000000000000 ) ) ;
#339 = DIRECTION ( 'NONE',  ( -1.000000000000000000, 0.0000000000000000000, 0.0000000000000000000 ) ) ;
#340 = CARTESIAN_POINT ( 'NONE',  ( 236.0000000000000000, 4.000000000000024900, 0.0000000000000000000 ) ) ;
#341 = CARTESIAN_POINT ( 'NONE',  ( -9.629649721936179300E-030, 1.249000902703301100E-013, 0.0000000000000000000 ) ) ;
#342 = ORIENTED_EDGE ( 'NONE', *, *, #383, .T. ) ;
#343 = EDGE_CURVE ( 'NONE', #164, #11, #266, .T. ) ;
#344 = EDGE_LOOP ( 'NONE', ( #231, #330, #342, #324 ) ) ;
#345 = PERSON_AND_ORGANIZATION ( #168, #131 ) ;
#346 = CARTESIAN_POINT ( 'NONE',  ( -3.061616997868379100E-015, 37.99999999999994300, 0.0000000000000000000 ) ) ;
#347 = APPROVAL ( #126, 'UNSPECIFIED' ) ;
#348 = DIRECTION ( 'NONE',  ( 1.000000000000000000, 8.056886836495747500E-017, 0.0000000000000000000 ) ) ;
#349 = PRODUCT ( '6015283_OSTP', '6015283_OSTP', '', ( #121 ) ) ;
#350 = ORIENTED_EDGE ( 'NONE', *, *, #343, .T. ) ;
#351 = AXIS2_PLACEMENT_3D ( 'NONE', #346, #371, #193 ) ;
#352 = CC_DESIGN_PERSON_AND_ORGANIZATION_ASSIGNMENT ( #108, #366, ( #191 ) ) ;
#353 = ORIENTED_EDGE ( 'NONE', *, *, #72, .F. ) ;
#354 = APPROVAL_DATE_TIME ( #320, #347 ) ;
#355 = APPROVAL_DATE_TIME ( #316, #6 ) ;
#356 = CARTESIAN_POINT ( 'NONE',  ( -3.061616997868380700E-015, 37.99999999999996400, 0.0000000000000000000 ) ) ;
#357 = DIRECTION ( 'NONE',  ( 1.224646799147353200E-016, 9.866840675406961300E-033, 1.000000000000000000 ) ) ;
#358 = TOROIDAL_SURFACE ( 'NONE', #197, 208.0000000000000000, 4.000000000000000000 ) ;
#359 = AXIS2_PLACEMENT_3D ( 'NONE', #135, #14, #232 ) ;
#360 = DIRECTION ( 'NONE',  ( -8.056886836495747500E-017, 1.000000000000000000, -0.0000000000000000000 ) ) ;
#361 = AXIS2_PLACEMENT_3D ( 'NONE', #270, #360, #112 ) ;
#362 = AXIS2_PLACEMENT_3D ( 'NONE', #32, #153, #339 ) ;
#363 = CARTESIAN_POINT ( 'NONE',  ( -204.0000000000000000, 33.99999999999995000, 0.0000000000000000000 ) ) ;
#364 = DIRECTION ( 'NONE',  ( -1.000000000000000000, 0.0000000000000000000, 0.0000000000000000000 ) ) ;
#365 = FACE_OUTER_BOUND ( 'NONE', #70, .T. ) ;
#366 = PERSON_AND_ORGANIZATION_ROLE ( 'classification_officer' ) ;
#367 = CARTESIAN_POINT ( 'NONE',  ( 240.0000000000000000, 1.442366186779199100E-013, 0.0000000000000000000 ) ) ;
#368 = CARTESIAN_POINT ( 'NONE',  ( -240.0000000000000000, 1.055635618627403200E-013, 2.939152317953647300E-014 ) ) ;
#369 = AXIS2_PLACEMENT_3D ( 'NONE', #226, #224, #161 ) ;
#370 = DIRECTION ( 'NONE',  ( 1.000000000000000000, 0.0000000000000000000, 0.0000000000000000000 ) ) ;
#371 = DIRECTION ( 'NONE',  ( -8.056886836495747500E-017, 1.000000000000000000, -0.0000000000000000000 ) ) ;
#372 = DIRECTION ( 'NONE',  ( -1.000000000000000000, -8.056886836495746300E-017, 0.0000000000000000000 ) ) ;
#373 = CC_DESIGN_SECURITY_CLASSIFICATION ( #191, ( #106 ) ) ;
#374 = DIRECTION ( 'NONE',  ( 1.000000000000000000, 8.056886836495747500E-017, 0.0000000000000000000 ) ) ;
#375 = DIRECTION ( 'NONE',  ( -1.000000000000000000, 0.0000000000000000000, 0.0000000000000000000 ) ) ;
#376 = LOCAL_TIME ( 9, 46, 9.000000000000000000, #103 ) ;
#377 = CARTESIAN_POINT ( 'NONE',  ( -200.0000000000000600, 37.99999999999992900, 0.0000000000000000000 ) ) ;
#378 = APPROVAL ( #214, 'UNSPECIFIED' ) ;
#379 = CIRCLE ( 'NONE', #127, 236.0000000000000000 ) ;
#380 = AXIS2_PLACEMENT_3D ( 'NONE', #321, #105, #259 ) ;
#381 = CARTESIAN_POINT ( 'NONE',  ( 240.0000000000000000, 1.361357841846869200E-013, 0.0000000000000000000 ) ) ;
#382 = ORIENTED_EDGE ( 'NONE', *, *, #281, .T. ) ;
#383 = EDGE_CURVE ( 'NONE', #58, #158, #9, .T. ) ;
#384 = CYLINDRICAL_SURFACE ( 'NONE', #179, 204.0000000000000000 ) ;
#385 = CC_DESIGN_PERSON_AND_ORGANIZATION_ASSIGNMENT ( #51, #26, ( #106 ) ) ;
#386 = DIRECTION ( 'NONE',  ( -8.056886836495747500E-017, 1.000000000000000000, -0.0000000000000000000 ) ) ;
#387 = DATE_AND_TIME ( #65, #262 ) ;
#388 = CARTESIAN_POINT ( 'NONE',  ( -3.061616997868380700E-015, 37.99999999999996400, 0.0000000000000000000 ) ) ;
#389 = CYLINDRICAL_SURFACE ( 'NONE', #301, 200.0000000000000600 ) ;
#390 = EDGE_LOOP ( 'NONE', ( #299, #63 ) ) ;
#391 = DIRECTION ( 'NONE',  ( -8.056886836495747500E-017, 1.000000000000000000, -0.0000000000000000000 ) ) ;
#392 = ORIENTED_EDGE ( 'NONE', *, *, #134, .T. ) ;
#393 = EDGE_CURVE ( 'NONE', #181, #164, #335, .T. ) ;
#394 = CC_DESIGN_APPROVAL ( #6, ( #191 ) ) ;
#395 = TOROIDAL_SURFACE ( 'NONE', #200, 236.0000000000000000, 4.000000000000000000 ) ;
#396 = ORIENTED_EDGE ( 'NONE', *, *, #295, .T. ) ;
#397 = DATE_AND_TIME ( #76, #5 ) ;
#398 = AXIS2_PLACEMENT_3D ( 'NONE', #263, #77, #174 ) ;
#399 = ORIENTED_EDGE ( 'NONE', *, *, #34, .F. ) ;
#400 = VERTEX_POINT ( 'NONE', #93 ) ;
#401 = CARTESIAN_POINT ( 'NONE',  ( -200.0000000000000600, 9.490852878952415100E-014, 0.0000000000000000000 ) ) ;
#402 = DATE_TIME_ROLE ( 'classification_date' ) ;
#403 = ORIENTED_EDGE ( 'NONE', *, *, #49, .T. ) ;
#404 =( NAMED_UNIT ( * ) SI_UNIT ( $, .STERADIAN. ) SOLID_ANGLE_UNIT ( ) );
#405 = DIRECTION ( 'NONE',  ( 8.056886836495747500E-017, -1.000000000000000000, 0.0000000000000000000 ) ) ;
ENDSEC;
END-ISO-10303-21;
