ISO-10303-21;
HEADER;
FILE_DESCRIPTION (( 'STEP AP203' ),
    '1' );
FILE_NAME ('3D_R1650_60.3x2.6_17351310.STEP',
    '2024-08-03T08:58:05',
    ( '' ),
    ( '' ),
    'SwSTEP 2.0',
    'SolidWorks 2024',
    '' );
FILE_SCHEMA (( 'CONFIG_CONTROL_DESIGN' ));
ENDSEC;

DATA;
#1 = CC_DESIGN_PERSON_AND_ORGANIZATION_ASSIGNMENT ( #130, #124, ( #62 ) ) ;
#2 = PLANE ( 'NONE',  #185 ) ;
#3 = DIRECTION ( 'NONE',  ( -0.7071067811865444641, 0.000000000000000000, 0.7071067811865506814 ) ) ;
#4 = CARTESIAN_POINT ( 'NONE',  ( -106.1499999999999631, 0.000000000000000000, -2.367550600013146322E-14 ) ) ;
#5 = AXIS2_PLACEMENT_3D ( 'NONE', #135, #115, #235 ) ;
#6 = APPROVAL_ROLE ( '' ) ;
#7 =( NAMED_UNIT ( * ) PLANE_ANGLE_UNIT ( ) SI_UNIT ( $, .RADIAN. ) );
#8 = PERSON_AND_ORGANIZATION ( #216, #200 ) ;
#9 = EDGE_CURVE ( 'NONE', #94, #234, #64, .T. ) ;
#10 = TOROIDAL_SURFACE ( 'NONE', #245, 75.99999999999997158, 30.14999999999999858 ) ;
#11 = DATE_AND_TIME ( #147, #31 ) ;
#12 = AXIS2_PLACEMENT_3D ( 'NONE', #20, #131, #220 ) ;
#13 = EDGE_LOOP ( 'NONE', ( #165, #152 ) ) ;
#14 = ORIENTED_EDGE ( 'NONE', *, *, #229, .T. ) ;
#15 = EDGE_CURVE ( 'NONE', #211, #234, #24, .T. ) ;
#16 = DIRECTION ( 'NONE',  ( 0.000000000000000000, 1.000000000000000000, 0.000000000000000000 ) ) ;
#17 = SECURITY_CLASSIFICATION_LEVEL ( 'unclassified' ) ;
#18 = DIRECTION ( 'NONE',  ( -5.551115123125782702E-16, 0.000000000000000000, 1.000000000000000000 ) ) ;
#19 = PERSON_AND_ORGANIZATION_ROLE ( 'creator' ) ;
#20 = CARTESIAN_POINT ( 'NONE',  ( -75.99999999999997158, 0.000000000000000000, -6.938893903907228378E-15 ) ) ;
#21 = VERTEX_POINT ( 'NONE', #154 ) ;
#22 = VERTEX_POINT ( 'NONE', #112 ) ;
#23 = CIRCLE ( 'NONE', #213, 48.44999999999997442 ) ;
#24 = CIRCLE ( 'NONE', #12, 30.14999999999999503 ) ;
#25 = CARTESIAN_POINT ( 'NONE',  ( -45.84999999999997300, 0.000000000000000000, 9.797718192317006469E-15 ) ) ;
#26 = EDGE_CURVE ( 'NONE', #21, #94, #166, .T. ) ;
#27 = DATE_TIME_ROLE ( 'creation_date' ) ;
#28 = CALENDAR_DATE ( 2024, 3, 8 ) ;
#29 = EDGE_LOOP ( 'NONE', ( #69, #206 ) ) ;
#30 = APPROVAL_STATUS ( 'not_yet_approved' ) ;
#31 = LOCAL_TIME ( 10, 58, 5.000000000000000000, #247 ) ;
#32 = LOCAL_TIME ( 10, 58, 5.000000000000000000, #122 ) ;
#33 = ORIENTED_EDGE ( 'NONE', *, *, #197, .T. ) ;
#34 = EDGE_CURVE ( 'NONE', #21, #211, #186, .T. ) ;
#35 = CARTESIAN_POINT ( 'NONE',  ( 0.000000000000000000, 0.000000000000000000, 0.000000000000000000 ) ) ;
#36 = AXIS2_PLACEMENT_3D ( 'NONE', #78, #217, #37 ) ;
#37 = DIRECTION ( 'NONE',  ( 0.7071067811865506814, 0.000000000000000000, 0.7071067811865443531 ) ) ;
#38 = CC_DESIGN_PERSON_AND_ORGANIZATION_ASSIGNMENT ( #244, #65, ( #85 ) ) ;
#39 = CARTESIAN_POINT ( 'NONE',  ( -75.99999999999997158, 0.000000000000000000, -6.938893903907228378E-15 ) ) ;
#40 = CARTESIAN_POINT ( 'NONE',  ( 0.000000000000000000, 0.000000000000000000, 0.000000000000000000 ) ) ;
#41 = CARTESIAN_POINT ( 'NONE',  ( 0.000000000000000000, 0.000000000000000000, 0.000000000000000000 ) ) ;
#42 = TOROIDAL_SURFACE ( 'NONE', #176, 75.99999999999997158, 27.54999999999999716 ) ;
#43 = CARTESIAN_POINT ( 'NONE',  ( 0.000000000000000000, 0.000000000000000000, 0.000000000000000000 ) ) ;
#44 = DIRECTION ( 'NONE',  ( 0.000000000000000000, 0.000000000000000000, 1.000000000000000000 ) ) ;
#45 = PRODUCT_DEFINITION_FORMATION_WITH_SPECIFIED_SOURCE ( 'ANY', '', #96, .NOT_KNOWN. ) ;
#46 = CC_DESIGN_DATE_AND_TIME_ASSIGNMENT ( #47, #27, ( #85 ) ) ;
#47 = DATE_AND_TIME ( #228, #119 ) ;
#48 = APPROVAL_ROLE ( '' ) ;
#49 = APPROVAL_PERSON_ORGANIZATION ( #110, #171, #54 ) ;
#50 = ORIENTED_EDGE ( 'NONE', *, *, #197, .F. ) ;
#51 = EDGE_CURVE ( 'NONE', #125, #22, #191, .T. ) ;
#52 = CIRCLE ( 'NONE', #116, 103.5499999999999687 ) ;
#53 = EDGE_LOOP ( 'NONE', ( #88, #189, #233, #103 ) ) ;
#54 = APPROVAL_ROLE ( '' ) ;
#55 = AXIS2_PLACEMENT_3D ( 'NONE', #35, #108, #91 ) ;
#56 = DIRECTION ( 'NONE',  ( 0.000000000000000000, 0.000000000000000000, 1.000000000000000000 ) ) ;
#57 = DIRECTION ( 'NONE',  ( 0.7071067811865506814, 0.000000000000000000, 0.7071067811865443531 ) ) ;
#58 = DIRECTION ( 'NONE',  ( 0.000000000000000000, 0.000000000000000000, 1.000000000000000000 ) ) ;
#59 = EDGE_CURVE ( 'NONE', #184, #173, #117, .T. ) ;
#60 = PRODUCT_DEFINITION_SHAPE ( 'NONE', 'NONE',  #85 ) ;
#61 = DIRECTION ( 'NONE',  ( 0.000000000000000000, 0.000000000000000000, 1.000000000000000000 ) ) ;
#62 = SECURITY_CLASSIFICATION ( '', '', #17 ) ;
#63 = APPLICATION_PROTOCOL_DEFINITION ( 'international standard', 'config_control_design', 1994, #134 ) ;
#64 = CIRCLE ( 'NONE', #212, 45.84999999999997300 ) ;
#65 = PERSON_AND_ORGANIZATION_ROLE ( 'creator' ) ;
#66 = AXIS2_PLACEMENT_3D ( 'NONE', #98, #118, #180 ) ;
#67 = AXIS2_PLACEMENT_3D ( 'NONE', #221, #92, #237 ) ;
#68 = CALENDAR_DATE ( 2024, 3, 8 ) ;
#69 = ORIENTED_EDGE ( 'NONE', *, *, #113, .T. ) ;
#70 = PERSON_AND_ORGANIZATION ( #216, #200 ) ;
#71 = APPROVAL ( #121, 'UNSPECIFIED' ) ;
#72 = ADVANCED_FACE ( 'NONE', ( #195, #175 ), #2, .T. ) ;
#73 = ORIENTED_EDGE ( 'NONE', *, *, #59, .F. ) ;
#74 = DIRECTION ( 'NONE',  ( 0.7071067811865506814, 0.000000000000000000, 0.7071067811865443531 ) ) ;
#75 = MANIFOLD_SOLID_BREP ( 'Wandung1', #174 ) ;
#76 = CARTESIAN_POINT ( 'NONE',  ( -32.42084591740335497, -3.692310099429270397E-15, -32.42084591740302102 ) ) ;
#77 = CIRCLE ( 'NONE', #82, 30.14999999999999503 ) ;
#78 = CARTESIAN_POINT ( 'NONE',  ( -53.74011537017786111, 0.000000000000000000, -53.74011537017732820 ) ) ;
#79 = AXIS2_PLACEMENT_3D ( 'NONE', #40, #111, #58 ) ;
#80 = FACE_OUTER_BOUND ( 'NONE', #53, .T. ) ;
#81 = CARTESIAN_POINT ( 'NONE',  ( -75.99999999999997158, 0.000000000000000000, -6.938893903907228378E-15 ) ) ;
#82 = AXIS2_PLACEMENT_3D ( 'NONE', #39, #240, #253 ) ;
#83 = DIRECTION ( 'NONE',  ( 0.000000000000000000, 0.000000000000000000, 1.000000000000000000 ) ) ;
#84 = DIRECTION ( 'NONE',  ( 0.000000000000000000, 1.000000000000000000, 0.000000000000000000 ) ) ;
#85 = PRODUCT_DEFINITION ( 'UNKNOWN', '', #45, #153 ) ;
#86 = DATE_AND_TIME ( #157, #89 ) ;
#87 = DIRECTION ( 'NONE',  ( 1.000000000000000000, 0.000000000000000000, 0.000000000000000000 ) ) ;
#88 = ORIENTED_EDGE ( 'NONE', *, *, #161, .T. ) ;
#89 = LOCAL_TIME ( 10, 58, 5.000000000000000000, #136 ) ;
#90 = CC_DESIGN_PERSON_AND_ORGANIZATION_ASSIGNMENT ( #70, #104, ( #45 ) ) ;
#91 = DIRECTION ( 'NONE',  ( 0.000000000000000000, 0.000000000000000000, 1.000000000000000000 ) ) ;
#92 = DIRECTION ( 'NONE',  ( 0.000000000000000000, 1.000000000000000000, 0.000000000000000000 ) ) ;
#93 = DIRECTION ( 'NONE',  ( 1.000000000000000000, 0.000000000000000000, 5.551115123125781716E-16 ) ) ;
#94 = VERTEX_POINT ( 'NONE', #76 ) ;
#95 = ORIENTED_EDGE ( 'NONE', *, *, #114, .T. ) ;
#96 = PRODUCT ( '3D_R1650_60.3x2.6_17351310', '3D_R1650_60.3x2.6_17351310', '', ( #223 ) ) ;
#97 = FACE_OUTER_BOUND ( 'NONE', #13, .T. ) ;
#98 = CARTESIAN_POINT ( 'NONE',  ( -53.74011537017786111, 0.000000000000000000, -53.74011537017732820 ) ) ;
#99 = PERSON_AND_ORGANIZATION ( #216, #200 ) ;
#100 = ADVANCED_FACE ( 'NONE', ( #80 ), #164, .T. ) ;
#101 = DATE_AND_TIME ( #28, #32 ) ;
#102 = ORIENTED_EDGE ( 'NONE', *, *, #15, .T. ) ;
#103 = ORIENTED_EDGE ( 'NONE', *, *, #9, .F. ) ;
#104 = PERSON_AND_ORGANIZATION_ROLE ( 'design_supplier' ) ;
#105 = AXIS2_PLACEMENT_3D ( 'NONE', #43, #120, #87 ) ;
#106 = ORIENTED_EDGE ( 'NONE', *, *, #9, .T. ) ;
#107 = ORIENTED_EDGE ( 'NONE', *, *, #113, .F. ) ;
#108 = DIRECTION ( 'NONE',  ( 0.000000000000000000, 1.000000000000000000, 0.000000000000000000 ) ) ;
#109 = CIRCLE ( 'NONE', #5, 27.54999999999999716 ) ;
#110 = PERSON_AND_ORGANIZATION ( #216, #200 ) ;
#111 = DIRECTION ( 'NONE',  ( 0.000000000000000000, 1.000000000000000000, 0.000000000000000000 ) ) ;
#112 = CARTESIAN_POINT ( 'NONE',  ( -48.44999999999997442, 0.000000000000000000, -2.689515277154440141E-14 ) ) ;
#113 = EDGE_CURVE ( 'NONE', #173, #184, #199, .T. ) ;
#114 = EDGE_CURVE ( 'NONE', #234, #211, #77, .T. ) ;
#115 = DIRECTION ( 'NONE',  ( -5.551115123125782702E-16, 0.000000000000000000, 1.000000000000000000 ) ) ;
#116 = AXIS2_PLACEMENT_3D ( 'NONE', #41, #181, #83 ) ;
#117 = CIRCLE ( 'NONE', #129, 27.55000000000000071 ) ;
#118 = DIRECTION ( 'NONE',  ( -0.7071067811865443531, 0.000000000000000000, 0.7071067811865506814 ) ) ;
#119 = LOCAL_TIME ( 10, 58, 5.000000000000000000, #141 ) ;
#120 = DIRECTION ( 'NONE',  ( 0.000000000000000000, 0.000000000000000000, 1.000000000000000000 ) ) ;
#121 = APPROVAL_STATUS ( 'not_yet_approved' ) ;
#122 = COORDINATED_UNIVERSAL_TIME_OFFSET ( 1, 0, .AHEAD. ) ;
#123 = EDGE_LOOP ( 'NONE', ( #196, #187, #106, #248 ) ) ;
#124 = PERSON_AND_ORGANIZATION_ROLE ( 'classification_officer' ) ;
#125 = VERTEX_POINT ( 'NONE', #219 ) ;
#126 = EDGE_LOOP ( 'NONE', ( #73, #14, #144, #50 ) ) ;
#127 = EDGE_LOOP ( 'NONE', ( #169, #249 ) ) ;
#128 = DIRECTION ( 'NONE',  ( -0.7071067811865444641, 0.000000000000000000, 0.7071067811865506814 ) ) ;
#129 = AXIS2_PLACEMENT_3D ( 'NONE', #215, #3, #74 ) ;
#130 = PERSON_AND_ORGANIZATION ( #216, #200 ) ;
#131 = DIRECTION ( 'NONE',  ( -5.551115123125782702E-16, 0.000000000000000000, 1.000000000000000000 ) ) ;
#132 = APPROVAL ( #30, 'UNSPECIFIED' ) ;
#133 = CARTESIAN_POINT ( 'NONE',  ( -53.74011537017786111, 0.000000000000000000, -53.74011537017732820 ) ) ;
#134 = APPLICATION_CONTEXT ( 'configuration controlled 3d designs of mechanical parts and assemblies' ) ;
#135 = CARTESIAN_POINT ( 'NONE',  ( -75.99999999999997158, 0.000000000000000000, -4.218847493575592960E-14 ) ) ;
#136 = COORDINATED_UNIVERSAL_TIME_OFFSET ( 1, 0, .AHEAD. ) ;
#137 =( NAMED_UNIT ( * ) SI_UNIT ( $, .STERADIAN. ) SOLID_ANGLE_UNIT ( ) );
#138 = CC_DESIGN_APPROVAL ( #132, ( #45 ) ) ;
#139 = FACE_BOUND ( 'NONE', #29, .T. ) ;
#140 = APPROVAL_PERSON_ORGANIZATION ( #99, #132, #48 ) ;
#141 = COORDINATED_UNIVERSAL_TIME_OFFSET ( 1, 0, .AHEAD. ) ;
#142 = DATE_TIME_ROLE ( 'classification_date' ) ;
#143 = CIRCLE ( 'NONE', #36, 30.15000000000000213 ) ;
#144 = ORIENTED_EDGE ( 'NONE', *, *, #51, .T. ) ;
#145 = APPROVAL_STATUS ( 'not_yet_approved' ) ;
#146 = DIRECTION ( 'NONE',  ( 0.7071067811865506814, 0.000000000000000000, 0.7071067811865443531 ) ) ;
#147 = CALENDAR_DATE ( 2024, 3, 8 ) ;
#148 = ORIENTED_EDGE ( 'NONE', *, *, #160, .T. ) ;
#149 = AXIS2_PLACEMENT_3D ( 'NONE', #250, #128, #146 ) ;
#150 = CC_DESIGN_PERSON_AND_ORGANIZATION_ASSIGNMENT ( #167, #19, ( #45 ) ) ;
#151 = AXIS2_PLACEMENT_3D ( 'NONE', #133, #251, #57 ) ;
#152 = ORIENTED_EDGE ( 'NONE', *, *, #26, .F. ) ;
#153 = DESIGN_CONTEXT ( 'detailed design', #134, 'design' ) ;
#154 = CARTESIAN_POINT ( 'NONE',  ( -75.05938482295236724, 0.000000000000000000, -75.05938482295162828 ) ) ;
#155 = DIRECTION ( 'NONE',  ( -5.551115123125782702E-16, 0.000000000000000000, 1.000000000000000000 ) ) ;
#156 =( LENGTH_UNIT ( ) NAMED_UNIT ( * ) SI_UNIT ( .MILLI., .METRE. ) );
#157 = CALENDAR_DATE ( 2024, 3, 8 ) ;
#158 = PLANE ( 'NONE',  #66 ) ;
#159 = LOCAL_TIME ( 10, 58, 5.000000000000000000, #208 ) ;
#160 = EDGE_CURVE ( 'NONE', #22, #125, #109, .T. ) ;
#161 = EDGE_CURVE ( 'NONE', #94, #21, #143, .T. ) ;
#162 = APPROVAL_DATE_TIME ( #86, #71 ) ;
#163 = DATE_AND_TIME ( #68, #159 ) ;
#164 = TOROIDAL_SURFACE ( 'NONE', #55, 75.99999999999997158, 30.14999999999999858 ) ;
#165 = ORIENTED_EDGE ( 'NONE', *, *, #161, .F. ) ;
#166 = CIRCLE ( 'NONE', #151, 30.15000000000000213 ) ;
#167 = PERSON_AND_ORGANIZATION ( #216, #200 ) ;
#168 = ADVANCED_FACE ( 'NONE', ( #170 ), #179, .F. ) ;
#169 = ORIENTED_EDGE ( 'NONE', *, *, #160, .F. ) ;
#170 = FACE_OUTER_BOUND ( 'NONE', #207, .T. ) ;
#171 = APPROVAL ( #145, 'UNSPECIFIED' ) ;
#172 = ADVANCED_BREP_SHAPE_REPRESENTATION ( '3D_R1650_60.3x2.6_17351310', ( #75, #105 ), #227 ) ;
#173 = VERTEX_POINT ( 'NONE', #192 ) ;
#174 = CLOSED_SHELL ( 'NONE', ( #188, #100, #231, #72, #222, #168 ) ) ;
#175 = FACE_OUTER_BOUND ( 'NONE', #214, .T. ) ;
#176 = AXIS2_PLACEMENT_3D ( 'NONE', #243, #242, #61 ) ;
#177 = CARTESIAN_POINT ( 'NONE',  ( -75.99999999999997158, 0.000000000000000000, -4.218847493575592960E-14 ) ) ;
#178 = CARTESIAN_POINT ( 'NONE',  ( 0.000000000000000000, 0.000000000000000000, 0.000000000000000000 ) ) ;
#179 = TOROIDAL_SURFACE ( 'NONE', #67, 75.99999999999997158, 27.54999999999999716 ) ;
#180 = DIRECTION ( 'NONE',  ( 0.7071067811865506814, 0.000000000000000000, 0.7071067811865443531 ) ) ;
#181 = DIRECTION ( 'NONE',  ( 0.000000000000000000, 1.000000000000000000, 0.000000000000000000 ) ) ;
#182 = PERSON_AND_ORGANIZATION ( #216, #200 ) ;
#183 = DIRECTION ( 'NONE',  ( 0.000000000000000000, 0.000000000000000000, 1.000000000000000000 ) ) ;
#184 = VERTEX_POINT ( 'NONE', #193 ) ;
#185 = AXIS2_PLACEMENT_3D ( 'NONE', #81, #155, #241 ) ;
#186 = CIRCLE ( 'NONE', #79, 106.1499999999999631 ) ;
#187 = ORIENTED_EDGE ( 'NONE', *, *, #26, .T. ) ;
#188 = ADVANCED_FACE ( 'NONE', ( #198 ), #42, .F. ) ;
#189 = ORIENTED_EDGE ( 'NONE', *, *, #34, .T. ) ;
#190 = CARTESIAN_POINT ( 'NONE',  ( 0.000000000000000000, -3.692310099429270397E-15, 0.000000000000000000 ) ) ;
#191 = CIRCLE ( 'NONE', #246, 27.54999999999999716 ) ;
#192 = CARTESIAN_POINT ( 'NONE',  ( -34.25932354848836070, -3.373901931650957986E-15, -34.25932354848806227 ) ) ;
#193 = CARTESIAN_POINT ( 'NONE',  ( -73.22090719186729757, 0.000000000000000000, -73.22090719186665808 ) ) ;
#194 = UNCERTAINTY_MEASURE_WITH_UNIT (LENGTH_MEASURE( 1.000000000000000082E-05 ), #156, 'distance_accuracy_value', 'NONE');
#195 = FACE_BOUND ( 'NONE', #127, .T. ) ;
#196 = ORIENTED_EDGE ( 'NONE', *, *, #34, .F. ) ;
#197 = EDGE_CURVE ( 'NONE', #173, #22, #23, .T. ) ;
#198 = FACE_OUTER_BOUND ( 'NONE', #126, .T. ) ;
#199 = CIRCLE ( 'NONE', #149, 27.55000000000000071 ) ;
#200 = ORGANIZATION ( 'UNSPECIFIED', 'UNSPECIFIED', '' ) ;
#201 = CC_DESIGN_PERSON_AND_ORGANIZATION_ASSIGNMENT ( #182, #204, ( #96 ) ) ;
#202 = DIRECTION ( 'NONE',  ( 0.000000000000000000, 1.000000000000000000, 0.000000000000000000 ) ) ;
#203 = CARTESIAN_POINT ( 'NONE',  ( 0.000000000000000000, -3.373901931650957986E-15, 0.000000000000000000 ) ) ;
#204 = PERSON_AND_ORGANIZATION_ROLE ( 'design_owner' ) ;
#205 = APPROVAL_DATE_TIME ( #101, #132 ) ;
#206 = ORIENTED_EDGE ( 'NONE', *, *, #59, .T. ) ;
#207 = EDGE_LOOP ( 'NONE', ( #239, #107, #33, #148 ) ) ;
#208 = COORDINATED_UNIVERSAL_TIME_OFFSET ( 1, 0, .AHEAD. ) ;
#209 = CC_DESIGN_SECURITY_CLASSIFICATION ( #62, ( #45 ) ) ;
#210 = PRODUCT_RELATED_PRODUCT_CATEGORY ( 'detail', '', ( #96 ) ) ;
#211 = VERTEX_POINT ( 'NONE', #4 ) ;
#212 = AXIS2_PLACEMENT_3D ( 'NONE', #190, #16, #56 ) ;
#213 = AXIS2_PLACEMENT_3D ( 'NONE', #203, #202, #44 ) ;
#214 = EDGE_LOOP ( 'NONE', ( #95, #102 ) ) ;
#215 = CARTESIAN_POINT ( 'NONE',  ( -53.74011537017783269, 0.000000000000000000, -53.74011537017735662 ) ) ;
#216 = PERSON ( 'UNSPECIFIED', 'UNSPECIFIED', 'UNSPECIFIED', ('UNSPECIFIED'), ('UNSPECIFIED'), ('UNSPECIFIED') ) ;
#217 = DIRECTION ( 'NONE',  ( -0.7071067811865444641, 0.000000000000000000, 0.7071067811865506814 ) ) ;
#218 = APPROVAL_PERSON_ORGANIZATION ( #8, #71, #6 ) ;
#219 = CARTESIAN_POINT ( 'NONE',  ( -103.5499999999999687, 0.000000000000000000, -5.748179709996746726E-14 ) ) ;
#220 = DIRECTION ( 'NONE',  ( 1.000000000000000000, 0.000000000000000000, 5.551115123125783688E-16 ) ) ;
#221 = CARTESIAN_POINT ( 'NONE',  ( 0.000000000000000000, 0.000000000000000000, 0.000000000000000000 ) ) ;
#222 = ADVANCED_FACE ( 'NONE', ( #139, #97 ), #158, .F. ) ;
#223 = MECHANICAL_CONTEXT ( 'NONE', #230, 'mechanical' ) ;
#224 = APPLICATION_PROTOCOL_DEFINITION ( 'international standard', 'config_control_design', 1994, #230 ) ;
#225 = CC_DESIGN_DATE_AND_TIME_ASSIGNMENT ( #163, #142, ( #62 ) ) ;
#226 = FACE_OUTER_BOUND ( 'NONE', #123, .T. ) ;
#227 =( GEOMETRIC_REPRESENTATION_CONTEXT ( 3 ) GLOBAL_UNCERTAINTY_ASSIGNED_CONTEXT ( ( #194 ) ) GLOBAL_UNIT_ASSIGNED_CONTEXT ( ( #156, #7, #137 ) ) REPRESENTATION_CONTEXT ( 'NONE', 'WORKASPACE' ) );
#228 = CALENDAR_DATE ( 2024, 3, 8 ) ;
#229 = EDGE_CURVE ( 'NONE', #184, #125, #52, .T. ) ;
#230 = APPLICATION_CONTEXT ( 'configuration controlled 3d designs of mechanical parts and assemblies' ) ;
#231 = ADVANCED_FACE ( 'NONE', ( #226 ), #10, .T. ) ;
#232 = APPROVAL_DATE_TIME ( #11, #171 ) ;
#233 = ORIENTED_EDGE ( 'NONE', *, *, #114, .F. ) ;
#234 = VERTEX_POINT ( 'NONE', #25 ) ;
#235 = DIRECTION ( 'NONE',  ( 1.000000000000000000, 0.000000000000000000, 5.551115123125781716E-16 ) ) ;
#236 = SHAPE_DEFINITION_REPRESENTATION ( #60, #172 ) ;
#237 = DIRECTION ( 'NONE',  ( 0.000000000000000000, 0.000000000000000000, 1.000000000000000000 ) ) ;
#238 = CC_DESIGN_APPROVAL ( #71, ( #85 ) ) ;
#239 = ORIENTED_EDGE ( 'NONE', *, *, #229, .F. ) ;
#240 = DIRECTION ( 'NONE',  ( -5.551115123125782702E-16, 0.000000000000000000, 1.000000000000000000 ) ) ;
#241 = DIRECTION ( 'NONE',  ( 1.000000000000000000, 0.000000000000000000, 5.551115123125782702E-16 ) ) ;
#242 = DIRECTION ( 'NONE',  ( 0.000000000000000000, 1.000000000000000000, 0.000000000000000000 ) ) ;
#243 = CARTESIAN_POINT ( 'NONE',  ( 0.000000000000000000, 0.000000000000000000, 0.000000000000000000 ) ) ;
#244 = PERSON_AND_ORGANIZATION ( #216, #200 ) ;
#245 = AXIS2_PLACEMENT_3D ( 'NONE', #178, #84, #183 ) ;
#246 = AXIS2_PLACEMENT_3D ( 'NONE', #177, #18, #93 ) ;
#247 = COORDINATED_UNIVERSAL_TIME_OFFSET ( 1, 0, .AHEAD. ) ;
#248 = ORIENTED_EDGE ( 'NONE', *, *, #15, .F. ) ;
#249 = ORIENTED_EDGE ( 'NONE', *, *, #51, .F. ) ;
#250 = CARTESIAN_POINT ( 'NONE',  ( -53.74011537017783269, 0.000000000000000000, -53.74011537017735662 ) ) ;
#251 = DIRECTION ( 'NONE',  ( -0.7071067811865444641, 0.000000000000000000, 0.7071067811865506814 ) ) ;
#252 = CC_DESIGN_APPROVAL ( #171, ( #62 ) ) ;
#253 = DIRECTION ( 'NONE',  ( 1.000000000000000000, 0.000000000000000000, 5.551115123125783688E-16 ) ) ;
ENDSEC;
END-ISO-10303-21;
