ISO-10303-21;
HEADER;
FILE_DESCRIPTION (( 'STEP AP203' ),
    '1' );
FILE_NAME ('3D_R1651_12x1.5_17352110.STEP',
    '2024-08-05T06:43:24',
    ( '' ),
    ( '' ),
    'SwSTEP 2.0',
    'SolidWorks 2024',
    '' );
FILE_SCHEMA (( 'CONFIG_CONTROL_DESIGN' ));
ENDSEC;

DATA;
#1 = SECURITY_CLASSIFICATION ( '', '', #17 ) ;
#2 = AXIS2_PLACEMENT_3D ( 'NONE', #190, #216, #33 ) ;
#3 = ORIENTED_EDGE ( 'NONE', *, *, #36, .F. ) ;
#4 = CARTESIAN_POINT ( 'NONE',  ( -20.00000000000000000, 0.000000000000000000, -3.673940397442063911E-15 ) ) ;
#5 = DIRECTION ( 'NONE',  ( 0.000000000000000000, 0.000000000000000000, 1.000000000000000000 ) ) ;
#6 = LOCAL_TIME ( 8, 43, 24.00000000000000000, #135 ) ;
#7 = DIRECTION ( 'NONE',  ( -1.000000000000000000, 0.000000000000000000, 2.943923360032083078E-15 ) ) ;
#8 = PRODUCT_RELATED_PRODUCT_CATEGORY ( 'detail', '', ( #94 ) ) ;
#9 = TOROIDAL_SURFACE ( 'NONE', #167, 20.00000000000000000, 4.500000000000000888 ) ;
#10 = CARTESIAN_POINT ( 'NONE',  ( -5.887846720064166157E-14, 0.000000000000000000, -20.00000000000000000 ) ) ;
#11 = FACE_OUTER_BOUND ( 'NONE', #93, .T. ) ;
#12 = DIRECTION ( 'NONE',  ( 0.000000000000000000, 0.000000000000000000, 1.000000000000000000 ) ) ;
#13 = EDGE_CURVE ( 'NONE', #59, #182, #231, .T. ) ;
#14 = CALENDAR_DATE ( 2024, 5, 8 ) ;
#15 = CARTESIAN_POINT ( 'NONE',  ( -20.00000000000000000, 0.000000000000000000, -4.518668977514456179E-15 ) ) ;
#16 = DIRECTION ( 'NONE',  ( 1.000000000000000000, 0.000000000000000000, 0.000000000000000000 ) ) ;
#17 = SECURITY_CLASSIFICATION_LEVEL ( 'unclassified' ) ;
#18 = ORIENTED_EDGE ( 'NONE', *, *, #13, .T. ) ;
#19 = ADVANCED_FACE ( 'NONE', ( #243 ), #52, .F. ) ;
#20 = AXIS2_PLACEMENT_3D ( 'NONE', #26, #149, #226 ) ;
#21 = VERTEX_POINT ( 'NONE', #112 ) ;
#22 = ORIENTED_EDGE ( 'NONE', *, *, #36, .T. ) ;
#23 = CARTESIAN_POINT ( 'NONE',  ( -7.212612232078602911E-14, 0.000000000000000000, -24.50000000000000000 ) ) ;
#24 = DIRECTION ( 'NONE',  ( 0.000000000000000000, 1.000000000000000000, 0.000000000000000000 ) ) ;
#25 = CARTESIAN_POINT ( 'NONE',  ( 0.000000000000000000, 0.000000000000000000, 0.000000000000000000 ) ) ;
#26 = CARTESIAN_POINT ( 'NONE',  ( -20.00000000000000000, 0.000000000000000000, -3.673940397442063911E-15 ) ) ;
#27 = CARTESIAN_POINT ( 'NONE',  ( 0.000000000000000000, -7.347880794884119736E-16, 0.000000000000000000 ) ) ;
#28 = COORDINATED_UNIVERSAL_TIME_OFFSET ( 1, 0, .AHEAD. ) ;
#29 = CC_DESIGN_APPROVAL ( #145, ( #70 ) ) ;
#30 = AXIS2_PLACEMENT_3D ( 'NONE', #245, #85, #205 ) ;
#31 = CARTESIAN_POINT ( 'NONE',  ( 0.000000000000000000, 0.000000000000000000, 0.000000000000000000 ) ) ;
#32 = DIRECTION ( 'NONE',  ( 1.000000000000000000, 0.000000000000000000, 2.259334488757227596E-16 ) ) ;
#33 = DIRECTION ( 'NONE',  ( 2.943923360032082684E-15, 0.000000000000000000, 1.000000000000000000 ) ) ;
#34 = DIRECTION ( 'NONE',  ( 0.000000000000000000, 1.000000000000000000, 0.000000000000000000 ) ) ;
#35 = ORIENTED_EDGE ( 'NONE', *, *, #116, .T. ) ;
#36 = EDGE_CURVE ( 'NONE', #236, #182, #90, .T. ) ;
#37 = ORIENTED_EDGE ( 'NONE', *, *, #150, .F. ) ;
#38 = LOCAL_TIME ( 8, 43, 24.00000000000000000, #28 ) ;
#39 = TOROIDAL_SURFACE ( 'NONE', #53, 20.00000000000000000, 6.000000000000000000 ) ;
#40 = ORIENTED_EDGE ( 'NONE', *, *, #45, .T. ) ;
#41 = VERTEX_POINT ( 'NONE', #63 ) ;
#42 = DIRECTION ( 'NONE',  ( 0.000000000000000000, 0.000000000000000000, 1.000000000000000000 ) ) ;
#43 = CC_DESIGN_PERSON_AND_ORGANIZATION_ASSIGNMENT ( #248, #211, ( #70 ) ) ;
#44 = DIRECTION ( 'NONE',  ( 0.000000000000000000, 1.000000000000000000, 0.000000000000000000 ) ) ;
#45 = EDGE_CURVE ( 'NONE', #199, #21, #238, .T. ) ;
#46 = DIRECTION ( 'NONE',  ( 0.000000000000000000, 0.000000000000000000, 1.000000000000000000 ) ) ;
#47 = DIRECTION ( 'NONE',  ( 0.000000000000000000, 1.000000000000000000, 0.000000000000000000 ) ) ;
#48 = CARTESIAN_POINT ( 'NONE',  ( -14.00000000000000000, 0.000000000000000000, -2.318339704187727057E-15 ) ) ;
#49 = DATE_AND_TIME ( #251, #6 ) ;
#50 = DIRECTION ( 'NONE',  ( 0.000000000000000000, 0.000000000000000000, 1.000000000000000000 ) ) ;
#51 = APPROVAL_PERSON_ORGANIZATION ( #111, #184, #171 ) ;
#52 = TOROIDAL_SURFACE ( 'NONE', #198, 20.00000000000000000, 4.500000000000000888 ) ;
#53 = AXIS2_PLACEMENT_3D ( 'NONE', #224, #188, #146 ) ;
#54 = CC_DESIGN_DATE_AND_TIME_ASSIGNMENT ( #68, #193, ( #1 ) ) ;
#55 = APPLICATION_PROTOCOL_DEFINITION ( 'international standard', 'config_control_design', 1994, #203 ) ;
#56 = EDGE_CURVE ( 'NONE', #41, #59, #223, .T. ) ;
#57 = ORIENTED_EDGE ( 'NONE', *, *, #56, .F. ) ;
#58 = ORIENTED_EDGE ( 'NONE', *, *, #246, .F. ) ;
#59 = VERTEX_POINT ( 'NONE', #168 ) ;
#60 = DIRECTION ( 'NONE',  ( 0.000000000000000000, 0.000000000000000000, 1.000000000000000000 ) ) ;
#61 = APPROVAL_PERSON_ORGANIZATION ( #215, #101, #74 ) ;
#62 = EDGE_CURVE ( 'NONE', #236, #41, #218, .T. ) ;
#63 = CARTESIAN_POINT ( 'NONE',  ( -7.738673594090654915E-14, 0.000000000000000000, -26.00000000000000355 ) ) ;
#64 = CARTESIAN_POINT ( 'NONE',  ( -20.00000000000000000, 0.000000000000000000, -4.518668977514456179E-15 ) ) ;
#65 = CARTESIAN_POINT ( 'NONE',  ( -4.563081208049728140E-14, 0.000000000000000000, -15.50000000000000000 ) ) ;
#66 = UNCERTAINTY_MEASURE_WITH_UNIT (LENGTH_MEASURE( 1.000000000000000082E-05 ), #137, 'distance_accuracy_value', 'NONE');
#67 = PERSON_AND_ORGANIZATION ( #169, #240 ) ;
#68 = DATE_AND_TIME ( #120, #197 ) ;
#69 = PERSON_AND_ORGANIZATION ( #169, #240 ) ;
#70 = PRODUCT_DEFINITION ( 'UNKNOWN', '', #114, #108 ) ;
#71 = CARTESIAN_POINT ( 'NONE',  ( -15.50000000000000000, 0.000000000000000000, -3.501968457573703539E-15 ) ) ;
#72 = AXIS2_PLACEMENT_3D ( 'NONE', #15, #119, #32 ) ;
#73 = APPLICATION_PROTOCOL_DEFINITION ( 'international standard', 'config_control_design', 1994, #252 ) ;
#74 = APPROVAL_ROLE ( '' ) ;
#75 = ORIENTED_EDGE ( 'NONE', *, *, #116, .F. ) ;
#76 = ORIENTED_EDGE ( 'NONE', *, *, #140, .F. ) ;
#77 = ORIENTED_EDGE ( 'NONE', *, *, #150, .T. ) ;
#78 = CARTESIAN_POINT ( 'NONE',  ( 0.000000000000000000, -5.510910596163089556E-16, 0.000000000000000000 ) ) ;
#79 = ADVANCED_FACE ( 'NONE', ( #186 ), #39, .T. ) ;
#80 = DIRECTION ( 'NONE',  ( 0.000000000000000000, 0.000000000000000000, 1.000000000000000000 ) ) ;
#81 = CC_DESIGN_APPROVAL ( #101, ( #114 ) ) ;
#82 = CLOSED_SHELL ( 'NONE', ( #19, #79, #106, #178, #133, #195 ) ) ;
#83 = AXIS2_PLACEMENT_3D ( 'NONE', #142, #47, #46 ) ;
#84 = DIRECTION ( 'NONE',  ( -2.259334488757228089E-16, 0.000000000000000000, 1.000000000000000000 ) ) ;
#85 = DIRECTION ( 'NONE',  ( -1.000000000000000000, 0.000000000000000000, 2.943923360032083078E-15 ) ) ;
#86 = DIRECTION ( 'NONE',  ( 2.943923360032082684E-15, 0.000000000000000000, 1.000000000000000000 ) ) ;
#87 = MANIFOLD_SOLID_BREP ( 'Wandung1', #82 ) ;
#88 = COORDINATED_UNIVERSAL_TIME_OFFSET ( 1, 0, .AHEAD. ) ;
#89 = CC_DESIGN_PERSON_AND_ORGANIZATION_ASSIGNMENT ( #69, #213, ( #114 ) ) ;
#90 = CIRCLE ( 'NONE', #118, 14.00000000000000000 ) ;
#91 = EDGE_CURVE ( 'NONE', #161, #199, #242, .T. ) ;
#92 = CARTESIAN_POINT ( 'NONE',  ( 0.000000000000000000, 0.000000000000000000, 0.000000000000000000 ) ) ;
#93 = EDGE_LOOP ( 'NONE', ( #158, #201 ) ) ;
#94 = PRODUCT ( '3D_R1651_12x1.5_17352110', '3D_R1651_12x1.5_17352110', '', ( #173 ) ) ;
#95 = DIRECTION ( 'NONE',  ( 1.000000000000000000, 0.000000000000000000, 2.259334488757228089E-16 ) ) ;
#96 = PERSON_AND_ORGANIZATION ( #169, #240 ) ;
#97 = EDGE_LOOP ( 'NONE', ( #121, #196, #104, #3 ) ) ;
#98 =( GEOMETRIC_REPRESENTATION_CONTEXT ( 3 ) GLOBAL_UNCERTAINTY_ASSIGNED_CONTEXT ( ( #66 ) ) GLOBAL_UNIT_ASSIGNED_CONTEXT ( ( #137, #214, #229 ) ) REPRESENTATION_CONTEXT ( 'NONE', 'WORKASPACE' ) );
#99 = CIRCLE ( 'NONE', #115, 4.500000000000000888 ) ;
#100 = ORIENTED_EDGE ( 'NONE', *, *, #140, .T. ) ;
#101 = APPROVAL ( #192, 'UNSPECIFIED' ) ;
#102 = AXIS2_PLACEMENT_3D ( 'NONE', #64, #84, #162 ) ;
#103 = ORIENTED_EDGE ( 'NONE', *, *, #13, .F. ) ;
#104 = ORIENTED_EDGE ( 'NONE', *, *, #206, .F. ) ;
#105 = EDGE_LOOP ( 'NONE', ( #75, #76, #123, #40 ) ) ;
#106 = ADVANCED_FACE ( 'NONE', ( #239 ), #143, .T. ) ;
#107 = FACE_OUTER_BOUND ( 'NONE', #105, .T. ) ;
#108 = DESIGN_CONTEXT ( 'detailed design', #252, 'design' ) ;
#109 = AXIS2_PLACEMENT_3D ( 'NONE', #185, #7, #131 ) ;
#110 = DIRECTION ( 'NONE',  ( 0.000000000000000000, 1.000000000000000000, 0.000000000000000000 ) ) ;
#111 = PERSON_AND_ORGANIZATION ( #169, #240 ) ;
#112 = CARTESIAN_POINT ( 'NONE',  ( -24.50000000000000000, 0.000000000000000000, -5.535369497455208030E-15 ) ) ;
#113 = CARTESIAN_POINT ( 'NONE',  ( 0.000000000000000000, 0.000000000000000000, 0.000000000000000000 ) ) ;
#114 = PRODUCT_DEFINITION_FORMATION_WITH_SPECIFIED_SOURCE ( 'ANY', '', #94, .NOT_KNOWN. ) ;
#115 = AXIS2_PLACEMENT_3D ( 'NONE', #10, #148, #86 ) ;
#116 = EDGE_CURVE ( 'NONE', #183, #21, #136, .T. ) ;
#117 = PERSON_AND_ORGANIZATION ( #169, #240 ) ;
#118 = AXIS2_PLACEMENT_3D ( 'NONE', #27, #110, #42 ) ;
#119 = DIRECTION ( 'NONE',  ( -2.259334488757228089E-16, 0.000000000000000000, 1.000000000000000000 ) ) ;
#120 = CALENDAR_DATE ( 2024, 5, 8 ) ;
#121 = ORIENTED_EDGE ( 'NONE', *, *, #62, .T. ) ;
#122 = CC_DESIGN_PERSON_AND_ORGANIZATION_ASSIGNMENT ( #117, #194, ( #114 ) ) ;
#123 = ORIENTED_EDGE ( 'NONE', *, *, #91, .T. ) ;
#124 = LOCAL_TIME ( 8, 43, 24.00000000000000000, #225 ) ;
#125 = ADVANCED_BREP_SHAPE_REPRESENTATION ( '3D_R1651_12x1.5_17352110', ( #87, #152 ), #98 ) ;
#126 = CIRCLE ( 'NONE', #30, 4.500000000000000888 ) ;
#127 = CARTESIAN_POINT ( 'NONE',  ( -5.972319578071406330E-14, 0.000000000000000000, -20.00000000000000000 ) ) ;
#128 = DIRECTION ( 'NONE',  ( 0.000000000000000000, 1.000000000000000000, 0.000000000000000000 ) ) ;
#129 = DIRECTION ( 'NONE',  ( -2.259334488757228089E-16, 0.000000000000000000, 1.000000000000000000 ) ) ;
#130 = PLANE ( 'NONE',  #20 ) ;
#131 = DIRECTION ( 'NONE',  ( 2.943923360032082684E-15, 0.000000000000000000, 1.000000000000000000 ) ) ;
#132 = DIRECTION ( 'NONE',  ( -2.259334488757228089E-16, 0.000000000000000000, 1.000000000000000000 ) ) ;
#133 = ADVANCED_FACE ( 'NONE', ( #220, #11 ), #163, .F. ) ;
#134 = CC_DESIGN_APPROVAL ( #184, ( #1 ) ) ;
#135 = COORDINATED_UNIVERSAL_TIME_OFFSET ( 1, 0, .AHEAD. ) ;
#136 = CIRCLE ( 'NONE', #83, 24.50000000000000000 ) ;
#137 =( LENGTH_UNIT ( ) NAMED_UNIT ( * ) SI_UNIT ( .MILLI., .METRE. ) );
#138 = DATE_TIME_ROLE ( 'creation_date' ) ;
#139 = CALENDAR_DATE ( 2024, 5, 8 ) ;
#140 = EDGE_CURVE ( 'NONE', #161, #183, #99, .T. ) ;
#141 = ORIENTED_EDGE ( 'NONE', *, *, #91, .F. ) ;
#142 = CARTESIAN_POINT ( 'NONE',  ( 0.000000000000000000, 0.000000000000000000, 0.000000000000000000 ) ) ;
#143 = TOROIDAL_SURFACE ( 'NONE', #212, 20.00000000000000000, 6.000000000000000000 ) ;
#144 = DIRECTION ( 'NONE',  ( -1.000000000000000000, 0.000000000000000000, 2.943923360032083078E-15 ) ) ;
#145 = APPROVAL ( #250, 'UNSPECIFIED' ) ;
#146 = DIRECTION ( 'NONE',  ( 0.000000000000000000, 0.000000000000000000, 1.000000000000000000 ) ) ;
#147 = AXIS2_PLACEMENT_3D ( 'NONE', #241, #24, #80 ) ;
#148 = DIRECTION ( 'NONE',  ( -1.000000000000000000, 0.000000000000000000, 2.943923360032083078E-15 ) ) ;
#149 = DIRECTION ( 'NONE',  ( -2.259334488757228089E-16, 0.000000000000000000, 1.000000000000000000 ) ) ;
#150 = EDGE_CURVE ( 'NONE', #183, #161, #126, .T. ) ;
#151 = APPROVAL_STATUS ( 'not_yet_approved' ) ;
#152 = AXIS2_PLACEMENT_3D ( 'NONE', #31, #12, #16 ) ;
#153 = CARTESIAN_POINT ( 'NONE',  ( -4.205965562052156483E-14, 0.000000000000000000, -14.00000000000000000 ) ) ;
#154 = CIRCLE ( 'NONE', #181, 6.000000000000000000 ) ;
#155 = CARTESIAN_POINT ( 'NONE',  ( -20.00000000000000000, 0.000000000000000000, -3.673940397442063911E-15 ) ) ;
#156 = CALENDAR_DATE ( 2024, 5, 8 ) ;
#157 = CC_DESIGN_SECURITY_CLASSIFICATION ( #1, ( #114 ) ) ;
#158 = ORIENTED_EDGE ( 'NONE', *, *, #62, .F. ) ;
#159 = ORIENTED_EDGE ( 'NONE', *, *, #206, .T. ) ;
#160 = EDGE_LOOP ( 'NONE', ( #207, #58 ) ) ;
#161 = VERTEX_POINT ( 'NONE', #65 ) ;
#162 = DIRECTION ( 'NONE',  ( 1.000000000000000000, 0.000000000000000000, 2.259334488757227596E-16 ) ) ;
#163 = PLANE ( 'NONE',  #232 ) ;
#164 = CC_DESIGN_DATE_AND_TIME_ASSIGNMENT ( #235, #138, ( #70 ) ) ;
#165 = LOCAL_TIME ( 8, 43, 24.00000000000000000, #88 ) ;
#166 = AXIS2_PLACEMENT_3D ( 'NONE', #4, #129, #172 ) ;
#167 = AXIS2_PLACEMENT_3D ( 'NONE', #92, #34, #50 ) ;
#168 = CARTESIAN_POINT ( 'NONE',  ( -26.00000000000000355, 0.000000000000000000, -5.029541090696400765E-15 ) ) ;
#169 = PERSON ( 'UNSPECIFIED', 'UNSPECIFIED', 'UNSPECIFIED', ('UNSPECIFIED'), ('UNSPECIFIED'), ('UNSPECIFIED') ) ;
#170 = FACE_BOUND ( 'NONE', #160, .T. ) ;
#171 = APPROVAL_ROLE ( '' ) ;
#172 = DIRECTION ( 'NONE',  ( 1.000000000000000000, 0.000000000000000000, 2.259334488757228089E-16 ) ) ;
#173 = MECHANICAL_CONTEXT ( 'NONE', #203, 'mechanical' ) ;
#174 = DATE_AND_TIME ( #139, #165 ) ;
#175 = PERSON_AND_ORGANIZATION_ROLE ( 'design_owner' ) ;
#176 = PERSON_AND_ORGANIZATION ( #169, #240 ) ;
#177 = PERSON_AND_ORGANIZATION_ROLE ( 'classification_officer' ) ;
#178 = ADVANCED_FACE ( 'NONE', ( #170, #244 ), #130, .T. ) ;
#179 = APPROVAL_PERSON_ORGANIZATION ( #67, #145, #227 ) ;
#180 = EDGE_LOOP ( 'NONE', ( #159, #18 ) ) ;
#181 = AXIS2_PLACEMENT_3D ( 'NONE', #155, #132, #95 ) ;
#182 = VERTEX_POINT ( 'NONE', #48 ) ;
#183 = VERTEX_POINT ( 'NONE', #23 ) ;
#184 = APPROVAL ( #151, 'UNSPECIFIED' ) ;
#185 = CARTESIAN_POINT ( 'NONE',  ( -5.972319578071406330E-14, 0.000000000000000000, -20.00000000000000000 ) ) ;
#186 = FACE_OUTER_BOUND ( 'NONE', #97, .T. ) ;
#187 = CIRCLE ( 'NONE', #72, 4.500000000000000888 ) ;
#188 = DIRECTION ( 'NONE',  ( 0.000000000000000000, 1.000000000000000000, 0.000000000000000000 ) ) ;
#189 = DIRECTION ( 'NONE',  ( 0.000000000000000000, 1.000000000000000000, 0.000000000000000000 ) ) ;
#190 = CARTESIAN_POINT ( 'NONE',  ( -5.972319578071406330E-14, 0.000000000000000000, -20.00000000000000000 ) ) ;
#191 = APPROVAL_DATE_TIME ( #210, #184 ) ;
#192 = APPROVAL_STATUS ( 'not_yet_approved' ) ;
#193 = DATE_TIME_ROLE ( 'classification_date' ) ;
#194 = PERSON_AND_ORGANIZATION_ROLE ( 'design_supplier' ) ;
#195 = ADVANCED_FACE ( 'NONE', ( #107 ), #9, .F. ) ;
#196 = ORIENTED_EDGE ( 'NONE', *, *, #56, .T. ) ;
#197 = LOCAL_TIME ( 8, 43, 24.00000000000000000, #253 ) ;
#198 = AXIS2_PLACEMENT_3D ( 'NONE', #25, #44, #208 ) ;
#199 = VERTEX_POINT ( 'NONE', #71 ) ;
#200 = CIRCLE ( 'NONE', #2, 6.000000000000000000 ) ;
#201 = ORIENTED_EDGE ( 'NONE', *, *, #230, .F. ) ;
#202 = ORIENTED_EDGE ( 'NONE', *, *, #230, .T. ) ;
#203 = APPLICATION_CONTEXT ( 'configuration controlled 3d designs of mechanical parts and assemblies' ) ;
#204 = ORIENTED_EDGE ( 'NONE', *, *, #246, .T. ) ;
#205 = DIRECTION ( 'NONE',  ( 2.943923360032082684E-15, 0.000000000000000000, 1.000000000000000000 ) ) ;
#206 = EDGE_CURVE ( 'NONE', #182, #59, #154, .T. ) ;
#207 = ORIENTED_EDGE ( 'NONE', *, *, #45, .F. ) ;
#208 = DIRECTION ( 'NONE',  ( 0.000000000000000000, 0.000000000000000000, 1.000000000000000000 ) ) ;
#209 = DIRECTION ( 'NONE',  ( 2.943923360032083078E-15, 0.000000000000000000, 1.000000000000000000 ) ) ;
#210 = DATE_AND_TIME ( #14, #124 ) ;
#211 = PERSON_AND_ORGANIZATION_ROLE ( 'creator' ) ;
#212 = AXIS2_PLACEMENT_3D ( 'NONE', #113, #128, #60 ) ;
#213 = PERSON_AND_ORGANIZATION_ROLE ( 'creator' ) ;
#214 =( NAMED_UNIT ( * ) PLANE_ANGLE_UNIT ( ) SI_UNIT ( $, .RADIAN. ) );
#215 = PERSON_AND_ORGANIZATION ( #169, #240 ) ;
#216 = DIRECTION ( 'NONE',  ( -1.000000000000000000, 0.000000000000000000, 2.943923360032083078E-15 ) ) ;
#217 = EDGE_LOOP ( 'NONE', ( #100, #77 ) ) ;
#218 = CIRCLE ( 'NONE', #109, 6.000000000000000000 ) ;
#219 = EDGE_LOOP ( 'NONE', ( #57, #202, #22, #103 ) ) ;
#220 = FACE_BOUND ( 'NONE', #217, .T. ) ;
#221 = CC_DESIGN_PERSON_AND_ORGANIZATION_ASSIGNMENT ( #176, #175, ( #94 ) ) ;
#222 = AXIS2_PLACEMENT_3D ( 'NONE', #78, #189, #5 ) ;
#223 = CIRCLE ( 'NONE', #147, 26.00000000000000355 ) ;
#224 = CARTESIAN_POINT ( 'NONE',  ( 0.000000000000000000, 0.000000000000000000, 0.000000000000000000 ) ) ;
#225 = COORDINATED_UNIVERSAL_TIME_OFFSET ( 1, 0, .AHEAD. ) ;
#226 = DIRECTION ( 'NONE',  ( 1.000000000000000000, 0.000000000000000000, 2.259334488757228089E-16 ) ) ;
#227 = APPROVAL_ROLE ( '' ) ;
#228 = CC_DESIGN_PERSON_AND_ORGANIZATION_ASSIGNMENT ( #96, #177, ( #1 ) ) ;
#229 =( NAMED_UNIT ( * ) SI_UNIT ( $, .STERADIAN. ) SOLID_ANGLE_UNIT ( ) );
#230 = EDGE_CURVE ( 'NONE', #41, #236, #200, .T. ) ;
#231 = CIRCLE ( 'NONE', #166, 6.000000000000000000 ) ;
#232 = AXIS2_PLACEMENT_3D ( 'NONE', #127, #144, #209 ) ;
#233 = PRODUCT_DEFINITION_SHAPE ( 'NONE', 'NONE',  #70 ) ;
#234 = APPROVAL_DATE_TIME ( #49, #145 ) ;
#235 = DATE_AND_TIME ( #156, #38 ) ;
#236 = VERTEX_POINT ( 'NONE', #153 ) ;
#237 = EDGE_LOOP ( 'NONE', ( #37, #35, #204, #141 ) ) ;
#238 = CIRCLE ( 'NONE', #102, 4.500000000000000888 ) ;
#239 = FACE_OUTER_BOUND ( 'NONE', #219, .T. ) ;
#240 = ORGANIZATION ( 'UNSPECIFIED', 'UNSPECIFIED', '' ) ;
#241 = CARTESIAN_POINT ( 'NONE',  ( 0.000000000000000000, 0.000000000000000000, 0.000000000000000000 ) ) ;
#242 = CIRCLE ( 'NONE', #222, 15.50000000000000000 ) ;
#243 = FACE_OUTER_BOUND ( 'NONE', #237, .T. ) ;
#244 = FACE_OUTER_BOUND ( 'NONE', #180, .T. ) ;
#245 = CARTESIAN_POINT ( 'NONE',  ( -5.887846720064166157E-14, 0.000000000000000000, -20.00000000000000000 ) ) ;
#246 = EDGE_CURVE ( 'NONE', #21, #199, #187, .T. ) ;
#247 = APPROVAL_DATE_TIME ( #174, #101 ) ;
#248 = PERSON_AND_ORGANIZATION ( #169, #240 ) ;
#249 = SHAPE_DEFINITION_REPRESENTATION ( #233, #125 ) ;
#250 = APPROVAL_STATUS ( 'not_yet_approved' ) ;
#251 = CALENDAR_DATE ( 2024, 5, 8 ) ;
#252 = APPLICATION_CONTEXT ( 'configuration controlled 3d designs of mechanical parts and assemblies' ) ;
#253 = COORDINATED_UNIVERSAL_TIME_OFFSET ( 1, 0, .AHEAD. ) ;
ENDSEC;
END-ISO-10303-21;
