ISO-10303-21;
HEADER;
FILE_DESCRIPTION (( 'STEP AP203' ),
    '1' );
FILE_NAME ('3D_R169-K_26-13_17325140.STEP',
    '2024-07-11T10:16:19',
    ( '' ),
    ( '' ),
    'SwSTEP 2.0',
    'SolidWorks 2024',
    '' );
FILE_SCHEMA (( 'CONFIG_CONTROL_DESIGN' ));
ENDSEC;

DATA;
#1 = DIRECTION ( 'NONE',  ( 0.000000000000000000, 0.000000000000000000, 1.000000000000000000 ) ) ;
#2 = CARTESIAN_POINT ( 'NONE',  ( 23.56978311367453216, 0.000000000000000000, 0.000000000000000000 ) ) ;
#3 = FACE_OUTER_BOUND ( 'NONE', #53, .T. ) ;
#4 = COORDINATED_UNIVERSAL_TIME_OFFSET ( 1, 0, .AHEAD. ) ;
#5 = ADVANCED_FACE ( 'NONE', ( #206 ), #123, .T. ) ;
#6 = ORGANIZATION ( 'UNSPECIFIED', 'UNSPECIFIED', '' ) ;
#7 = CALENDAR_DATE ( 2024, 11, 7 ) ;
#8 = APPROVAL_STATUS ( 'not_yet_approved' ) ;
#9 = ORIENTED_EDGE ( 'NONE', *, *, #199, .T. ) ;
#10 = AXIS2_PLACEMENT_3D ( 'NONE', #34, #116, #176 ) ;
#11 = APPROVAL_PERSON_ORGANIZATION ( #45, #193, #125 ) ;
#12 = SECURITY_CLASSIFICATION_LEVEL ( 'unclassified' ) ;
#13 = ORIENTED_EDGE ( 'NONE', *, *, #199, .F. ) ;
#14 = CALENDAR_DATE ( 2024, 11, 7 ) ;
#15 = APPROVAL ( #8, 'UNSPECIFIED' ) ;
#16 = AXIS2_PLACEMENT_3D ( 'NONE', #104, #120, #249 ) ;
#17 = ORIENTED_EDGE ( 'NONE', *, *, #130, .F. ) ;
#18 = DIRECTION ( 'NONE',  ( -0.9631721335644853887, 3.292898329860173298E-17, -0.2688855539534188432 ) ) ;
#19 = DIRECTION ( 'NONE',  ( 0.000000000000000000, 0.000000000000000000, 1.000000000000000000 ) ) ;
#20 = CARTESIAN_POINT ( 'NONE',  ( 24.00000000000000000, 0.000000000000000000, 0.000000000000000000 ) ) ;
#21 = ADVANCED_FACE ( 'NONE', ( #103, #3 ), #118, .T. ) ;
#22 = DIRECTION ( 'NONE',  ( -1.000000000000000000, -0.000000000000000000, -0.000000000000000000 ) ) ;
#23 = CARTESIAN_POINT ( 'NONE',  ( 0.000000000000000000, 0.000000000000000000, 0.000000000000000000 ) ) ;
#24 = CC_DESIGN_SECURITY_CLASSIFICATION ( #141, ( #200 ) ) ;
#25 = ORIENTED_EDGE ( 'NONE', *, *, #38, .F. ) ;
#26 = LOCAL_TIME ( 12, 16, 19.00000000000000000, #4 ) ;
#27 = COORDINATED_UNIVERSAL_TIME_OFFSET ( 1, 0, .AHEAD. ) ;
#28 = ORIENTED_EDGE ( 'NONE', *, *, #184, .F. ) ;
#29 = ADVANCED_FACE ( 'NONE', ( #59 ), #149, .F. ) ;
#30 = MECHANICAL_CONTEXT ( 'NONE', #108, 'mechanical' ) ;
#31 = EDGE_LOOP ( 'NONE', ( #224, #227, #236, #17 ) ) ;
#32 = DIRECTION ( 'NONE',  ( 0.000000000000000000, 0.000000000000000000, -1.000000000000000000 ) ) ;
#33 = DESIGN_CONTEXT ( 'detailed design', #150, 'design' ) ;
#34 = CARTESIAN_POINT ( 'NONE',  ( 24.00000000000000000, 0.000000000000000000, 0.000000000000000000 ) ) ;
#35 = DIRECTION ( 'NONE',  ( 1.000000000000000000, 0.000000000000000000, 0.000000000000000000 ) ) ;
#36 = CARTESIAN_POINT ( 'NONE',  ( 0.000000000000000000, -8.235749724265949955E-16, 13.44999999999999929 ) ) ;
#37 = CARTESIAN_POINT ( 'NONE',  ( 24.00000000000000000, 0.000000000000000000, 6.750000000000000000 ) ) ;
#38 = EDGE_CURVE ( 'NONE', #74, #162, #182, .T. ) ;
#39 = DIRECTION ( 'NONE',  ( 1.000000000000000000, 0.000000000000000000, 0.000000000000000000 ) ) ;
#40 = CARTESIAN_POINT ( 'NONE',  ( 24.00000000000000000, 0.000000000000000000, 0.000000000000000000 ) ) ;
#41 = APPROVAL_PERSON_ORGANIZATION ( #145, #15, #242 ) ;
#42 = ORIENTED_EDGE ( 'NONE', *, *, #240, .T. ) ;
#43 = ORIENTED_EDGE ( 'NONE', *, *, #240, .F. ) ;
#44 = MANIFOLD_SOLID_BREP ( 'Wandung2', #140 ) ;
#45 = PERSON_AND_ORGANIZATION ( #78, #6 ) ;
#46 = LOCAL_TIME ( 12, 16, 19.00000000000000000, #75 ) ;
#47 = ADVANCED_FACE ( 'NONE', ( #86, #98 ), #156, .F. ) ;
#48 = VERTEX_POINT ( 'NONE', #88 ) ;
#49 =( LENGTH_UNIT ( ) NAMED_UNIT ( * ) SI_UNIT ( .MILLI., .METRE. ) );
#50 = DATE_AND_TIME ( #68, #46 ) ;
#51 = EDGE_LOOP ( 'NONE', ( #28, #9, #56, #131 ) ) ;
#52 = DATE_AND_TIME ( #7, #87 ) ;
#53 = EDGE_LOOP ( 'NONE', ( #198, #171 ) ) ;
#54 = VECTOR ( 'NONE', #18, 1000.000000000000114 ) ;
#55 = DATE_TIME_ROLE ( 'creation_date' ) ;
#56 = ORIENTED_EDGE ( 'NONE', *, *, #151, .T. ) ;
#57 = LOCAL_TIME ( 12, 16, 19.00000000000000000, #100 ) ;
#58 = PRODUCT_DEFINITION_SHAPE ( 'NONE', 'NONE',  #169 ) ;
#59 = FACE_OUTER_BOUND ( 'NONE', #31, .T. ) ;
#60 = CARTESIAN_POINT ( 'NONE',  ( 23.56978311367453216, 6.379092821608354434E-16, -5.208924586296823200 ) ) ;
#61 = CC_DESIGN_PERSON_AND_ORGANIZATION_ASSIGNMENT ( #221, #93, ( #169 ) ) ;
#62 = DIRECTION ( 'NONE',  ( 1.000000000000000000, 0.000000000000000000, 0.000000000000000000 ) ) ;
#63 = CONICAL_SURFACE ( 'NONE', #90, 6.750000000000000000, 0.2722357862519088623 ) ;
#64 = DIRECTION ( 'NONE',  ( 0.000000000000000000, 0.000000000000000000, -1.000000000000000000 ) ) ;
#65 = PRODUCT ( '3D_R169-K_26-13_17325140', '3D_R169-K_26-13_17325140', '', ( #30 ) ) ;
#66 = DIRECTION ( 'NONE',  ( 0.000000000000000000, 0.000000000000000000, 1.000000000000000000 ) ) ;
#67 = CC_DESIGN_PERSON_AND_ORGANIZATION_ASSIGNMENT ( #139, #126, ( #200 ) ) ;
#68 = CALENDAR_DATE ( 2024, 11, 7 ) ;
#69 = ORIENTED_EDGE ( 'NONE', *, *, #106, .T. ) ;
#70 = CC_DESIGN_DATE_AND_TIME_ASSIGNMENT ( #239, #55, ( #169 ) ) ;
#71 = VERTEX_POINT ( 'NONE', #233 ) ;
#72 = DIRECTION ( 'NONE',  ( 0.000000000000000000, 0.000000000000000000, 1.000000000000000000 ) ) ;
#73 = CIRCLE ( 'NONE', #146, 13.44999999999999929 ) ;
#74 = VERTEX_POINT ( 'NONE', #132 ) ;
#75 = COORDINATED_UNIVERSAL_TIME_OFFSET ( 1, 0, .AHEAD. ) ;
#76 = VERTEX_POINT ( 'NONE', #174 ) ;
#77 = PERSON_AND_ORGANIZATION ( #78, #6 ) ;
#78 = PERSON ( 'UNSPECIFIED', 'UNSPECIFIED', 'UNSPECIFIED', ('UNSPECIFIED'), ('UNSPECIFIED'), ('UNSPECIFIED') ) ;
#79 = CALENDAR_DATE ( 2024, 11, 7 ) ;
#80 = CIRCLE ( 'NONE', #187, 11.78882237219762885 ) ;
#81 = EDGE_LOOP ( 'NONE', ( #89, #180 ) ) ;
#82 = PRODUCT_RELATED_PRODUCT_CATEGORY ( 'detail', '', ( #65 ) ) ;
#83 = CARTESIAN_POINT ( 'NONE',  ( 24.00000000000000000, 0.000000000000000000, 0.000000000000000000 ) ) ;
#84 = LINE ( 'NONE', #153, #208 ) ;
#85 = DIRECTION ( 'NONE',  ( -1.000000000000000000, -0.000000000000000000, -0.000000000000000000 ) ) ;
#86 = FACE_BOUND ( 'NONE', #81, .T. ) ;
#87 = LOCAL_TIME ( 12, 16, 19.00000000000000000, #27 ) ;
#88 = CARTESIAN_POINT ( 'NONE',  ( 24.00000000000000000, 4.133182947122317167E-16, 6.750000000000000000 ) ) ;
#89 = ORIENTED_EDGE ( 'NONE', *, *, #121, .T. ) ;
#90 = AXIS2_PLACEMENT_3D ( 'NONE', #194, #85, #1 ) ;
#91 = CC_DESIGN_PERSON_AND_ORGANIZATION_ASSIGNMENT ( #112, #129, ( #200 ) ) ;
#92 = DIRECTION ( 'NONE',  ( 1.000000000000000000, 0.000000000000000000, 0.000000000000000000 ) ) ;
#93 = PERSON_AND_ORGANIZATION_ROLE ( 'creator' ) ;
#94 =( NAMED_UNIT ( * ) PLANE_ANGLE_UNIT ( ) SI_UNIT ( $, .RADIAN. ) );
#95 = ORIENTED_EDGE ( 'NONE', *, *, #196, .T. ) ;
#96 = DATE_AND_TIME ( #186, #57 ) ;
#97 = ADVANCED_BREP_SHAPE_REPRESENTATION ( '3D_R169-K_26-13_17325140', ( #44, #229 ), #113 ) ;
#98 = FACE_OUTER_BOUND ( 'NONE', #147, .T. ) ;
#99 = CONICAL_SURFACE ( 'NONE', #164, 5.208924586296823200, 0.2722357862519088623 ) ;
#100 = COORDINATED_UNIVERSAL_TIME_OFFSET ( 1, 0, .AHEAD. ) ;
#101 = CARTESIAN_POINT ( 'NONE',  ( 23.56978311367453216, 0.000000000000000000, 5.208924586296823200 ) ) ;
#102 = DIRECTION ( 'NONE',  ( -0.9631721335644853887, 0.000000000000000000, 0.2688855539534188432 ) ) ;
#103 = FACE_BOUND ( 'NONE', #144, .T. ) ;
#104 = CARTESIAN_POINT ( 'NONE',  ( 0.000000000000000000, 0.000000000000000000, 0.000000000000000000 ) ) ;
#105 = EDGE_LOOP ( 'NONE', ( #238, #95, #244, #189 ) ) ;
#106 = EDGE_CURVE ( 'NONE', #48, #203, #215, .T. ) ;
#107 = CIRCLE ( 'NONE', #245, 11.78882237219762885 ) ;
#108 = APPLICATION_CONTEXT ( 'configuration controlled 3d designs of mechanical parts and assemblies' ) ;
#109 = CC_DESIGN_APPROVAL ( #155, ( #141 ) ) ;
#110 = CARTESIAN_POINT ( 'NONE',  ( 0.000000000000000000, 0.000000000000000000, 0.000000000000000000 ) ) ;
#111 = EDGE_CURVE ( 'NONE', #48, #247, #204, .T. ) ;
#112 = PERSON_AND_ORGANIZATION ( #78, #6 ) ;
#113 =( GEOMETRIC_REPRESENTATION_CONTEXT ( 3 ) GLOBAL_UNCERTAINTY_ASSIGNED_CONTEXT ( ( #237 ) ) GLOBAL_UNIT_ASSIGNED_CONTEXT ( ( #49, #94, #168 ) ) REPRESENTATION_CONTEXT ( 'NONE', 'WORKASPACE' ) );
#114 = PERSON_AND_ORGANIZATION ( #78, #6 ) ;
#115 = EDGE_CURVE ( 'NONE', #162, #71, #136, .T. ) ;
#116 = DIRECTION ( 'NONE',  ( -1.000000000000000000, -0.000000000000000000, -0.000000000000000000 ) ) ;
#117 = DIRECTION ( 'NONE',  ( 0.000000000000000000, 0.000000000000000000, -1.000000000000000000 ) ) ;
#118 = PLANE ( 'NONE',  #183 ) ;
#119 = DIRECTION ( 'NONE',  ( 1.000000000000000000, 0.000000000000000000, 0.000000000000000000 ) ) ;
#120 = DIRECTION ( 'NONE',  ( 1.000000000000000000, 0.000000000000000000, 0.000000000000000000 ) ) ;
#121 = EDGE_CURVE ( 'NONE', #71, #76, #80, .T. ) ;
#122 = DIRECTION ( 'NONE',  ( 0.000000000000000000, 0.000000000000000000, -1.000000000000000000 ) ) ;
#123 = CONICAL_SURFACE ( 'NONE', #10, 6.750000000000000000, 0.2722357862519088623 ) ;
#124 = EDGE_LOOP ( 'NONE', ( #13, #216, #69, #42 ) ) ;
#125 = APPROVAL_ROLE ( '' ) ;
#126 = PERSON_AND_ORGANIZATION_ROLE ( 'creator' ) ;
#127 = DATE_TIME_ROLE ( 'classification_date' ) ;
#128 = AXIS2_PLACEMENT_3D ( 'NONE', #177, #134, #192 ) ;
#129 = PERSON_AND_ORGANIZATION_ROLE ( 'design_supplier' ) ;
#130 = EDGE_CURVE ( 'NONE', #76, #71, #107, .T. ) ;
#131 = ORIENTED_EDGE ( 'NONE', *, *, #106, .F. ) ;
#132 = CARTESIAN_POINT ( 'NONE',  ( 24.00000000000000000, 1.033457680668490057E-15, -5.088822372197629562 ) ) ;
#133 = DIRECTION ( 'NONE',  ( -0.9631721335644853887, 3.292898329860173298E-17, -0.2688855539534188432 ) ) ;
#134 = DIRECTION ( 'NONE',  ( 1.000000000000000000, 0.000000000000000000, 0.000000000000000000 ) ) ;
#135 = AXIS2_PLACEMENT_3D ( 'NONE', #209, #35, #117 ) ;
#136 = LINE ( 'NONE', #101, #191 ) ;
#137 = ADVANCED_FACE ( 'NONE', ( #214 ), #99, .F. ) ;
#138 = DIRECTION ( 'NONE',  ( 0.000000000000000000, 0.000000000000000000, -1.000000000000000000 ) ) ;
#139 = PERSON_AND_ORGANIZATION ( #78, #6 ) ;
#140 = CLOSED_SHELL ( 'NONE', ( #137, #5, #21, #47, #142, #29 ) ) ;
#141 = SECURITY_CLASSIFICATION ( '', '', #12 ) ;
#142 = ADVANCED_FACE ( 'NONE', ( #210 ), #63, .T. ) ;
#143 = ORIENTED_EDGE ( 'NONE', *, *, #179, .F. ) ;
#144 = EDGE_LOOP ( 'NONE', ( #143, #25 ) ) ;
#145 = PERSON_AND_ORGANIZATION ( #78, #6 ) ;
#146 = AXIS2_PLACEMENT_3D ( 'NONE', #185, #226, #32 ) ;
#147 = EDGE_LOOP ( 'NONE', ( #43, #165 ) ) ;
#148 = CC_DESIGN_PERSON_AND_ORGANIZATION_ASSIGNMENT ( #217, #166, ( #65 ) ) ;
#149 = CONICAL_SURFACE ( 'NONE', #163, 5.208924586296823200, 0.2722357862519088623 ) ;
#150 = APPLICATION_CONTEXT ( 'configuration controlled 3d designs of mechanical parts and assemblies' ) ;
#151 = EDGE_CURVE ( 'NONE', #218, #203, #225, .T. ) ;
#152 = DIRECTION ( 'NONE',  ( 0.000000000000000000, 0.000000000000000000, -1.000000000000000000 ) ) ;
#153 = CARTESIAN_POINT ( 'NONE',  ( 24.00000000000000000, 8.266365894244634333E-16, -6.750000000000000000 ) ) ;
#154 = CARTESIAN_POINT ( 'NONE',  ( 24.00000000000000000, 0.000000000000000000, 5.088822372197629562 ) ) ;
#155 = APPROVAL ( #170, 'UNSPECIFIED' ) ;
#156 = PLANE ( 'NONE',  #173 ) ;
#157 = VECTOR ( 'NONE', #102, 1000.000000000000114 ) ;
#158 = CIRCLE ( 'NONE', #219, 5.088822372197629562 ) ;
#159 = CC_DESIGN_APPROVAL ( #193, ( #169 ) ) ;
#160 = DIRECTION ( 'NONE',  ( -0.9631721335644853887, 0.000000000000000000, 0.2688855539534188432 ) ) ;
#161 = APPROVAL_DATE_TIME ( #222, #193 ) ;
#162 = VERTEX_POINT ( 'NONE', #154 ) ;
#163 = AXIS2_PLACEMENT_3D ( 'NONE', #2, #195, #19 ) ;
#164 = AXIS2_PLACEMENT_3D ( 'NONE', #231, #22, #66 ) ;
#165 = ORIENTED_EDGE ( 'NONE', *, *, #151, .F. ) ;
#166 = PERSON_AND_ORGANIZATION_ROLE ( 'design_owner' ) ;
#167 = CC_DESIGN_DATE_AND_TIME_ASSIGNMENT ( #52, #127, ( #141 ) ) ;
#168 =( NAMED_UNIT ( * ) SI_UNIT ( $, .STERADIAN. ) SOLID_ANGLE_UNIT ( ) );
#169 = PRODUCT_DEFINITION ( 'UNKNOWN', '', #200, #33 ) ;
#170 = APPROVAL_STATUS ( 'not_yet_approved' ) ;
#171 = ORIENTED_EDGE ( 'NONE', *, *, #184, .T. ) ;
#172 = APPROVAL_ROLE ( '' ) ;
#173 = AXIS2_PLACEMENT_3D ( 'NONE', #212, #62, #64 ) ;
#174 = CARTESIAN_POINT ( 'NONE',  ( 0.000000000000000000, 1.443714358382853435E-15, -11.78882237219763063 ) ) ;
#175 = DIRECTION ( 'NONE',  ( 0.000000000000000000, 0.000000000000000000, -1.000000000000000000 ) ) ;
#176 = DIRECTION ( 'NONE',  ( 0.000000000000000000, 0.000000000000000000, 1.000000000000000000 ) ) ;
#177 = CARTESIAN_POINT ( 'NONE',  ( 24.00000000000000000, 0.000000000000000000, 0.000000000000000000 ) ) ;
#178 = DIRECTION ( 'NONE',  ( 1.000000000000000000, 0.000000000000000000, 0.000000000000000000 ) ) ;
#179 = EDGE_CURVE ( 'NONE', #162, #74, #158, .T. ) ;
#180 = ORIENTED_EDGE ( 'NONE', *, *, #130, .T. ) ;
#181 = APPLICATION_PROTOCOL_DEFINITION ( 'international standard', 'config_control_design', 1994, #150 ) ;
#182 = CIRCLE ( 'NONE', #241, 5.088822372197629562 ) ;
#183 = AXIS2_PLACEMENT_3D ( 'NONE', #40, #232, #138 ) ;
#184 = EDGE_CURVE ( 'NONE', #247, #48, #213, .T. ) ;
#185 = CARTESIAN_POINT ( 'NONE',  ( 0.000000000000000000, 0.000000000000000000, 0.000000000000000000 ) ) ;
#186 = CALENDAR_DATE ( 2024, 11, 7 ) ;
#187 = AXIS2_PLACEMENT_3D ( 'NONE', #23, #197, #230 ) ;
#188 = CC_DESIGN_APPROVAL ( #15, ( #200 ) ) ;
#189 = ORIENTED_EDGE ( 'NONE', *, *, #115, .F. ) ;
#190 = LINE ( 'NONE', #60, #54 ) ;
#191 = VECTOR ( 'NONE', #160, 1000.000000000000114 ) ;
#192 = DIRECTION ( 'NONE',  ( 0.000000000000000000, 0.000000000000000000, -1.000000000000000000 ) ) ;
#193 = APPROVAL ( #243, 'UNSPECIFIED' ) ;
#194 = CARTESIAN_POINT ( 'NONE',  ( 24.00000000000000000, 0.000000000000000000, 0.000000000000000000 ) ) ;
#195 = DIRECTION ( 'NONE',  ( -1.000000000000000000, -0.000000000000000000, -0.000000000000000000 ) ) ;
#196 = EDGE_CURVE ( 'NONE', #74, #76, #190, .T. ) ;
#197 = DIRECTION ( 'NONE',  ( 1.000000000000000000, 0.000000000000000000, 0.000000000000000000 ) ) ;
#198 = ORIENTED_EDGE ( 'NONE', *, *, #111, .T. ) ;
#199 = EDGE_CURVE ( 'NONE', #247, #218, #84, .T. ) ;
#200 = PRODUCT_DEFINITION_FORMATION_WITH_SPECIFIED_SOURCE ( 'ANY', '', #65, .NOT_KNOWN. ) ;
#201 = PERSON_AND_ORGANIZATION_ROLE ( 'classification_officer' ) ;
#202 = APPROVAL_DATE_TIME ( #50, #15 ) ;
#203 = VERTEX_POINT ( 'NONE', #36 ) ;
#204 = CIRCLE ( 'NONE', #128, 6.750000000000000000 ) ;
#205 = CARTESIAN_POINT ( 'NONE',  ( 24.00000000000000000, 4.133182947122317167E-16, -6.750000000000000000 ) ) ;
#206 = FACE_OUTER_BOUND ( 'NONE', #51, .T. ) ;
#207 = CARTESIAN_POINT ( 'NONE',  ( 0.000000000000000000, 2.470724917279785085E-15, -13.44999999999999929 ) ) ;
#208 = VECTOR ( 'NONE', #133, 1000.000000000000114 ) ;
#209 = CARTESIAN_POINT ( 'NONE',  ( 24.00000000000000000, 0.000000000000000000, 0.000000000000000000 ) ) ;
#210 = FACE_OUTER_BOUND ( 'NONE', #124, .T. ) ;
#211 = SHAPE_DEFINITION_REPRESENTATION ( #58, #97 ) ;
#212 = CARTESIAN_POINT ( 'NONE',  ( 0.000000000000000000, 0.000000000000000000, 0.000000000000000000 ) ) ;
#213 = CIRCLE ( 'NONE', #135, 6.750000000000000000 ) ;
#214 = FACE_OUTER_BOUND ( 'NONE', #105, .T. ) ;
#215 = LINE ( 'NONE', #37, #157 ) ;
#216 = ORIENTED_EDGE ( 'NONE', *, *, #111, .F. ) ;
#217 = PERSON_AND_ORGANIZATION ( #78, #6 ) ;
#218 = VERTEX_POINT ( 'NONE', #207 ) ;
#219 = AXIS2_PLACEMENT_3D ( 'NONE', #20, #178, #152 ) ;
#220 = APPROVAL_PERSON_ORGANIZATION ( #114, #155, #172 ) ;
#221 = PERSON_AND_ORGANIZATION ( #78, #6 ) ;
#222 = DATE_AND_TIME ( #79, #26 ) ;
#223 = COORDINATED_UNIVERSAL_TIME_OFFSET ( 1, 0, .AHEAD. ) ;
#224 = ORIENTED_EDGE ( 'NONE', *, *, #196, .F. ) ;
#225 = CIRCLE ( 'NONE', #16, 13.44999999999999929 ) ;
#226 = DIRECTION ( 'NONE',  ( 1.000000000000000000, 0.000000000000000000, 0.000000000000000000 ) ) ;
#227 = ORIENTED_EDGE ( 'NONE', *, *, #38, .T. ) ;
#228 = APPROVAL_DATE_TIME ( #96, #155 ) ;
#229 = AXIS2_PLACEMENT_3D ( 'NONE', #110, #72, #92 ) ;
#230 = DIRECTION ( 'NONE',  ( 0.000000000000000000, 0.000000000000000000, -1.000000000000000000 ) ) ;
#231 = CARTESIAN_POINT ( 'NONE',  ( 23.56978311367453216, 0.000000000000000000, 0.000000000000000000 ) ) ;
#232 = DIRECTION ( 'NONE',  ( 1.000000000000000000, 0.000000000000000000, 0.000000000000000000 ) ) ;
#233 = CARTESIAN_POINT ( 'NONE',  ( 0.000000000000000000, 0.000000000000000000, 11.78882237219763063 ) ) ;
#234 = CARTESIAN_POINT ( 'NONE',  ( 0.000000000000000000, 0.000000000000000000, 0.000000000000000000 ) ) ;
#235 = APPLICATION_PROTOCOL_DEFINITION ( 'international standard', 'config_control_design', 1994, #108 ) ;
#236 = ORIENTED_EDGE ( 'NONE', *, *, #115, .T. ) ;
#237 = UNCERTAINTY_MEASURE_WITH_UNIT (LENGTH_MEASURE( 1.000000000000000082E-05 ), #49, 'distance_accuracy_value', 'NONE');
#238 = ORIENTED_EDGE ( 'NONE', *, *, #179, .T. ) ;
#239 = DATE_AND_TIME ( #14, #248 ) ;
#240 = EDGE_CURVE ( 'NONE', #203, #218, #73, .T. ) ;
#241 = AXIS2_PLACEMENT_3D ( 'NONE', #83, #39, #122 ) ;
#242 = APPROVAL_ROLE ( '' ) ;
#243 = APPROVAL_STATUS ( 'not_yet_approved' ) ;
#244 = ORIENTED_EDGE ( 'NONE', *, *, #121, .F. ) ;
#245 = AXIS2_PLACEMENT_3D ( 'NONE', #234, #119, #175 ) ;
#246 = CC_DESIGN_PERSON_AND_ORGANIZATION_ASSIGNMENT ( #77, #201, ( #141 ) ) ;
#247 = VERTEX_POINT ( 'NONE', #205 ) ;
#248 = LOCAL_TIME ( 12, 16, 19.00000000000000000, #223 ) ;
#249 = DIRECTION ( 'NONE',  ( 0.000000000000000000, 0.000000000000000000, -1.000000000000000000 ) ) ;
ENDSEC;
END-ISO-10303-21;
