ISO-10303-21;
HEADER;
FILE_DESCRIPTION (( 'STEP AP203' ),
    '1' );
FILE_NAME ('3D_R245_84_17386320.STEP',
    '2024-08-06T09:40:20',
    ( '' ),
    ( '' ),
    'SwSTEP 2.0',
    'SolidWorks 2024',
    '' );
FILE_SCHEMA (( 'CONFIG_CONTROL_DESIGN' ));
ENDSEC;

DATA;
#1 = EDGE_CURVE ( 'NONE', #143, #184, #209, .T. ) ;
#2 = ADVANCED_FACE ( 'NONE', ( #13 ), #111, .T. ) ;
#3 = CC_DESIGN_APPROVAL ( #59, ( #27 ) ) ;
#4 = DIRECTION ( 'NONE',  ( 0.000000000000000000, 0.000000000000000000, 1.000000000000000000 ) ) ;
#5 = DIRECTION ( 'NONE',  ( 0.000000000000000000, 0.000000000000000000, 1.000000000000000000 ) ) ;
#6 = PRODUCT_RELATED_PRODUCT_CATEGORY ( 'detail', '', ( #175 ) ) ;
#7 = AXIS2_PLACEMENT_3D ( 'NONE', #70, #240, #4 ) ;
#8 = CARTESIAN_POINT ( 'NONE',  ( 0.000000000000000000, 4.000000000000000000, 0.000000000000000000 ) ) ;
#9 = DIRECTION ( 'NONE',  ( -0.000000000000000000, -1.000000000000000000, -0.000000000000000000 ) ) ;
#10 = APPLICATION_PROTOCOL_DEFINITION ( 'international standard', 'config_control_design', 1994, #178 ) ;
#11 = CC_DESIGN_DATE_AND_TIME_ASSIGNMENT ( #188, #228, ( #27 ) ) ;
#12 = CARTESIAN_POINT ( 'NONE',  ( 5.204748896376252474E-15, 0.000000000000000000, 42.50000000000000711 ) ) ;
#13 = FACE_OUTER_BOUND ( 'NONE', #36, .T. ) ;
#14 = ORIENTED_EDGE ( 'NONE', *, *, #212, .F. ) ;
#15 = PERSON_AND_ORGANIZATION_ROLE ( 'creator' ) ;
#16 = CARTESIAN_POINT ( 'NONE',  ( 0.000000000000000000, 0.000000000000000000, -92.50000000000000000 ) ) ;
#17 = PERSON_AND_ORGANIZATION ( #234, #168 ) ;
#18 = DIRECTION ( 'NONE',  ( 0.000000000000000000, 0.000000000000000000, 1.000000000000000000 ) ) ;
#19 = AXIS2_PLACEMENT_3D ( 'NONE', #138, #241, #199 ) ;
#20 = ORIENTED_EDGE ( 'NONE', *, *, #1, .F. ) ;
#21 = AXIS2_PLACEMENT_3D ( 'NONE', #98, #120, #83 ) ;
#22 = AXIS2_PLACEMENT_3D ( 'NONE', #129, #79, #18 ) ;
#23 = CARTESIAN_POINT ( 'NONE',  ( 0.000000000000000000, 4.000000000000000000, 0.000000000000000000 ) ) ;
#24 = FACE_BOUND ( 'NONE', #217, .T. ) ;
#25 = AXIS2_PLACEMENT_3D ( 'NONE', #45, #177, #238 ) ;
#26 = LINE ( 'NONE', #105, #154 ) ;
#27 = PRODUCT_DEFINITION ( 'UNKNOWN', '', #63, #202 ) ;
#28 = APPROVAL_ROLE ( '' ) ;
#29 = FACE_OUTER_BOUND ( 'NONE', #149, .T. ) ;
#30 = CIRCLE ( 'NONE', #247, 92.50000000000000000 ) ;
#31 = PERSON_AND_ORGANIZATION ( #234, #168 ) ;
#32 = CLOSED_SHELL ( 'NONE', ( #156, #2, #41, #159, #75, #89 ) ) ;
#33 = VERTEX_POINT ( 'NONE', #12 ) ;
#34 = APPROVAL ( #56, 'UNSPECIFIED' ) ;
#35 = PERSON_AND_ORGANIZATION_ROLE ( 'design_owner' ) ;
#36 = EDGE_LOOP ( 'NONE', ( #246, #191, #207, #151 ) ) ;
#37 = DIRECTION ( 'NONE',  ( -0.000000000000000000, -1.000000000000000000, -0.000000000000000000 ) ) ;
#38 = COORDINATED_UNIVERSAL_TIME_OFFSET ( 1, 0, .AHEAD. ) ;
#39 = VERTEX_POINT ( 'NONE', #16 ) ;
#40 = APPROVAL_PERSON_ORGANIZATION ( #208, #152, #206 ) ;
#41 = ADVANCED_FACE ( 'NONE', ( #95, #203 ), #211, .T. ) ;
#42 = CIRCLE ( 'NONE', #102, 42.50000000000000711 ) ;
#43 = DIRECTION ( 'NONE',  ( 0.000000000000000000, 1.000000000000000000, 0.000000000000000000 ) ) ;
#44 = EDGE_CURVE ( 'NONE', #143, #88, #239, .T. ) ;
#45 = CARTESIAN_POINT ( 'NONE',  ( 0.000000000000000000, 4.000000000000000000, 0.000000000000000000 ) ) ;
#46 = FACE_OUTER_BOUND ( 'NONE', #124, .T. ) ;
#47 = EDGE_CURVE ( 'NONE', #55, #39, #233, .T. ) ;
#48 = APPROVAL_DATE_TIME ( #166, #34 ) ;
#49 = DIRECTION ( 'NONE',  ( 0.000000000000000000, 1.000000000000000000, 0.000000000000000000 ) ) ;
#50 = CC_DESIGN_PERSON_AND_ORGANIZATION_ASSIGNMENT ( #31, #53, ( #216 ) ) ;
#51 = APPROVAL_DATE_TIME ( #92, #152 ) ;
#52 = VERTEX_POINT ( 'NONE', #128 ) ;
#53 = PERSON_AND_ORGANIZATION_ROLE ( 'classification_officer' ) ;
#54 = APPLICATION_CONTEXT ( 'configuration controlled 3d designs of mechanical parts and assemblies' ) ;
#55 = VERTEX_POINT ( 'NONE', #80 ) ;
#56 = APPROVAL_STATUS ( 'not_yet_approved' ) ;
#57 = ORIENTED_EDGE ( 'NONE', *, *, #181, .F. ) ;
#58 = CARTESIAN_POINT ( 'NONE',  ( 0.000000000000000000, 4.000000000000000000, 0.000000000000000000 ) ) ;
#59 = APPROVAL ( #73, 'UNSPECIFIED' ) ;
#60 = CC_DESIGN_SECURITY_CLASSIFICATION ( #216, ( #63 ) ) ;
#61 = CC_DESIGN_DATE_AND_TIME_ASSIGNMENT ( #90, #125, ( #216 ) ) ;
#62 = EDGE_LOOP ( 'NONE', ( #57, #110, #147, #14 ) ) ;
#63 = PRODUCT_DEFINITION_FORMATION_WITH_SPECIFIED_SOURCE ( 'ANY', '', #175, .NOT_KNOWN. ) ;
#64 = EDGE_LOOP ( 'NONE', ( #213, #232 ) ) ;
#65 = MECHANICAL_CONTEXT ( 'NONE', #178, 'mechanical' ) ;
#66 = CIRCLE ( 'NONE', #96, 42.50000000000000711 ) ;
#67 = AXIS2_PLACEMENT_3D ( 'NONE', #58, #37, #187 ) ;
#68 = DIRECTION ( 'NONE',  ( -0.000000000000000000, -1.000000000000000000, -0.000000000000000000 ) ) ;
#69 = CC_DESIGN_PERSON_AND_ORGANIZATION_ASSIGNMENT ( #185, #123, ( #63 ) ) ;
#70 = CARTESIAN_POINT ( 'NONE',  ( 0.000000000000000000, 4.000000000000000000, 0.000000000000000000 ) ) ;
#71 = PERSON_AND_ORGANIZATION ( #234, #168 ) ;
#72 = DIRECTION ( 'NONE',  ( 0.000000000000000000, 0.000000000000000000, -1.000000000000000000 ) ) ;
#73 = APPROVAL_STATUS ( 'not_yet_approved' ) ;
#74 = CARTESIAN_POINT ( 'NONE',  ( 5.204748896376252474E-15, 4.000000000000000000, 42.50000000000000711 ) ) ;
#75 = ADVANCED_FACE ( 'NONE', ( #29 ), #106, .T. ) ;
#76 =( GEOMETRIC_REPRESENTATION_CONTEXT ( 3 ) GLOBAL_UNCERTAINTY_ASSIGNED_CONTEXT ( ( #227 ) ) GLOBAL_UNIT_ASSIGNED_CONTEXT ( ( #158, #157, #195 ) ) REPRESENTATION_CONTEXT ( 'NONE', 'WORKASPACE' ) );
#77 = COORDINATED_UNIVERSAL_TIME_OFFSET ( 1, 0, .AHEAD. ) ;
#78 = ORIENTED_EDGE ( 'NONE', *, *, #47, .T. ) ;
#79 = DIRECTION ( 'NONE',  ( 0.000000000000000000, 1.000000000000000000, 0.000000000000000000 ) ) ;
#80 = CARTESIAN_POINT ( 'NONE',  ( 0.000000000000000000, 4.000000000000000000, -92.50000000000000000 ) ) ;
#81 = ADVANCED_BREP_SHAPE_REPRESENTATION ( '3D_R245_84_17386320', ( #150, #19 ), #76 ) ;
#82 = EDGE_CURVE ( 'NONE', #184, #33, #42, .T. ) ;
#83 = DIRECTION ( 'NONE',  ( 0.000000000000000000, -0.000000000000000000, 1.000000000000000000 ) ) ;
#84 = CIRCLE ( 'NONE', #144, 92.50000000000000000 ) ;
#85 = CARTESIAN_POINT ( 'NONE',  ( 1.132798289211301698E-14, 0.000000000000000000, 92.50000000000000000 ) ) ;
#86 = CARTESIAN_POINT ( 'NONE',  ( 0.000000000000000000, 4.000000000000000000, 0.000000000000000000 ) ) ;
#87 = APPROVAL_ROLE ( '' ) ;
#88 = VERTEX_POINT ( 'NONE', #74 ) ;
#89 = ADVANCED_FACE ( 'NONE', ( #114 ), #193, .F. ) ;
#90 = DATE_AND_TIME ( #169, #104 ) ;
#91 = ORIENTED_EDGE ( 'NONE', *, *, #97, .T. ) ;
#92 = DATE_AND_TIME ( #225, #176 ) ;
#93 = DIRECTION ( 'NONE',  ( 0.000000000000000000, 1.000000000000000000, 0.000000000000000000 ) ) ;
#94 = CALENDAR_DATE ( 2024, 6, 8 ) ;
#95 = FACE_OUTER_BOUND ( 'NONE', #64, .T. ) ;
#96 = AXIS2_PLACEMENT_3D ( 'NONE', #137, #197, #103 ) ;
#97 = EDGE_CURVE ( 'NONE', #39, #171, #192, .T. ) ;
#98 = CARTESIAN_POINT ( 'NONE',  ( 0.000000000000000000, 0.000000000000000000, 0.000000000000000000 ) ) ;
#99 = CC_DESIGN_APPROVAL ( #152, ( #63 ) ) ;
#100 = CARTESIAN_POINT ( 'NONE',  ( 5.204748896376252474E-15, 4.000000000000000000, 42.50000000000000711 ) ) ;
#101 = DIRECTION ( 'NONE',  ( 0.000000000000000000, 0.000000000000000000, 1.000000000000000000 ) ) ;
#102 = AXIS2_PLACEMENT_3D ( 'NONE', #141, #49, #245 ) ;
#103 = DIRECTION ( 'NONE',  ( 0.000000000000000000, 0.000000000000000000, 1.000000000000000000 ) ) ;
#104 = LOCAL_TIME ( 11, 40, 20.00000000000000000, #77 ) ;
#105 = CARTESIAN_POINT ( 'NONE',  ( 1.132798289211301698E-14, 4.000000000000000000, 92.50000000000000000 ) ) ;
#106 = CYLINDRICAL_SURFACE ( 'NONE', #174, 92.50000000000000000 ) ;
#107 = APPROVAL_STATUS ( 'not_yet_approved' ) ;
#108 = DIRECTION ( 'NONE',  ( -0.000000000000000000, -1.000000000000000000, -0.000000000000000000 ) ) ;
#109 = PERSON_AND_ORGANIZATION_ROLE ( 'creator' ) ;
#110 = ORIENTED_EDGE ( 'NONE', *, *, #190, .T. ) ;
#111 = CYLINDRICAL_SURFACE ( 'NONE', #67, 92.50000000000000000 ) ;
#112 = APPLICATION_PROTOCOL_DEFINITION ( 'international standard', 'config_control_design', 1994, #54 ) ;
#113 = CARTESIAN_POINT ( 'NONE',  ( 0.000000000000000000, 4.000000000000000000, -42.50000000000000711 ) ) ;
#114 = FACE_OUTER_BOUND ( 'NONE', #62, .T. ) ;
#115 = AXIS2_PLACEMENT_3D ( 'NONE', #222, #9, #118 ) ;
#116 = CC_DESIGN_PERSON_AND_ORGANIZATION_ASSIGNMENT ( #243, #35, ( #175 ) ) ;
#117 = CYLINDRICAL_SURFACE ( 'NONE', #115, 42.50000000000000711 ) ;
#118 = DIRECTION ( 'NONE',  ( 0.000000000000000000, 0.000000000000000000, -1.000000000000000000 ) ) ;
#119 = LINE ( 'NONE', #100, #230 ) ;
#120 = DIRECTION ( 'NONE',  ( 0.000000000000000000, 1.000000000000000000, 0.000000000000000000 ) ) ;
#121 = SHAPE_DEFINITION_REPRESENTATION ( #132, #81 ) ;
#122 = EDGE_CURVE ( 'NONE', #171, #39, #84, .T. ) ;
#123 = PERSON_AND_ORGANIZATION_ROLE ( 'design_supplier' ) ;
#124 = EDGE_LOOP ( 'NONE', ( #126, #164, #215, #20 ) ) ;
#125 = DATE_TIME_ROLE ( 'classification_date' ) ;
#126 = ORIENTED_EDGE ( 'NONE', *, *, #44, .T. ) ;
#127 = ORIENTED_EDGE ( 'NONE', *, *, #97, .F. ) ;
#128 = CARTESIAN_POINT ( 'NONE',  ( 1.132798289211301698E-14, 4.000000000000000000, 92.50000000000000000 ) ) ;
#129 = CARTESIAN_POINT ( 'NONE',  ( 0.000000000000000000, 4.000000000000000000, 0.000000000000000000 ) ) ;
#130 = LOCAL_TIME ( 11, 40, 20.00000000000000000, #183 ) ;
#131 = EDGE_CURVE ( 'NONE', #55, #52, #30, .T. ) ;
#132 = PRODUCT_DEFINITION_SHAPE ( 'NONE', 'NONE',  #27 ) ;
#133 = DIRECTION ( 'NONE',  ( -0.000000000000000000, -1.000000000000000000, -0.000000000000000000 ) ) ;
#134 = EDGE_LOOP ( 'NONE', ( #189, #161 ) ) ;
#135 = DIRECTION ( 'NONE',  ( -0.000000000000000000, -1.000000000000000000, -0.000000000000000000 ) ) ;
#136 = VECTOR ( 'NONE', #108, 1000.000000000000000 ) ;
#137 = CARTESIAN_POINT ( 'NONE',  ( 0.000000000000000000, 0.000000000000000000, 0.000000000000000000 ) ) ;
#138 = CARTESIAN_POINT ( 'NONE',  ( 0.000000000000000000, 0.000000000000000000, 0.000000000000000000 ) ) ;
#139 = PERSON_AND_ORGANIZATION ( #234, #168 ) ;
#140 = LOCAL_TIME ( 11, 40, 20.00000000000000000, #231 ) ;
#141 = CARTESIAN_POINT ( 'NONE',  ( 0.000000000000000000, 0.000000000000000000, 0.000000000000000000 ) ) ;
#142 = APPROVAL_DATE_TIME ( #210, #59 ) ;
#143 = VERTEX_POINT ( 'NONE', #153 ) ;
#144 = AXIS2_PLACEMENT_3D ( 'NONE', #180, #43, #5 ) ;
#145 = VECTOR ( 'NONE', #226, 1000.000000000000000 ) ;
#146 = CALENDAR_DATE ( 2024, 6, 8 ) ;
#147 = ORIENTED_EDGE ( 'NONE', *, *, #1, .T. ) ;
#148 = COORDINATED_UNIVERSAL_TIME_OFFSET ( 1, 0, .AHEAD. ) ;
#149 = EDGE_LOOP ( 'NONE', ( #167, #186, #78, #91 ) ) ;
#150 = MANIFOLD_SOLID_BREP ( 'Aufsatz-Linear austragen1', #32 ) ;
#151 = ORIENTED_EDGE ( 'NONE', *, *, #47, .F. ) ;
#152 = APPROVAL ( #107, 'UNSPECIFIED' ) ;
#153 = CARTESIAN_POINT ( 'NONE',  ( 0.000000000000000000, 4.000000000000000000, -42.50000000000000711 ) ) ;
#154 = VECTOR ( 'NONE', #68, 1000.000000000000000 ) ;
#155 = CC_DESIGN_APPROVAL ( #34, ( #216 ) ) ;
#156 = ADVANCED_FACE ( 'NONE', ( #46 ), #117, .F. ) ;
#157 =( NAMED_UNIT ( * ) PLANE_ANGLE_UNIT ( ) SI_UNIT ( $, .RADIAN. ) );
#158 =( LENGTH_UNIT ( ) NAMED_UNIT ( * ) SI_UNIT ( .MILLI., .METRE. ) );
#159 = ADVANCED_FACE ( 'NONE', ( #242, #24 ), #179, .F. ) ;
#160 = DIRECTION ( 'NONE',  ( 0.000000000000000000, 1.000000000000000000, 0.000000000000000000 ) ) ;
#161 = ORIENTED_EDGE ( 'NONE', *, *, #190, .F. ) ;
#162 = CARTESIAN_POINT ( 'NONE',  ( 0.000000000000000000, 4.000000000000000000, -92.50000000000000000 ) ) ;
#163 = CALENDAR_DATE ( 2024, 6, 8 ) ;
#164 = ORIENTED_EDGE ( 'NONE', *, *, #181, .T. ) ;
#165 = CIRCLE ( 'NONE', #7, 42.50000000000000711 ) ;
#166 = DATE_AND_TIME ( #163, #130 ) ;
#167 = ORIENTED_EDGE ( 'NONE', *, *, #219, .F. ) ;
#168 = ORGANIZATION ( 'UNSPECIFIED', 'UNSPECIFIED', '' ) ;
#169 = CALENDAR_DATE ( 2024, 6, 8 ) ;
#170 = EDGE_LOOP ( 'NONE', ( #127, #229 ) ) ;
#171 = VERTEX_POINT ( 'NONE', #85 ) ;
#172 = EDGE_CURVE ( 'NONE', #52, #55, #173, .T. ) ;
#173 = CIRCLE ( 'NONE', #25, 92.50000000000000000 ) ;
#174 = AXIS2_PLACEMENT_3D ( 'NONE', #86, #244, #72 ) ;
#175 = PRODUCT ( '3D_R245_84_17386320', '3D_R245_84_17386320', '', ( #65 ) ) ;
#176 = LOCAL_TIME ( 11, 40, 20.00000000000000000, #148 ) ;
#177 = DIRECTION ( 'NONE',  ( 0.000000000000000000, 1.000000000000000000, 0.000000000000000000 ) ) ;
#178 = APPLICATION_CONTEXT ( 'configuration controlled 3d designs of mechanical parts and assemblies' ) ;
#179 = PLANE ( 'NONE',  #21 ) ;
#180 = CARTESIAN_POINT ( 'NONE',  ( 0.000000000000000000, 0.000000000000000000, 0.000000000000000000 ) ) ;
#181 = EDGE_CURVE ( 'NONE', #88, #33, #119, .T. ) ;
#182 = ORIENTED_EDGE ( 'NONE', *, *, #82, .T. ) ;
#183 = COORDINATED_UNIVERSAL_TIME_OFFSET ( 1, 0, .AHEAD. ) ;
#184 = VERTEX_POINT ( 'NONE', #194 ) ;
#185 = PERSON_AND_ORGANIZATION ( #234, #168 ) ;
#186 = ORIENTED_EDGE ( 'NONE', *, *, #131, .F. ) ;
#187 = DIRECTION ( 'NONE',  ( 0.000000000000000000, 0.000000000000000000, -1.000000000000000000 ) ) ;
#188 = DATE_AND_TIME ( #94, #140 ) ;
#189 = ORIENTED_EDGE ( 'NONE', *, *, #44, .F. ) ;
#190 = EDGE_CURVE ( 'NONE', #88, #143, #165, .T. ) ;
#191 = ORIENTED_EDGE ( 'NONE', *, *, #219, .T. ) ;
#192 = CIRCLE ( 'NONE', #204, 92.50000000000000000 ) ;
#193 = CYLINDRICAL_SURFACE ( 'NONE', #214, 42.50000000000000711 ) ;
#194 = CARTESIAN_POINT ( 'NONE',  ( 0.000000000000000000, 0.000000000000000000, -42.50000000000000711 ) ) ;
#195 =( NAMED_UNIT ( * ) SI_UNIT ( $, .STERADIAN. ) SOLID_ANGLE_UNIT ( ) );
#196 = DIRECTION ( 'NONE',  ( 0.000000000000000000, 0.000000000000000000, -1.000000000000000000 ) ) ;
#197 = DIRECTION ( 'NONE',  ( 0.000000000000000000, 1.000000000000000000, 0.000000000000000000 ) ) ;
#198 = CC_DESIGN_PERSON_AND_ORGANIZATION_ASSIGNMENT ( #17, #109, ( #63 ) ) ;
#199 = DIRECTION ( 'NONE',  ( 1.000000000000000000, 0.000000000000000000, 0.000000000000000000 ) ) ;
#200 = APPROVAL_PERSON_ORGANIZATION ( #139, #34, #28 ) ;
#201 = PERSON_AND_ORGANIZATION ( #234, #168 ) ;
#202 = DESIGN_CONTEXT ( 'detailed design', #54, 'design' ) ;
#203 = FACE_BOUND ( 'NONE', #134, .T. ) ;
#204 = AXIS2_PLACEMENT_3D ( 'NONE', #220, #221, #101 ) ;
#205 = AXIS2_PLACEMENT_3D ( 'NONE', #249, #93, #248 ) ;
#206 = APPROVAL_ROLE ( '' ) ;
#207 = ORIENTED_EDGE ( 'NONE', *, *, #122, .T. ) ;
#208 = PERSON_AND_ORGANIZATION ( #234, #168 ) ;
#209 = LINE ( 'NONE', #113, #136 ) ;
#210 = DATE_AND_TIME ( #146, #224 ) ;
#211 = PLANE ( 'NONE',  #205 ) ;
#212 = EDGE_CURVE ( 'NONE', #33, #184, #66, .T. ) ;
#213 = ORIENTED_EDGE ( 'NONE', *, *, #131, .T. ) ;
#214 = AXIS2_PLACEMENT_3D ( 'NONE', #23, #135, #196 ) ;
#215 = ORIENTED_EDGE ( 'NONE', *, *, #82, .F. ) ;
#216 = SECURITY_CLASSIFICATION ( '', '', #223 ) ;
#217 = EDGE_LOOP ( 'NONE', ( #182, #235 ) ) ;
#218 = DIRECTION ( 'NONE',  ( 0.000000000000000000, 0.000000000000000000, 1.000000000000000000 ) ) ;
#219 = EDGE_CURVE ( 'NONE', #52, #171, #26, .T. ) ;
#220 = CARTESIAN_POINT ( 'NONE',  ( 0.000000000000000000, 0.000000000000000000, 0.000000000000000000 ) ) ;
#221 = DIRECTION ( 'NONE',  ( 0.000000000000000000, 1.000000000000000000, 0.000000000000000000 ) ) ;
#222 = CARTESIAN_POINT ( 'NONE',  ( 0.000000000000000000, 4.000000000000000000, 0.000000000000000000 ) ) ;
#223 = SECURITY_CLASSIFICATION_LEVEL ( 'unclassified' ) ;
#224 = LOCAL_TIME ( 11, 40, 20.00000000000000000, #38 ) ;
#225 = CALENDAR_DATE ( 2024, 6, 8 ) ;
#226 = DIRECTION ( 'NONE',  ( -0.000000000000000000, -1.000000000000000000, -0.000000000000000000 ) ) ;
#227 = UNCERTAINTY_MEASURE_WITH_UNIT (LENGTH_MEASURE( 1.000000000000000082E-05 ), #158, 'distance_accuracy_value', 'NONE');
#228 = DATE_TIME_ROLE ( 'creation_date' ) ;
#229 = ORIENTED_EDGE ( 'NONE', *, *, #122, .F. ) ;
#230 = VECTOR ( 'NONE', #133, 1000.000000000000000 ) ;
#231 = COORDINATED_UNIVERSAL_TIME_OFFSET ( 1, 0, .AHEAD. ) ;
#232 = ORIENTED_EDGE ( 'NONE', *, *, #172, .T. ) ;
#233 = LINE ( 'NONE', #162, #145 ) ;
#234 = PERSON ( 'UNSPECIFIED', 'UNSPECIFIED', 'UNSPECIFIED', ('UNSPECIFIED'), ('UNSPECIFIED'), ('UNSPECIFIED') ) ;
#235 = ORIENTED_EDGE ( 'NONE', *, *, #212, .T. ) ;
#236 = APPROVAL_PERSON_ORGANIZATION ( #201, #59, #87 ) ;
#237 = CC_DESIGN_PERSON_AND_ORGANIZATION_ASSIGNMENT ( #71, #15, ( #27 ) ) ;
#238 = DIRECTION ( 'NONE',  ( 0.000000000000000000, 0.000000000000000000, 1.000000000000000000 ) ) ;
#239 = CIRCLE ( 'NONE', #22, 42.50000000000000711 ) ;
#240 = DIRECTION ( 'NONE',  ( 0.000000000000000000, 1.000000000000000000, 0.000000000000000000 ) ) ;
#241 = DIRECTION ( 'NONE',  ( 0.000000000000000000, 0.000000000000000000, 1.000000000000000000 ) ) ;
#242 = FACE_OUTER_BOUND ( 'NONE', #170, .T. ) ;
#243 = PERSON_AND_ORGANIZATION ( #234, #168 ) ;
#244 = DIRECTION ( 'NONE',  ( -0.000000000000000000, -1.000000000000000000, -0.000000000000000000 ) ) ;
#245 = DIRECTION ( 'NONE',  ( 0.000000000000000000, 0.000000000000000000, 1.000000000000000000 ) ) ;
#246 = ORIENTED_EDGE ( 'NONE', *, *, #172, .F. ) ;
#247 = AXIS2_PLACEMENT_3D ( 'NONE', #8, #160, #218 ) ;
#248 = DIRECTION ( 'NONE',  ( 0.000000000000000000, -0.000000000000000000, 1.000000000000000000 ) ) ;
#249 = CARTESIAN_POINT ( 'NONE',  ( 0.000000000000000000, 4.000000000000000000, 0.000000000000000000 ) ) ;
ENDSEC;
END-ISO-10303-21;
