ISO-10303-21;
HEADER;
FILE_DESCRIPTION (( 'STEP AP203' ),
    '1' );
FILE_NAME ('3D_R245_48.3x4_17386120.STEP',
    '2024-08-06T09:31:14',
    ( '' ),
    ( '' ),
    'SwSTEP 2.0',
    'SolidWorks 2024',
    '' );
FILE_SCHEMA (( 'CONFIG_CONTROL_DESIGN' ));
ENDSEC;

DATA;
#1 = PERSON_AND_ORGANIZATION ( #44, #130 ) ;
#2 = ORIENTED_EDGE ( 'NONE', *, *, #84, .F. ) ;
#3 = EDGE_CURVE ( 'NONE', #192, #5, #148, .T. ) ;
#4 = COORDINATED_UNIVERSAL_TIME_OFFSET ( 1, 0, .AHEAD. ) ;
#5 = VERTEX_POINT ( 'NONE', #144 ) ;
#6 = ORIENTED_EDGE ( 'NONE', *, *, #67, .F. ) ;
#7 = DIRECTION ( 'NONE',  ( -0.000000000000000000, -1.000000000000000000, -0.000000000000000000 ) ) ;
#8 = FACE_OUTER_BOUND ( 'NONE', #23, .T. ) ;
#9 = DIRECTION ( 'NONE',  ( 0.000000000000000000, 1.000000000000000000, 0.000000000000000000 ) ) ;
#10 = CC_DESIGN_PERSON_AND_ORGANIZATION_ASSIGNMENT ( #1, #137, ( #218 ) ) ;
#11 = CYLINDRICAL_SURFACE ( 'NONE', #25, 74.50000000000000000 ) ;
#12 = APPLICATION_PROTOCOL_DEFINITION ( 'international standard', 'config_control_design', 1994, #57 ) ;
#13 = LOCAL_TIME ( 11, 31, 14.00000000000000000, #176 ) ;
#14 = AXIS2_PLACEMENT_3D ( 'NONE', #60, #59, #186 ) ;
#15 = EDGE_CURVE ( 'NONE', #147, #5, #73, .T. ) ;
#16 = PERSON_AND_ORGANIZATION ( #44, #130 ) ;
#17 = AXIS2_PLACEMENT_3D ( 'NONE', #110, #239, #240 ) ;
#18 = PRODUCT_RELATED_PRODUCT_CATEGORY ( 'detail', '', ( #142 ) ) ;
#19 = APPROVAL_DATE_TIME ( #98, #75 ) ;
#20 = ORIENTED_EDGE ( 'NONE', *, *, #179, .F. ) ;
#21 = CALENDAR_DATE ( 2024, 6, 8 ) ;
#22 = PERSON_AND_ORGANIZATION ( #44, #130 ) ;
#23 = EDGE_LOOP ( 'NONE', ( #194, #161, #40, #66 ) ) ;
#24 = MANIFOLD_SOLID_BREP ( 'Aufsatz-Linear austragen1', #246 ) ;
#25 = AXIS2_PLACEMENT_3D ( 'NONE', #197, #92, #49 ) ;
#26 = PRODUCT_DEFINITION_SHAPE ( 'NONE', 'NONE',  #233 ) ;
#27 = ORIENTED_EDGE ( 'NONE', *, *, #229, .F. ) ;
#28 = SECURITY_CLASSIFICATION ( '', '', #80 ) ;
#29 = CARTESIAN_POINT ( 'NONE',  ( 0.000000000000000000, 4.000000000000000000, 0.000000000000000000 ) ) ;
#30 = CARTESIAN_POINT ( 'NONE',  ( 0.000000000000000000, 4.000000000000000000, 0.000000000000000000 ) ) ;
#31 = CARTESIAN_POINT ( 'NONE',  ( 0.000000000000000000, 0.000000000000000000, 0.000000000000000000 ) ) ;
#32 = CARTESIAN_POINT ( 'NONE',  ( 0.000000000000000000, 4.000000000000000000, 0.000000000000000000 ) ) ;
#33 = UNCERTAINTY_MEASURE_WITH_UNIT (LENGTH_MEASURE( 1.000000000000000082E-05 ), #206, 'distance_accuracy_value', 'NONE');
#34 = APPROVAL_PERSON_ORGANIZATION ( #99, #223, #174 ) ;
#35 = FACE_BOUND ( 'NONE', #106, .T. ) ;
#36 = CARTESIAN_POINT ( 'NONE',  ( 3.000384657911015469E-15, 4.000000000000000000, 24.50000000000000000 ) ) ;
#37 = CIRCLE ( 'NONE', #53, 24.50000000000000000 ) ;
#38 = APPROVAL_STATUS ( 'not_yet_approved' ) ;
#39 = APPROVAL_PERSON_ORGANIZATION ( #138, #75, #207 ) ;
#40 = ORIENTED_EDGE ( 'NONE', *, *, #15, .T. ) ;
#41 = LOCAL_TIME ( 11, 31, 14.00000000000000000, #4 ) ;
#42 = DATE_AND_TIME ( #158, #118 ) ;
#43 = ORIENTED_EDGE ( 'NONE', *, *, #84, .T. ) ;
#44 = PERSON ( 'UNSPECIFIED', 'UNSPECIFIED', 'UNSPECIFIED', ('UNSPECIFIED'), ('UNSPECIFIED'), ('UNSPECIFIED') ) ;
#45 = ORIENTED_EDGE ( 'NONE', *, *, #113, .F. ) ;
#46 = CC_DESIGN_APPROVAL ( #223, ( #233 ) ) ;
#47 = VERTEX_POINT ( 'NONE', #54 ) ;
#48 = EDGE_CURVE ( 'NONE', #147, #211, #189, .T. ) ;
#49 = DIRECTION ( 'NONE',  ( 0.000000000000000000, 0.000000000000000000, -1.000000000000000000 ) ) ;
#50 = DIRECTION ( 'NONE',  ( 0.000000000000000000, 1.000000000000000000, 0.000000000000000000 ) ) ;
#51 = EDGE_CURVE ( 'NONE', #81, #47, #237, .T. ) ;
#52 = ORIENTED_EDGE ( 'NONE', *, *, #153, .T. ) ;
#53 = AXIS2_PLACEMENT_3D ( 'NONE', #183, #50, #185 ) ;
#54 = CARTESIAN_POINT ( 'NONE',  ( 0.000000000000000000, 4.000000000000000000, -74.50000000000000000 ) ) ;
#55 = DIRECTION ( 'NONE',  ( 0.000000000000000000, 0.000000000000000000, 1.000000000000000000 ) ) ;
#56 = AXIS2_PLACEMENT_3D ( 'NONE', #201, #164, #199 ) ;
#57 = APPLICATION_CONTEXT ( 'configuration controlled 3d designs of mechanical parts and assemblies' ) ;
#58 =( NAMED_UNIT ( * ) SI_UNIT ( $, .STERADIAN. ) SOLID_ANGLE_UNIT ( ) );
#59 = DIRECTION ( 'NONE',  ( 0.000000000000000000, 1.000000000000000000, 0.000000000000000000 ) ) ;
#60 = CARTESIAN_POINT ( 'NONE',  ( 0.000000000000000000, 0.000000000000000000, 0.000000000000000000 ) ) ;
#61 = CIRCLE ( 'NONE', #14, 74.50000000000000000 ) ;
#62 = PERSON_AND_ORGANIZATION_ROLE ( 'creator' ) ;
#63 = APPROVAL_ROLE ( '' ) ;
#64 = ORIENTED_EDGE ( 'NONE', *, *, #48, .F. ) ;
#65 = DATE_AND_TIME ( #234, #41 ) ;
#66 = ORIENTED_EDGE ( 'NONE', *, *, #3, .F. ) ;
#67 = EDGE_CURVE ( 'NONE', #81, #107, #125, .T. ) ;
#68 = ORIENTED_EDGE ( 'NONE', *, *, #93, .T. ) ;
#69 = CARTESIAN_POINT ( 'NONE',  ( 9.123618653647781159E-15, 4.000000000000000000, 74.50000000000000000 ) ) ;
#70 = DIRECTION ( 'NONE',  ( 0.000000000000000000, 0.000000000000000000, 1.000000000000000000 ) ) ;
#71 = CC_DESIGN_DATE_AND_TIME_ASSIGNMENT ( #42, #213, ( #28 ) ) ;
#72 = FACE_OUTER_BOUND ( 'NONE', #101, .T. ) ;
#73 = LINE ( 'NONE', #242, #200 ) ;
#74 = ORIENTED_EDGE ( 'NONE', *, *, #15, .F. ) ;
#75 = APPROVAL ( #38, 'UNSPECIFIED' ) ;
#76 = CARTESIAN_POINT ( 'NONE',  ( 3.000384657911015469E-15, 4.000000000000000000, 24.50000000000000000 ) ) ;
#77 = FACE_OUTER_BOUND ( 'NONE', #155, .T. ) ;
#78 = PERSON_AND_ORGANIZATION_ROLE ( 'creator' ) ;
#79 = AXIS2_PLACEMENT_3D ( 'NONE', #203, #117, #171 ) ;
#80 = SECURITY_CLASSIFICATION_LEVEL ( 'unclassified' ) ;
#81 = VERTEX_POINT ( 'NONE', #166 ) ;
#82 = COORDINATED_UNIVERSAL_TIME_OFFSET ( 1, 0, .AHEAD. ) ;
#83 = ORIENTED_EDGE ( 'NONE', *, *, #51, .F. ) ;
#84 = EDGE_CURVE ( 'NONE', #107, #114, #248, .T. ) ;
#85 =( GEOMETRIC_REPRESENTATION_CONTEXT ( 3 ) GLOBAL_UNCERTAINTY_ASSIGNED_CONTEXT ( ( #33 ) ) GLOBAL_UNIT_ASSIGNED_CONTEXT ( ( #206, #96, #58 ) ) REPRESENTATION_CONTEXT ( 'NONE', 'WORKASPACE' ) );
#86 = PERSON_AND_ORGANIZATION ( #44, #130 ) ;
#87 = DIRECTION ( 'NONE',  ( -0.000000000000000000, -1.000000000000000000, -0.000000000000000000 ) ) ;
#88 = AXIS2_PLACEMENT_3D ( 'NONE', #31, #198, #165 ) ;
#89 = DIRECTION ( 'NONE',  ( 0.000000000000000000, 1.000000000000000000, 0.000000000000000000 ) ) ;
#90 = DIRECTION ( 'NONE',  ( -0.000000000000000000, -1.000000000000000000, -0.000000000000000000 ) ) ;
#91 = DIRECTION ( 'NONE',  ( 0.000000000000000000, -0.000000000000000000, 1.000000000000000000 ) ) ;
#92 = DIRECTION ( 'NONE',  ( -0.000000000000000000, -1.000000000000000000, -0.000000000000000000 ) ) ;
#93 = EDGE_CURVE ( 'NONE', #47, #81, #221, .T. ) ;
#94 = CARTESIAN_POINT ( 'NONE',  ( 0.000000000000000000, 0.000000000000000000, 0.000000000000000000 ) ) ;
#95 = DESIGN_CONTEXT ( 'detailed design', #157, 'design' ) ;
#96 =( NAMED_UNIT ( * ) PLANE_ANGLE_UNIT ( ) SI_UNIT ( $, .RADIAN. ) );
#97 = AXIS2_PLACEMENT_3D ( 'NONE', #181, #108, #55 ) ;
#98 = DATE_AND_TIME ( #105, #149 ) ;
#99 = PERSON_AND_ORGANIZATION ( #44, #130 ) ;
#100 = ADVANCED_BREP_SHAPE_REPRESENTATION ( '3D_R245_48.3x4_17386120', ( #24, #79 ), #85 ) ;
#101 = EDGE_LOOP ( 'NONE', ( #68, #162 ) ) ;
#102 = CALENDAR_DATE ( 2024, 6, 8 ) ;
#103 = ORIENTED_EDGE ( 'NONE', *, *, #229, .T. ) ;
#104 = ADVANCED_FACE ( 'NONE', ( #8 ), #127, .F. ) ;
#105 = CALENDAR_DATE ( 2024, 6, 8 ) ;
#106 = EDGE_LOOP ( 'NONE', ( #52, #236 ) ) ;
#107 = VERTEX_POINT ( 'NONE', #112 ) ;
#108 = DIRECTION ( 'NONE',  ( 0.000000000000000000, 1.000000000000000000, 0.000000000000000000 ) ) ;
#109 = CIRCLE ( 'NONE', #136, 24.50000000000000000 ) ;
#110 = CARTESIAN_POINT ( 'NONE',  ( 0.000000000000000000, 4.000000000000000000, 0.000000000000000000 ) ) ;
#111 = PLANE ( 'NONE',  #141 ) ;
#112 = CARTESIAN_POINT ( 'NONE',  ( 9.123618653647781159E-15, 0.000000000000000000, 74.50000000000000000 ) ) ;
#113 = EDGE_CURVE ( 'NONE', #211, #147, #109, .T. ) ;
#114 = VERTEX_POINT ( 'NONE', #220 ) ;
#115 = DIRECTION ( 'NONE',  ( 0.000000000000000000, -0.000000000000000000, 1.000000000000000000 ) ) ;
#116 = CC_DESIGN_DATE_AND_TIME_ASSIGNMENT ( #160, #230, ( #233 ) ) ;
#117 = DIRECTION ( 'NONE',  ( 0.000000000000000000, 0.000000000000000000, 1.000000000000000000 ) ) ;
#118 = LOCAL_TIME ( 11, 31, 14.00000000000000000, #210 ) ;
#119 = DIRECTION ( 'NONE',  ( -0.000000000000000000, -1.000000000000000000, -0.000000000000000000 ) ) ;
#120 = VECTOR ( 'NONE', #119, 1000.000000000000000 ) ;
#121 = ADVANCED_FACE ( 'NONE', ( #72, #215 ), #111, .T. ) ;
#122 = ORIENTED_EDGE ( 'NONE', *, *, #179, .T. ) ;
#123 = FACE_OUTER_BOUND ( 'NONE', #177, .T. ) ;
#124 = FACE_OUTER_BOUND ( 'NONE', #126, .T. ) ;
#125 = LINE ( 'NONE', #69, #180 ) ;
#126 = EDGE_LOOP ( 'NONE', ( #83, #208, #43, #20 ) ) ;
#127 = CYLINDRICAL_SURFACE ( 'NONE', #209, 24.50000000000000000 ) ;
#128 = AXIS2_PLACEMENT_3D ( 'NONE', #32, #89, #238 ) ;
#129 = MECHANICAL_CONTEXT ( 'NONE', #57, 'mechanical' ) ;
#130 = ORGANIZATION ( 'UNSPECIFIED', 'UNSPECIFIED', '' ) ;
#131 = CARTESIAN_POINT ( 'NONE',  ( 0.000000000000000000, 4.000000000000000000, 0.000000000000000000 ) ) ;
#132 = CARTESIAN_POINT ( 'NONE',  ( 0.000000000000000000, 4.000000000000000000, -74.50000000000000000 ) ) ;
#133 = CC_DESIGN_PERSON_AND_ORGANIZATION_ASSIGNMENT ( #249, #78, ( #233 ) ) ;
#134 = APPROVAL_DATE_TIME ( #228, #223 ) ;
#135 = ORIENTED_EDGE ( 'NONE', *, *, #48, .T. ) ;
#136 = AXIS2_PLACEMENT_3D ( 'NONE', #214, #146, #70 ) ;
#137 = PERSON_AND_ORGANIZATION_ROLE ( 'design_supplier' ) ;
#138 = PERSON_AND_ORGANIZATION ( #44, #130 ) ;
#139 = SHAPE_DEFINITION_REPRESENTATION ( #26, #100 ) ;
#140 = APPROVAL_DATE_TIME ( #65, #196 ) ;
#141 = AXIS2_PLACEMENT_3D ( 'NONE', #145, #9, #91 ) ;
#142 = PRODUCT ( '3D_R245_48.3x4_17386120', '3D_R245_48.3x4_17386120', '', ( #129 ) ) ;
#143 = DIRECTION ( 'NONE',  ( 0.000000000000000000, 0.000000000000000000, -1.000000000000000000 ) ) ;
#144 = CARTESIAN_POINT ( 'NONE',  ( 0.000000000000000000, 0.000000000000000000, -24.50000000000000000 ) ) ;
#145 = CARTESIAN_POINT ( 'NONE',  ( 0.000000000000000000, 4.000000000000000000, 0.000000000000000000 ) ) ;
#146 = DIRECTION ( 'NONE',  ( 0.000000000000000000, 1.000000000000000000, 0.000000000000000000 ) ) ;
#147 = VERTEX_POINT ( 'NONE', #217 ) ;
#148 = CIRCLE ( 'NONE', #56, 24.50000000000000000 ) ;
#149 = LOCAL_TIME ( 11, 31, 14.00000000000000000, #82 ) ;
#150 = CYLINDRICAL_SURFACE ( 'NONE', #178, 24.50000000000000000 ) ;
#151 = DIRECTION ( 'NONE',  ( -0.000000000000000000, -1.000000000000000000, -0.000000000000000000 ) ) ;
#152 = DIRECTION ( 'NONE',  ( -0.000000000000000000, -1.000000000000000000, -0.000000000000000000 ) ) ;
#153 = EDGE_CURVE ( 'NONE', #5, #192, #37, .T. ) ;
#154 = LINE ( 'NONE', #36, #120 ) ;
#155 = EDGE_LOOP ( 'NONE', ( #135, #159, #175, #74 ) ) ;
#156 = ADVANCED_FACE ( 'NONE', ( #124 ), #11, .T. ) ;
#157 = APPLICATION_CONTEXT ( 'configuration controlled 3d designs of mechanical parts and assemblies' ) ;
#158 = CALENDAR_DATE ( 2024, 6, 8 ) ;
#159 = ORIENTED_EDGE ( 'NONE', *, *, #243, .T. ) ;
#160 = DATE_AND_TIME ( #21, #13 ) ;
#161 = ORIENTED_EDGE ( 'NONE', *, *, #113, .T. ) ;
#162 = ORIENTED_EDGE ( 'NONE', *, *, #51, .T. ) ;
#163 = ADVANCED_FACE ( 'NONE', ( #123 ), #195, .T. ) ;
#164 = DIRECTION ( 'NONE',  ( 0.000000000000000000, 1.000000000000000000, 0.000000000000000000 ) ) ;
#165 = DIRECTION ( 'NONE',  ( 0.000000000000000000, 0.000000000000000000, 1.000000000000000000 ) ) ;
#166 = CARTESIAN_POINT ( 'NONE',  ( 9.123618653647781159E-15, 4.000000000000000000, 74.50000000000000000 ) ) ;
#167 = CC_DESIGN_PERSON_AND_ORGANIZATION_ASSIGNMENT ( #86, #62, ( #218 ) ) ;
#168 = EDGE_LOOP ( 'NONE', ( #27, #2 ) ) ;
#169 = DIRECTION ( 'NONE',  ( 0.000000000000000000, 0.000000000000000000, -1.000000000000000000 ) ) ;
#170 = CC_DESIGN_APPROVAL ( #196, ( #28 ) ) ;
#171 = DIRECTION ( 'NONE',  ( 1.000000000000000000, 0.000000000000000000, 0.000000000000000000 ) ) ;
#172 = APPROVAL_STATUS ( 'not_yet_approved' ) ;
#173 = APPROVAL_STATUS ( 'not_yet_approved' ) ;
#174 = APPROVAL_ROLE ( '' ) ;
#175 = ORIENTED_EDGE ( 'NONE', *, *, #153, .F. ) ;
#176 = COORDINATED_UNIVERSAL_TIME_OFFSET ( 1, 0, .AHEAD. ) ;
#177 = EDGE_LOOP ( 'NONE', ( #6, #216, #122, #103 ) ) ;
#178 = AXIS2_PLACEMENT_3D ( 'NONE', #131, #151, #224 ) ;
#179 = EDGE_CURVE ( 'NONE', #47, #114, #244, .T. ) ;
#180 = VECTOR ( 'NONE', #184, 1000.000000000000000 ) ;
#181 = CARTESIAN_POINT ( 'NONE',  ( 0.000000000000000000, 4.000000000000000000, 0.000000000000000000 ) ) ;
#182 = CC_DESIGN_SECURITY_CLASSIFICATION ( #28, ( #218 ) ) ;
#183 = CARTESIAN_POINT ( 'NONE',  ( 0.000000000000000000, 0.000000000000000000, 0.000000000000000000 ) ) ;
#184 = DIRECTION ( 'NONE',  ( -0.000000000000000000, -1.000000000000000000, -0.000000000000000000 ) ) ;
#185 = DIRECTION ( 'NONE',  ( 0.000000000000000000, 0.000000000000000000, 1.000000000000000000 ) ) ;
#186 = DIRECTION ( 'NONE',  ( 0.000000000000000000, 0.000000000000000000, 1.000000000000000000 ) ) ;
#187 = PLANE ( 'NONE',  #245 ) ;
#188 = PERSON_AND_ORGANIZATION_ROLE ( 'design_owner' ) ;
#189 = CIRCLE ( 'NONE', #97, 24.50000000000000000 ) ;
#190 = COORDINATED_UNIVERSAL_TIME_OFFSET ( 1, 0, .AHEAD. ) ;
#191 = APPLICATION_PROTOCOL_DEFINITION ( 'international standard', 'config_control_design', 1994, #157 ) ;
#192 = VERTEX_POINT ( 'NONE', #225 ) ;
#193 = EDGE_LOOP ( 'NONE', ( #64, #45 ) ) ;
#194 = ORIENTED_EDGE ( 'NONE', *, *, #243, .F. ) ;
#195 = CYLINDRICAL_SURFACE ( 'NONE', #227, 74.50000000000000000 ) ;
#196 = APPROVAL ( #172, 'UNSPECIFIED' ) ;
#197 = CARTESIAN_POINT ( 'NONE',  ( 0.000000000000000000, 4.000000000000000000, 0.000000000000000000 ) ) ;
#198 = DIRECTION ( 'NONE',  ( 0.000000000000000000, 1.000000000000000000, 0.000000000000000000 ) ) ;
#199 = DIRECTION ( 'NONE',  ( 0.000000000000000000, 0.000000000000000000, 1.000000000000000000 ) ) ;
#200 = VECTOR ( 'NONE', #87, 1000.000000000000000 ) ;
#201 = CARTESIAN_POINT ( 'NONE',  ( 0.000000000000000000, 0.000000000000000000, 0.000000000000000000 ) ) ;
#202 = CC_DESIGN_PERSON_AND_ORGANIZATION_ASSIGNMENT ( #22, #188, ( #142 ) ) ;
#203 = CARTESIAN_POINT ( 'NONE',  ( 0.000000000000000000, 0.000000000000000000, 0.000000000000000000 ) ) ;
#204 = DIRECTION ( 'NONE',  ( 0.000000000000000000, 1.000000000000000000, 0.000000000000000000 ) ) ;
#205 = VECTOR ( 'NONE', #152, 1000.000000000000000 ) ;
#206 =( LENGTH_UNIT ( ) NAMED_UNIT ( * ) SI_UNIT ( .MILLI., .METRE. ) );
#207 = APPROVAL_ROLE ( '' ) ;
#208 = ORIENTED_EDGE ( 'NONE', *, *, #67, .T. ) ;
#209 = AXIS2_PLACEMENT_3D ( 'NONE', #30, #7, #143 ) ;
#210 = COORDINATED_UNIVERSAL_TIME_OFFSET ( 1, 0, .AHEAD. ) ;
#211 = VERTEX_POINT ( 'NONE', #76 ) ;
#212 = ADVANCED_FACE ( 'NONE', ( #77 ), #150, .F. ) ;
#213 = DATE_TIME_ROLE ( 'classification_date' ) ;
#214 = CARTESIAN_POINT ( 'NONE',  ( 0.000000000000000000, 4.000000000000000000, 0.000000000000000000 ) ) ;
#215 = FACE_BOUND ( 'NONE', #193, .T. ) ;
#216 = ORIENTED_EDGE ( 'NONE', *, *, #93, .F. ) ;
#217 = CARTESIAN_POINT ( 'NONE',  ( 0.000000000000000000, 4.000000000000000000, -24.50000000000000000 ) ) ;
#218 = PRODUCT_DEFINITION_FORMATION_WITH_SPECIFIED_SOURCE ( 'ANY', '', #142, .NOT_KNOWN. ) ;
#219 = ADVANCED_FACE ( 'NONE', ( #226, #35 ), #187, .F. ) ;
#220 = CARTESIAN_POINT ( 'NONE',  ( 0.000000000000000000, 0.000000000000000000, -74.50000000000000000 ) ) ;
#221 = CIRCLE ( 'NONE', #17, 74.50000000000000000 ) ;
#222 = APPROVAL_PERSON_ORGANIZATION ( #232, #196, #63 ) ;
#223 = APPROVAL ( #173, 'UNSPECIFIED' ) ;
#224 = DIRECTION ( 'NONE',  ( 0.000000000000000000, 0.000000000000000000, -1.000000000000000000 ) ) ;
#225 = CARTESIAN_POINT ( 'NONE',  ( 3.000384657911015469E-15, 0.000000000000000000, 24.50000000000000000 ) ) ;
#226 = FACE_OUTER_BOUND ( 'NONE', #168, .T. ) ;
#227 = AXIS2_PLACEMENT_3D ( 'NONE', #29, #90, #169 ) ;
#228 = DATE_AND_TIME ( #102, #241 ) ;
#229 = EDGE_CURVE ( 'NONE', #114, #107, #61, .T. ) ;
#230 = DATE_TIME_ROLE ( 'creation_date' ) ;
#231 = CC_DESIGN_APPROVAL ( #75, ( #218 ) ) ;
#232 = PERSON_AND_ORGANIZATION ( #44, #130 ) ;
#233 = PRODUCT_DEFINITION ( 'UNKNOWN', '', #218, #95 ) ;
#234 = CALENDAR_DATE ( 2024, 6, 8 ) ;
#235 = PERSON_AND_ORGANIZATION_ROLE ( 'classification_officer' ) ;
#236 = ORIENTED_EDGE ( 'NONE', *, *, #3, .T. ) ;
#237 = CIRCLE ( 'NONE', #128, 74.50000000000000000 ) ;
#238 = DIRECTION ( 'NONE',  ( 0.000000000000000000, 0.000000000000000000, 1.000000000000000000 ) ) ;
#239 = DIRECTION ( 'NONE',  ( 0.000000000000000000, 1.000000000000000000, 0.000000000000000000 ) ) ;
#240 = DIRECTION ( 'NONE',  ( 0.000000000000000000, 0.000000000000000000, 1.000000000000000000 ) ) ;
#241 = LOCAL_TIME ( 11, 31, 14.00000000000000000, #190 ) ;
#242 = CARTESIAN_POINT ( 'NONE',  ( 0.000000000000000000, 4.000000000000000000, -24.50000000000000000 ) ) ;
#243 = EDGE_CURVE ( 'NONE', #211, #192, #154, .T. ) ;
#244 = LINE ( 'NONE', #132, #205 ) ;
#245 = AXIS2_PLACEMENT_3D ( 'NONE', #94, #204, #115 ) ;
#246 = CLOSED_SHELL ( 'NONE', ( #212, #156, #121, #219, #163, #104 ) ) ;
#247 = CC_DESIGN_PERSON_AND_ORGANIZATION_ASSIGNMENT ( #16, #235, ( #28 ) ) ;
#248 = CIRCLE ( 'NONE', #88, 74.50000000000000000 ) ;
#249 = PERSON_AND_ORGANIZATION ( #44, #130 ) ;
ENDSEC;
END-ISO-10303-21;
