ISO-10303-21;
HEADER;
FILE_DESCRIPTION (( 'STEP AP203' ),
    '1' );
FILE_NAME ('3D_R243_42.4x3_17386055.STEP',
    '2024-08-06T08:41:49',
    ( '' ),
    ( '' ),
    'SwSTEP 2.0',
    'SolidWorks 2024',
    '' );
FILE_SCHEMA (( 'CONFIG_CONTROL_DESIGN' ));
ENDSEC;

DATA;
#1 = COORDINATED_UNIVERSAL_TIME_OFFSET ( 1, 0, .AHEAD. ) ;
#2 = ORIENTED_EDGE ( 'NONE', *, *, #157, .T. ) ;
#3 = PERSON_AND_ORGANIZATION ( #168, #195 ) ;
#4 = DATE_AND_TIME ( #40, #180 ) ;
#5 = EDGE_LOOP ( 'NONE', ( #187, #9, #218, #26 ) ) ;
#6 = LINE ( 'NONE', #67, #56 ) ;
#7 = ORIENTED_EDGE ( 'NONE', *, *, #111, .T. ) ;
#8 = ORIENTED_EDGE ( 'NONE', *, *, #12, .F. ) ;
#9 = ORIENTED_EDGE ( 'NONE', *, *, #157, .F. ) ;
#10 = CARTESIAN_POINT ( 'NONE',  ( 0.000000000000000000, 3.000000000000000000, 0.000000000000000000 ) ) ;
#11 = PRODUCT_DEFINITION_FORMATION_WITH_SPECIFIED_SOURCE ( 'ANY', '', #19, .NOT_KNOWN. ) ;
#12 = EDGE_CURVE ( 'NONE', #84, #159, #198, .T. ) ;
#13 = CARTESIAN_POINT ( 'NONE',  ( 0.000000000000000000, 3.000000000000000000, -21.19999999999999929 ) ) ;
#14 = FACE_BOUND ( 'NONE', #42, .T. ) ;
#15 = CYLINDRICAL_SURFACE ( 'NONE', #227, 51.20000000000000284 ) ;
#16 = SHAPE_DEFINITION_REPRESENTATION ( #138, #228 ) ;
#17 = PERSON_AND_ORGANIZATION_ROLE ( 'design_supplier' ) ;
#18 = PERSON_AND_ORGANIZATION ( #168, #195 ) ;
#19 = PRODUCT ( '3D_R243_42.4x3_17386055', '3D_R243_42.4x3_17386055', '', ( #63 ) ) ;
#20 = APPROVAL_DATE_TIME ( #106, #189 ) ;
#21 = ORIENTED_EDGE ( 'NONE', *, *, #70, .F. ) ;
#22 = PRODUCT_DEFINITION ( 'UNKNOWN', '', #11, #149 ) ;
#23 = CIRCLE ( 'NONE', #74, 51.20000000000000284 ) ;
#24 = ORIENTED_EDGE ( 'NONE', *, *, #239, .F. ) ;
#25 = ORIENTED_EDGE ( 'NONE', *, *, #65, .F. ) ;
#26 = ORIENTED_EDGE ( 'NONE', *, *, #98, .T. ) ;
#27 = CARTESIAN_POINT ( 'NONE',  ( 0.000000000000000000, 0.000000000000000000, 0.000000000000000000 ) ) ;
#28 = AXIS2_PLACEMENT_3D ( 'NONE', #142, #243, #126 ) ;
#29 = LOCAL_TIME ( 10, 41, 49.00000000000000000, #36 ) ;
#30 = CARTESIAN_POINT ( 'NONE',  ( 0.000000000000000000, 3.000000000000000000, 0.000000000000000000 ) ) ;
#31 = DIRECTION ( 'NONE',  ( 0.000000000000000000, 1.000000000000000000, 0.000000000000000000 ) ) ;
#32 = CARTESIAN_POINT ( 'NONE',  ( 0.000000000000000000, 0.000000000000000000, 0.000000000000000000 ) ) ;
#33 = DIRECTION ( 'NONE',  ( 0.000000000000000000, -0.000000000000000000, 1.000000000000000000 ) ) ;
#34 = CARTESIAN_POINT ( 'NONE',  ( 6.270191611634448736E-15, 3.000000000000000000, 51.20000000000000284 ) ) ;
#35 = VECTOR ( 'NONE', #143, 1000.000000000000000 ) ;
#36 = COORDINATED_UNIVERSAL_TIME_OFFSET ( 1, 0, .AHEAD. ) ;
#37 = PERSON_AND_ORGANIZATION ( #168, #195 ) ;
#38 = APPLICATION_PROTOCOL_DEFINITION ( 'international standard', 'config_control_design', 1994, #179 ) ;
#39 = CIRCLE ( 'NONE', #60, 51.20000000000000284 ) ;
#40 = CALENDAR_DATE ( 2024, 6, 8 ) ;
#41 = APPROVAL_DATE_TIME ( #171, #88 ) ;
#42 = EDGE_LOOP ( 'NONE', ( #108, #8 ) ) ;
#43 = ADVANCED_FACE ( 'NONE', ( #161 ), #66, .F. ) ;
#44 = ORIENTED_EDGE ( 'NONE', *, *, #235, .T. ) ;
#45 = SECURITY_CLASSIFICATION ( '', '', #199 ) ;
#46 = CARTESIAN_POINT ( 'NONE',  ( 2.596251214192388770E-15, 3.000000000000000000, 21.19999999999999929 ) ) ;
#47 = EDGE_LOOP ( 'NONE', ( #2, #110 ) ) ;
#48 = DIRECTION ( 'NONE',  ( 0.000000000000000000, 0.000000000000000000, -1.000000000000000000 ) ) ;
#49 = CC_DESIGN_PERSON_AND_ORGANIZATION_ASSIGNMENT ( #136, #17, ( #11 ) ) ;
#50 = ORIENTED_EDGE ( 'NONE', *, *, #12, .T. ) ;
#51 = AXIS2_PLACEMENT_3D ( 'NONE', #183, #222, #48 ) ;
#52 = CARTESIAN_POINT ( 'NONE',  ( 0.000000000000000000, 0.000000000000000000, 0.000000000000000000 ) ) ;
#53 = PRODUCT_RELATED_PRODUCT_CATEGORY ( 'detail', '', ( #19 ) ) ;
#54 = CARTESIAN_POINT ( 'NONE',  ( 0.000000000000000000, 0.000000000000000000, 0.000000000000000000 ) ) ;
#55 = DIRECTION ( 'NONE',  ( 0.000000000000000000, 0.000000000000000000, -1.000000000000000000 ) ) ;
#56 = VECTOR ( 'NONE', #71, 1000.000000000000000 ) ;
#57 = CARTESIAN_POINT ( 'NONE',  ( 0.000000000000000000, 3.000000000000000000, 0.000000000000000000 ) ) ;
#58 = CARTESIAN_POINT ( 'NONE',  ( 0.000000000000000000, 0.000000000000000000, -21.19999999999999929 ) ) ;
#59 = AXIS2_PLACEMENT_3D ( 'NONE', #97, #31, #99 ) ;
#60 = AXIS2_PLACEMENT_3D ( 'NONE', #27, #130, #206 ) ;
#61 = EDGE_CURVE ( 'NONE', #181, #112, #6, .T. ) ;
#62 = PERSON_AND_ORGANIZATION ( #168, #195 ) ;
#63 = MECHANICAL_CONTEXT ( 'NONE', #191, 'mechanical' ) ;
#64 = CALENDAR_DATE ( 2024, 6, 8 ) ;
#65 = EDGE_CURVE ( 'NONE', #221, #112, #123, .T. ) ;
#66 = CYLINDRICAL_SURFACE ( 'NONE', #89, 21.19999999999999929 ) ;
#67 = CARTESIAN_POINT ( 'NONE',  ( 0.000000000000000000, 3.000000000000000000, -51.20000000000000284 ) ) ;
#68 = CIRCLE ( 'NONE', #133, 21.19999999999999929 ) ;
#69 = ORIENTED_EDGE ( 'NONE', *, *, #94, .T. ) ;
#70 = EDGE_CURVE ( 'NONE', #223, #181, #145, .T. ) ;
#71 = DIRECTION ( 'NONE',  ( -0.000000000000000000, -1.000000000000000000, -0.000000000000000000 ) ) ;
#72 = FACE_OUTER_BOUND ( 'NONE', #242, .T. ) ;
#73 = PLANE ( 'NONE',  #90 ) ;
#74 = AXIS2_PLACEMENT_3D ( 'NONE', #10, #225, #166 ) ;
#75 = LOCAL_TIME ( 10, 41, 49.00000000000000000, #82 ) ;
#76 = ADVANCED_FACE ( 'NONE', ( #72 ), #87, .F. ) ;
#77 =( NAMED_UNIT ( * ) SI_UNIT ( $, .STERADIAN. ) SOLID_ANGLE_UNIT ( ) );
#78 = FACE_OUTER_BOUND ( 'NONE', #47, .T. ) ;
#79 = CC_DESIGN_PERSON_AND_ORGANIZATION_ASSIGNMENT ( #196, #172, ( #22 ) ) ;
#80 = DIRECTION ( 'NONE',  ( 0.000000000000000000, 0.000000000000000000, 1.000000000000000000 ) ) ;
#81 = DIRECTION ( 'NONE',  ( -0.000000000000000000, -1.000000000000000000, -0.000000000000000000 ) ) ;
#82 = COORDINATED_UNIVERSAL_TIME_OFFSET ( 1, 0, .AHEAD. ) ;
#83 = DATE_TIME_ROLE ( 'creation_date' ) ;
#84 = VERTEX_POINT ( 'NONE', #109 ) ;
#85 = APPROVAL_PERSON_ORGANIZATION ( #62, #88, #156 ) ;
#86 = ORIENTED_EDGE ( 'NONE', *, *, #98, .F. ) ;
#87 = CYLINDRICAL_SURFACE ( 'NONE', #51, 21.19999999999999929 ) ;
#88 = APPROVAL ( #120, 'UNSPECIFIED' ) ;
#89 = AXIS2_PLACEMENT_3D ( 'NONE', #217, #186, #129 ) ;
#90 = AXIS2_PLACEMENT_3D ( 'NONE', #52, #146, #33 ) ;
#91 = ORIENTED_EDGE ( 'NONE', *, *, #169, .F. ) ;
#92 = EDGE_LOOP ( 'NONE', ( #21, #69, #139, #127 ) ) ;
#93 = ORIENTED_EDGE ( 'NONE', *, *, #169, .T. ) ;
#94 = EDGE_CURVE ( 'NONE', #223, #221, #158, .T. ) ;
#95 = CYLINDRICAL_SURFACE ( 'NONE', #173, 51.20000000000000284 ) ;
#96 = CARTESIAN_POINT ( 'NONE',  ( 0.000000000000000000, 3.000000000000000000, -21.19999999999999929 ) ) ;
#97 = CARTESIAN_POINT ( 'NONE',  ( 0.000000000000000000, 0.000000000000000000, 0.000000000000000000 ) ) ;
#98 = EDGE_CURVE ( 'NONE', #112, #221, #39, .T. ) ;
#99 = DIRECTION ( 'NONE',  ( 0.000000000000000000, 0.000000000000000000, 1.000000000000000000 ) ) ;
#100 =( GEOMETRIC_REPRESENTATION_CONTEXT ( 3 ) GLOBAL_UNCERTAINTY_ASSIGNED_CONTEXT ( ( #210 ) ) GLOBAL_UNIT_ASSIGNED_CONTEXT ( ( #101, #244, #77 ) ) REPRESENTATION_CONTEXT ( 'NONE', 'WORKASPACE' ) );
#101 =( LENGTH_UNIT ( ) NAMED_UNIT ( * ) SI_UNIT ( .MILLI., .METRE. ) );
#102 = CC_DESIGN_PERSON_AND_ORGANIZATION_ASSIGNMENT ( #3, #236, ( #45 ) ) ;
#103 = COORDINATED_UNIVERSAL_TIME_OFFSET ( 1, 0, .AHEAD. ) ;
#104 = CLOSED_SHELL ( 'NONE', ( #43, #184, #152, #229, #215, #76 ) ) ;
#105 = APPROVAL_PERSON_ORGANIZATION ( #18, #231, #107 ) ;
#106 = DATE_AND_TIME ( #153, #160 ) ;
#107 = APPROVAL_ROLE ( '' ) ;
#108 = ORIENTED_EDGE ( 'NONE', *, *, #235, .F. ) ;
#109 = CARTESIAN_POINT ( 'NONE',  ( 2.596251214192388770E-15, 3.000000000000000000, 21.19999999999999929 ) ) ;
#110 = ORIENTED_EDGE ( 'NONE', *, *, #70, .T. ) ;
#111 = EDGE_CURVE ( 'NONE', #84, #238, #140, .T. ) ;
#112 = VERTEX_POINT ( 'NONE', #193 ) ;
#113 = DIRECTION ( 'NONE',  ( 0.000000000000000000, 0.000000000000000000, 1.000000000000000000 ) ) ;
#114 = DIRECTION ( 'NONE',  ( 0.000000000000000000, 1.000000000000000000, 0.000000000000000000 ) ) ;
#115 = PLANE ( 'NONE',  #178 ) ;
#116 = DIRECTION ( 'NONE',  ( 0.000000000000000000, 0.000000000000000000, 1.000000000000000000 ) ) ;
#117 = MANIFOLD_SOLID_BREP ( 'Aufsatz-Linear austragen1', #104 ) ;
#118 = APPLICATION_PROTOCOL_DEFINITION ( 'international standard', 'config_control_design', 1994, #191 ) ;
#119 = CC_DESIGN_PERSON_AND_ORGANIZATION_ASSIGNMENT ( #216, #233, ( #19 ) ) ;
#120 = APPROVAL_STATUS ( 'not_yet_approved' ) ;
#121 = APPROVAL_STATUS ( 'not_yet_approved' ) ;
#122 = DATE_AND_TIME ( #124, #75 ) ;
#123 = CIRCLE ( 'NONE', #28, 51.20000000000000284 ) ;
#124 = CALENDAR_DATE ( 2024, 6, 8 ) ;
#125 = EDGE_LOOP ( 'NONE', ( #86, #25 ) ) ;
#126 = DIRECTION ( 'NONE',  ( 0.000000000000000000, 0.000000000000000000, 1.000000000000000000 ) ) ;
#127 = ORIENTED_EDGE ( 'NONE', *, *, #61, .F. ) ;
#128 = DIRECTION ( 'NONE',  ( 0.000000000000000000, 1.000000000000000000, 0.000000000000000000 ) ) ;
#129 = DIRECTION ( 'NONE',  ( 0.000000000000000000, 0.000000000000000000, -1.000000000000000000 ) ) ;
#130 = DIRECTION ( 'NONE',  ( 0.000000000000000000, 1.000000000000000000, 0.000000000000000000 ) ) ;
#131 = FACE_OUTER_BOUND ( 'NONE', #5, .T. ) ;
#132 = DIRECTION ( 'NONE',  ( 0.000000000000000000, 1.000000000000000000, 0.000000000000000000 ) ) ;
#133 = AXIS2_PLACEMENT_3D ( 'NONE', #57, #167, #80 ) ;
#134 = CC_DESIGN_APPROVAL ( #88, ( #45 ) ) ;
#135 = DIRECTION ( 'NONE',  ( 1.000000000000000000, 0.000000000000000000, 0.000000000000000000 ) ) ;
#136 = PERSON_AND_ORGANIZATION ( #168, #195 ) ;
#137 = DATE_AND_TIME ( #64, #190 ) ;
#138 = PRODUCT_DEFINITION_SHAPE ( 'NONE', 'NONE',  #22 ) ;
#139 = ORIENTED_EDGE ( 'NONE', *, *, #65, .T. ) ;
#140 = LINE ( 'NONE', #46, #205 ) ;
#141 = EDGE_LOOP ( 'NONE', ( #213, #93 ) ) ;
#142 = CARTESIAN_POINT ( 'NONE',  ( 0.000000000000000000, 0.000000000000000000, 0.000000000000000000 ) ) ;
#143 = DIRECTION ( 'NONE',  ( -0.000000000000000000, -1.000000000000000000, -0.000000000000000000 ) ) ;
#144 = AXIS2_PLACEMENT_3D ( 'NONE', #30, #114, #113 ) ;
#145 = CIRCLE ( 'NONE', #237, 51.20000000000000284 ) ;
#146 = DIRECTION ( 'NONE',  ( 0.000000000000000000, 1.000000000000000000, 0.000000000000000000 ) ) ;
#147 = CARTESIAN_POINT ( 'NONE',  ( 0.000000000000000000, 3.000000000000000000, 0.000000000000000000 ) ) ;
#148 = FACE_OUTER_BOUND ( 'NONE', #125, .T. ) ;
#149 = DESIGN_CONTEXT ( 'detailed design', #179, 'design' ) ;
#150 = DIRECTION ( 'NONE',  ( -0.000000000000000000, -1.000000000000000000, -0.000000000000000000 ) ) ;
#151 = FACE_BOUND ( 'NONE', #141, .T. ) ;
#152 = ADVANCED_FACE ( 'NONE', ( #78, #14 ), #115, .T. ) ;
#153 = CALENDAR_DATE ( 2024, 6, 8 ) ;
#154 = PERSON_AND_ORGANIZATION ( #168, #195 ) ;
#155 = AXIS2_PLACEMENT_3D ( 'NONE', #32, #116, #135 ) ;
#156 = APPROVAL_ROLE ( '' ) ;
#157 = EDGE_CURVE ( 'NONE', #181, #223, #23, .T. ) ;
#158 = LINE ( 'NONE', #204, #35 ) ;
#159 = VERTEX_POINT ( 'NONE', #13 ) ;
#160 = LOCAL_TIME ( 10, 41, 49.00000000000000000, #1 ) ;
#161 = FACE_OUTER_BOUND ( 'NONE', #240, .T. ) ;
#162 = ORIENTED_EDGE ( 'NONE', *, *, #249, .F. ) ;
#163 = VERTEX_POINT ( 'NONE', #58 ) ;
#164 = CIRCLE ( 'NONE', #59, 21.19999999999999929 ) ;
#165 = VECTOR ( 'NONE', #150, 1000.000000000000000 ) ;
#166 = DIRECTION ( 'NONE',  ( 0.000000000000000000, 0.000000000000000000, 1.000000000000000000 ) ) ;
#167 = DIRECTION ( 'NONE',  ( 0.000000000000000000, 1.000000000000000000, 0.000000000000000000 ) ) ;
#168 = PERSON ( 'UNSPECIFIED', 'UNSPECIFIED', 'UNSPECIFIED', ('UNSPECIFIED'), ('UNSPECIFIED'), ('UNSPECIFIED') ) ;
#169 = EDGE_CURVE ( 'NONE', #238, #163, #164, .T. ) ;
#170 = CARTESIAN_POINT ( 'NONE',  ( 0.000000000000000000, 3.000000000000000000, -51.20000000000000284 ) ) ;
#171 = DATE_AND_TIME ( #232, #29 ) ;
#172 = PERSON_AND_ORGANIZATION_ROLE ( 'creator' ) ;
#173 = AXIS2_PLACEMENT_3D ( 'NONE', #209, #246, #224 ) ;
#174 = CC_DESIGN_APPROVAL ( #231, ( #22 ) ) ;
#175 = CC_DESIGN_PERSON_AND_ORGANIZATION_ASSIGNMENT ( #154, #197, ( #11 ) ) ;
#176 = APPROVAL_STATUS ( 'not_yet_approved' ) ;
#177 = COORDINATED_UNIVERSAL_TIME_OFFSET ( 1, 0, .AHEAD. ) ;
#178 = AXIS2_PLACEMENT_3D ( 'NONE', #147, #132, #192 ) ;
#179 = APPLICATION_CONTEXT ( 'configuration controlled 3d designs of mechanical parts and assemblies' ) ;
#180 = LOCAL_TIME ( 10, 41, 49.00000000000000000, #177 ) ;
#181 = VERTEX_POINT ( 'NONE', #170 ) ;
#182 = ORIENTED_EDGE ( 'NONE', *, *, #249, .T. ) ;
#183 = CARTESIAN_POINT ( 'NONE',  ( 0.000000000000000000, 3.000000000000000000, 0.000000000000000000 ) ) ;
#184 = ADVANCED_FACE ( 'NONE', ( #226 ), #95, .T. ) ;
#185 = AXIS2_PLACEMENT_3D ( 'NONE', #54, #245, #208 ) ;
#186 = DIRECTION ( 'NONE',  ( -0.000000000000000000, -1.000000000000000000, -0.000000000000000000 ) ) ;
#187 = ORIENTED_EDGE ( 'NONE', *, *, #94, .F. ) ;
#188 = DIRECTION ( 'NONE',  ( -0.000000000000000000, -1.000000000000000000, -0.000000000000000000 ) ) ;
#189 = APPROVAL ( #176, 'UNSPECIFIED' ) ;
#190 = LOCAL_TIME ( 10, 41, 49.00000000000000000, #103 ) ;
#191 = APPLICATION_CONTEXT ( 'configuration controlled 3d designs of mechanical parts and assemblies' ) ;
#192 = DIRECTION ( 'NONE',  ( 0.000000000000000000, -0.000000000000000000, 1.000000000000000000 ) ) ;
#193 = CARTESIAN_POINT ( 'NONE',  ( 0.000000000000000000, 0.000000000000000000, -51.20000000000000284 ) ) ;
#194 = CC_DESIGN_DATE_AND_TIME_ASSIGNMENT ( #137, #234, ( #45 ) ) ;
#195 = ORGANIZATION ( 'UNSPECIFIED', 'UNSPECIFIED', '' ) ;
#196 = PERSON_AND_ORGANIZATION ( #168, #195 ) ;
#197 = PERSON_AND_ORGANIZATION_ROLE ( 'creator' ) ;
#198 = CIRCLE ( 'NONE', #144, 21.19999999999999929 ) ;
#199 = SECURITY_CLASSIFICATION_LEVEL ( 'unclassified' ) ;
#200 = CARTESIAN_POINT ( 'NONE',  ( 0.000000000000000000, 3.000000000000000000, 0.000000000000000000 ) ) ;
#201 = CC_DESIGN_SECURITY_CLASSIFICATION ( #45, ( #11 ) ) ;
#202 = ORIENTED_EDGE ( 'NONE', *, *, #111, .F. ) ;
#203 = DIRECTION ( 'NONE',  ( 0.000000000000000000, 0.000000000000000000, 1.000000000000000000 ) ) ;
#204 = CARTESIAN_POINT ( 'NONE',  ( 6.270191611634448736E-15, 3.000000000000000000, 51.20000000000000284 ) ) ;
#205 = VECTOR ( 'NONE', #188, 1000.000000000000000 ) ;
#206 = DIRECTION ( 'NONE',  ( 0.000000000000000000, 0.000000000000000000, 1.000000000000000000 ) ) ;
#207 = CARTESIAN_POINT ( 'NONE',  ( 6.270191611634448736E-15, 0.000000000000000000, 51.20000000000000284 ) ) ;
#208 = DIRECTION ( 'NONE',  ( 0.000000000000000000, 0.000000000000000000, 1.000000000000000000 ) ) ;
#209 = CARTESIAN_POINT ( 'NONE',  ( 0.000000000000000000, 3.000000000000000000, 0.000000000000000000 ) ) ;
#210 = UNCERTAINTY_MEASURE_WITH_UNIT (LENGTH_MEASURE( 1.000000000000000082E-05 ), #101, 'distance_accuracy_value', 'NONE');
#211 = APPROVAL_ROLE ( '' ) ;
#212 = CC_DESIGN_APPROVAL ( #189, ( #11 ) ) ;
#213 = ORIENTED_EDGE ( 'NONE', *, *, #239, .T. ) ;
#214 = APPROVAL_DATE_TIME ( #4, #231 ) ;
#215 = ADVANCED_FACE ( 'NONE', ( #131 ), #15, .T. ) ;
#216 = PERSON_AND_ORGANIZATION ( #168, #195 ) ;
#217 = CARTESIAN_POINT ( 'NONE',  ( 0.000000000000000000, 3.000000000000000000, 0.000000000000000000 ) ) ;
#218 = ORIENTED_EDGE ( 'NONE', *, *, #61, .T. ) ;
#219 = CIRCLE ( 'NONE', #185, 21.19999999999999929 ) ;
#220 = CC_DESIGN_DATE_AND_TIME_ASSIGNMENT ( #122, #83, ( #22 ) ) ;
#221 = VERTEX_POINT ( 'NONE', #207 ) ;
#222 = DIRECTION ( 'NONE',  ( -0.000000000000000000, -1.000000000000000000, -0.000000000000000000 ) ) ;
#223 = VERTEX_POINT ( 'NONE', #34 ) ;
#224 = DIRECTION ( 'NONE',  ( 0.000000000000000000, 0.000000000000000000, -1.000000000000000000 ) ) ;
#225 = DIRECTION ( 'NONE',  ( 0.000000000000000000, 1.000000000000000000, 0.000000000000000000 ) ) ;
#226 = FACE_OUTER_BOUND ( 'NONE', #92, .T. ) ;
#227 = AXIS2_PLACEMENT_3D ( 'NONE', #248, #81, #55 ) ;
#228 = ADVANCED_BREP_SHAPE_REPRESENTATION ( '3D_R243_42.4x3_17386055', ( #117, #155 ), #100 ) ;
#229 = ADVANCED_FACE ( 'NONE', ( #148, #151 ), #73, .F. ) ;
#230 = LINE ( 'NONE', #96, #165 ) ;
#231 = APPROVAL ( #121, 'UNSPECIFIED' ) ;
#232 = CALENDAR_DATE ( 2024, 6, 8 ) ;
#233 = PERSON_AND_ORGANIZATION_ROLE ( 'design_owner' ) ;
#234 = DATE_TIME_ROLE ( 'classification_date' ) ;
#235 = EDGE_CURVE ( 'NONE', #159, #84, #68, .T. ) ;
#236 = PERSON_AND_ORGANIZATION_ROLE ( 'classification_officer' ) ;
#237 = AXIS2_PLACEMENT_3D ( 'NONE', #200, #128, #203 ) ;
#238 = VERTEX_POINT ( 'NONE', #247 ) ;
#239 = EDGE_CURVE ( 'NONE', #163, #238, #219, .T. ) ;
#240 = EDGE_LOOP ( 'NONE', ( #44, #7, #24, #162 ) ) ;
#241 = APPROVAL_PERSON_ORGANIZATION ( #37, #189, #211 ) ;
#242 = EDGE_LOOP ( 'NONE', ( #202, #50, #182, #91 ) ) ;
#243 = DIRECTION ( 'NONE',  ( 0.000000000000000000, 1.000000000000000000, 0.000000000000000000 ) ) ;
#244 =( NAMED_UNIT ( * ) PLANE_ANGLE_UNIT ( ) SI_UNIT ( $, .RADIAN. ) );
#245 = DIRECTION ( 'NONE',  ( 0.000000000000000000, 1.000000000000000000, 0.000000000000000000 ) ) ;
#246 = DIRECTION ( 'NONE',  ( -0.000000000000000000, -1.000000000000000000, -0.000000000000000000 ) ) ;
#247 = CARTESIAN_POINT ( 'NONE',  ( 2.596251214192388770E-15, 0.000000000000000000, 21.19999999999999929 ) ) ;
#248 = CARTESIAN_POINT ( 'NONE',  ( 0.000000000000000000, 3.000000000000000000, 0.000000000000000000 ) ) ;
#249 = EDGE_CURVE ( 'NONE', #159, #163, #230, .T. ) ;
ENDSEC;
END-ISO-10303-21;
