ISO-10303-21;
HEADER;
FILE_DESCRIPTION (( 'STEP AP203' ),
    '1' );
FILE_NAME ('3D_GR1392_DN12x1.5_18380030.STEP',
    '2024-09-21T10:09:03',
    ( '' ),
    ( '' ),
    'SwSTEP 2.0',
    'SolidWorks 2024',
    '' );
FILE_SCHEMA (( 'CONFIG_CONTROL_DESIGN' ));
ENDSEC;

DATA;
#1 = CARTESIAN_POINT ( 'NONE',  ( 6.000000000000616396, 0.000000000000000000, 0.000000000000000000 ) ) ;
#2 = CIRCLE ( 'NONE', #243, 6.000000000000018652 ) ;
#3 = DIRECTION ( 'NONE',  ( -1.000000000000000000, -0.000000000000000000, -0.000000000000000000 ) ) ;
#4 = DIRECTION ( 'NONE',  ( -1.000000000000000000, -0.000000000000000000, -0.000000000000000000 ) ) ;
#5 = APPROVAL ( #107, 'UNSPECIFIED' ) ;
#6 = CC_DESIGN_APPROVAL ( #321, ( #95 ) ) ;
#7 = CARTESIAN_POINT ( 'NONE',  ( -154.8395502972293230, 7.347880794884142416E-16, -6.000000000000019540 ) ) ;
#8 = CARTESIAN_POINT ( 'NONE',  ( 0.000000000000000000, 0.000000000000000000, 0.000000000000000000 ) ) ;
#9 = CARTESIAN_POINT ( 'NONE',  ( 0.000000000000000000, 0.000000000000000000, 4.500000000000019540 ) ) ;
#10 = AXIS2_PLACEMENT_3D ( 'NONE', #304, #305, #63 ) ;
#11 = APPROVAL_ROLE ( '' ) ;
#12 = ORIENTED_EDGE ( 'NONE', *, *, #132, .F. ) ;
#13 = CC_DESIGN_PERSON_AND_ORGANIZATION_ASSIGNMENT ( #204, #345, ( #134 ) ) ;
#14 = PERSON_AND_ORGANIZATION ( #180, #30 ) ;
#15 = FACE_OUTER_BOUND ( 'NONE', #23, .T. ) ;
#16 = APPROVAL_STATUS ( 'not_yet_approved' ) ;
#17 = VERTEX_POINT ( 'NONE', #261 ) ;
#18 = CIRCLE ( 'NONE', #65, 4.500000000000022204 ) ;
#19 = APPLICATION_PROTOCOL_DEFINITION ( 'international standard', 'config_control_design', 1994, #209 ) ;
#20 = ORIENTED_EDGE ( 'NONE', *, *, #121, .F. ) ;
#21 = ADVANCED_FACE ( 'NONE', ( #15 ), #36, .T. ) ;
#22 = PERSON_AND_ORGANIZATION_ROLE ( 'design_owner' ) ;
#23 = EDGE_LOOP ( 'NONE', ( #344, #322, #108, #144 ) ) ;
#24 = CARTESIAN_POINT ( 'NONE',  ( 6.000000000000616396, 5.510910596163117166E-16, -4.500000000000022204 ) ) ;
#25 = AXIS2_PLACEMENT_3D ( 'NONE', #8, #171, #169 ) ;
#26 = DIRECTION ( 'NONE',  ( -0.7071067811865474617, 0.000000000000000000, 0.7071067811865474617 ) ) ;
#27 = ADVANCED_FACE ( 'NONE', ( #297 ), #271, .T. ) ;
#28 = DIRECTION ( 'NONE',  ( -1.000000000000000000, -0.000000000000000000, -0.000000000000000000 ) ) ;
#29 = DIRECTION ( 'NONE',  ( -1.000000000000000000, -0.000000000000000000, -0.000000000000000000 ) ) ;
#30 = ORGANIZATION ( 'UNSPECIFIED', 'UNSPECIFIED', '' ) ;
#31 = AXIS2_PLACEMENT_3D ( 'NONE', #1, #28, #192 ) ;
#32 = ADVANCED_FACE ( 'NONE', ( #246 ), #351, .T. ) ;
#33 = DIRECTION ( 'NONE',  ( -1.000000000000000000, -0.000000000000000000, -0.000000000000000000 ) ) ;
#34 = DIRECTION ( 'NONE',  ( -1.000000000000000000, -0.000000000000000000, -0.000000000000000000 ) ) ;
#35 = CARTESIAN_POINT ( 'NONE',  ( 5.999999999999875655, 0.000000000000000000, 0.000000000000000000 ) ) ;
#36 = CONICAL_SURFACE ( 'NONE', #338, 3.500000000000021316, 0.7853981633974482790 ) ;
#37 = DIRECTION ( 'NONE',  ( -0.000000000000000000, 0.000000000000000000, 1.000000000000000000 ) ) ;
#38 = APPLICATION_CONTEXT ( 'configuration controlled 3d designs of mechanical parts and assemblies' ) ;
#39 = DIRECTION ( 'NONE',  ( -1.000000000000000000, 0.000000000000000000, -0.000000000000000000 ) ) ;
#40 = PERSON_AND_ORGANIZATION_ROLE ( 'creator' ) ;
#41 = CC_DESIGN_APPROVAL ( #187, ( #134 ) ) ;
#42 = CC_DESIGN_PERSON_AND_ORGANIZATION_ASSIGNMENT ( #258, #75, ( #231 ) ) ;
#43 = DATE_AND_TIME ( #69, #166 ) ;
#44 = ORIENTED_EDGE ( 'NONE', *, *, #219, .F. ) ;
#45 = PERSON_AND_ORGANIZATION ( #180, #30 ) ;
#46 = ORIENTED_EDGE ( 'NONE', *, *, #282, .T. ) ;
#47 = PERSON_AND_ORGANIZATION ( #180, #30 ) ;
#48 = EDGE_LOOP ( 'NONE', ( #317, #106, #124, #12 ) ) ;
#49 = VECTOR ( 'NONE', #26, 1000.000000000000114 ) ;
#50 = DATE_AND_TIME ( #286, #300 ) ;
#51 = EDGE_LOOP ( 'NONE', ( #238, #185 ) ) ;
#52 = VERTEX_POINT ( 'NONE', #275 ) ;
#53 = CARTESIAN_POINT ( 'NONE',  ( 7.000000000000616396, 0.000000000000000000, 0.000000000000000000 ) ) ;
#54 = CIRCLE ( 'NONE', #109, 3.500000000000021316 ) ;
#55 = CC_DESIGN_PERSON_AND_ORGANIZATION_ASSIGNMENT ( #14, #239, ( #231 ) ) ;
#56 = CIRCLE ( 'NONE', #31, 4.500000000000022204 ) ;
#57 = CARTESIAN_POINT ( 'NONE',  ( 2.775557561562891351E-14, 0.000000000000000000, 6.000000000000019540 ) ) ;
#58 = DIRECTION ( 'NONE',  ( 0.000000000000000000, 0.000000000000000000, 1.000000000000000000 ) ) ;
#59 = CARTESIAN_POINT ( 'NONE',  ( -1.999999999999974021, 6.000000000000023981, 0.000000000000000000 ) ) ;
#60 = EDGE_CURVE ( 'NONE', #212, #340, #114, .T. ) ;
#61 = CARTESIAN_POINT ( 'NONE',  ( 0.000000000000000000, 5.510910596163115194E-16, -4.500000000000019540 ) ) ;
#62 = FACE_OUTER_BOUND ( 'NONE', #48, .T. ) ;
#63 = DIRECTION ( 'NONE',  ( -0.000000000000000000, 0.000000000000000000, 1.000000000000000000 ) ) ;
#64 = LINE ( 'NONE', #93, #148 ) ;
#65 = AXIS2_PLACEMENT_3D ( 'NONE', #303, #278, #255 ) ;
#66 = DIRECTION ( 'NONE',  ( 0.000000000000000000, 0.000000000000000000, 1.000000000000000000 ) ) ;
#67 = DATE_AND_TIME ( #152, #183 ) ;
#68 = EDGE_CURVE ( 'NONE', #76, #151, #56, .T. ) ;
#69 = CALENDAR_DATE ( 2024, 21, 9 ) ;
#70 = EDGE_LOOP ( 'NONE', ( #188, #202 ) ) ;
#71 = PERSON_AND_ORGANIZATION ( #180, #30 ) ;
#72 = ORIENTED_EDGE ( 'NONE', *, *, #68, .F. ) ;
#73 = DATE_AND_TIME ( #283, #100 ) ;
#74 = ORIENTED_EDGE ( 'NONE', *, *, #167, .F. ) ;
#75 = PERSON_AND_ORGANIZATION_ROLE ( 'creator' ) ;
#76 = VERTEX_POINT ( 'NONE', #191 ) ;
#77 = VECTOR ( 'NONE', #334, 1000.000000000000000 ) ;
#78 = VECTOR ( 'NONE', #119, 1000.000000000000000 ) ;
#79 = ORIENTED_EDGE ( 'NONE', *, *, #132, .T. ) ;
#80 = DIRECTION ( 'NONE',  ( 0.000000000000000000, 0.000000000000000000, 1.000000000000000000 ) ) ;
#81 = ADVANCED_FACE ( 'NONE', ( #242 ), #115, .T. ) ;
#82 = DIRECTION ( 'NONE',  ( -0.000000000000000000, 0.000000000000000000, -1.000000000000000000 ) ) ;
#83 = CARTESIAN_POINT ( 'NONE',  ( -1.999999999999974021, 0.000000000000000000, 0.000000000000000000 ) ) ;
#84 = ADVANCED_FACE ( 'NONE', ( #160 ), #221, .T. ) ;
#85 = DIRECTION ( 'NONE',  ( 0.000000000000000000, 0.000000000000000000, 1.000000000000000000 ) ) ;
#86 = DIRECTION ( 'NONE',  ( -1.000000000000000000, -0.000000000000000000, -0.000000000000000000 ) ) ;
#87 = CC_DESIGN_APPROVAL ( #5, ( #231 ) ) ;
#88 = CIRCLE ( 'NONE', #247, 6.000000000000018652 ) ;
#89 = CARTESIAN_POINT ( 'NONE',  ( -1.999999999999974021, -6.000000000000023981, -7.347880794884147346E-16 ) ) ;
#90 = CARTESIAN_POINT ( 'NONE',  ( -154.8395502972293230, 0.000000000000000000, 4.500000000000021316 ) ) ;
#91 = EDGE_CURVE ( 'NONE', #293, #212, #2, .T. ) ;
#92 = LINE ( 'NONE', #7, #268 ) ;
#93 = CARTESIAN_POINT ( 'NONE',  ( 7.000000000000616396, 4.286263797015762233E-16, -3.500000000000021316 ) ) ;
#94 = AXIS2_PLACEMENT_3D ( 'NONE', #136, #269, #164 ) ;
#95 = PRODUCT_DEFINITION ( 'UNKNOWN', '', #231, #170 ) ;
#96 = CARTESIAN_POINT ( 'NONE',  ( 2.775557561562891351E-14, 0.000000000000000000, 0.000000000000000000 ) ) ;
#97 = COORDINATED_UNIVERSAL_TIME_OFFSET ( 1, 0, .AHEAD. ) ;
#98 = ORIENTED_EDGE ( 'NONE', *, *, #121, .T. ) ;
#99 = PERSON_AND_ORGANIZATION ( #180, #30 ) ;
#100 = LOCAL_TIME ( 12, 9, 3.000000000000000000, #97 ) ;
#101 = EDGE_LOOP ( 'NONE', ( #264, #342, #159, #157 ) ) ;
#102 = CIRCLE ( 'NONE', #285, 4.500000000000019540 ) ;
#103 = ORIENTED_EDGE ( 'NONE', *, *, #294, .T. ) ;
#104 = MANIFOLD_SOLID_BREP ( 'Rotation1', #302 ) ;
#105 = APPROVAL_DATE_TIME ( #73, #321 ) ;
#106 = ORIENTED_EDGE ( 'NONE', *, *, #91, .T. ) ;
#107 = APPROVAL_STATUS ( 'not_yet_approved' ) ;
#108 = ORIENTED_EDGE ( 'NONE', *, *, #110, .T. ) ;
#109 = AXIS2_PLACEMENT_3D ( 'NONE', #198, #34, #66 ) ;
#110 = EDGE_CURVE ( 'NONE', #52, #76, #190, .T. ) ;
#111 = CARTESIAN_POINT ( 'NONE',  ( -154.8395502972293230, 0.000000000000000000, 6.000000000000019540 ) ) ;
#112 = DIRECTION ( 'NONE',  ( 0.000000000000000000, 1.000000000000000000, 0.000000000000000000 ) ) ;
#113 = FACE_OUTER_BOUND ( 'NONE', #287, .T. ) ;
#114 = CIRCLE ( 'NONE', #349, 6.000000000000018652 ) ;
#115 = SPHERICAL_SURFACE ( 'NONE', #306, 9.999999999999896971 ) ;
#116 = CARTESIAN_POINT ( 'NONE',  ( 7.000000000000616396, 0.000000000000000000, 3.500000000000021316 ) ) ;
#117 = LOCAL_TIME ( 12, 9, 3.000000000000000000, #207 ) ;
#118 = LINE ( 'NONE', #90, #77 ) ;
#119 = DIRECTION ( 'NONE',  ( -1.000000000000000000, -0.000000000000000000, -0.000000000000000000 ) ) ;
#120 = CARTESIAN_POINT ( 'NONE',  ( -4.000000000000021316, 6.123233995736702187E-16, 0.000000000000000000 ) ) ;
#121 = EDGE_CURVE ( 'NONE', #340, #131, #88, .T. ) ;
#122 = DIRECTION ( 'NONE',  ( -1.000000000000000000, -0.000000000000000000, -0.000000000000000000 ) ) ;
#123 = CARTESIAN_POINT ( 'NONE',  ( 0.000000000000000000, 0.000000000000000000, 0.000000000000000000 ) ) ;
#124 = ORIENTED_EDGE ( 'NONE', *, *, #335, .T. ) ;
#125 =( NAMED_UNIT ( * ) SI_UNIT ( $, .STERADIAN. ) SOLID_ANGLE_UNIT ( ) );
#126 = VERTEX_POINT ( 'NONE', #57 ) ;
#127 = DIRECTION ( 'NONE',  ( 1.000000000000000000, 0.000000000000000000, 0.000000000000000000 ) ) ;
#128 = EDGE_LOOP ( 'NONE', ( #240, #176, #98, #79 ) ) ;
#129 = AXIS2_PLACEMENT_3D ( 'NONE', #350, #4, #137 ) ;
#130 = VERTEX_POINT ( 'NONE', #162 ) ;
#131 = VERTEX_POINT ( 'NONE', #59 ) ;
#132 = EDGE_CURVE ( 'NONE', #131, #241, #216, .T. ) ;
#133 = DIRECTION ( 'NONE',  ( -1.000000000000000000, -0.000000000000000000, -0.000000000000000000 ) ) ;
#134 = SECURITY_CLASSIFICATION ( '', '', #316 ) ;
#135 = PRODUCT_DEFINITION_SHAPE ( 'NONE', 'NONE',  #95 ) ;
#136 = CARTESIAN_POINT ( 'NONE',  ( -154.8395502972293230, 0.000000000000000000, 0.000000000000000000 ) ) ;
#137 = DIRECTION ( 'NONE',  ( 0.000000000000000000, 0.000000000000000000, 1.000000000000000000 ) ) ;
#138 = CARTESIAN_POINT ( 'NONE',  ( -154.8395502972293230, 0.000000000000000000, 0.000000000000000000 ) ) ;
#139 = AXIS2_PLACEMENT_3D ( 'NONE', #189, #133, #299 ) ;
#140 = CARTESIAN_POINT ( 'NONE',  ( -1.999999999999974021, 0.000000000000000000, 0.000000000000000000 ) ) ;
#141 = CC_DESIGN_PERSON_AND_ORGANIZATION_ASSIGNMENT ( #99, #40, ( #95 ) ) ;
#142 = PLANE ( 'NONE',  #10 ) ;
#143 = DIRECTION ( 'NONE',  ( 0.000000000000000000, 0.000000000000000000, 1.000000000000000000 ) ) ;
#144 = ORIENTED_EDGE ( 'NONE', *, *, #267, .F. ) ;
#145 = PLANE ( 'NONE',  #186 ) ;
#146 = ADVANCED_FACE ( 'NONE', ( #270 ), #237, .T. ) ;
#147 = CARTESIAN_POINT ( 'NONE',  ( -1.999999999999974021, 0.000000000000000000, 0.000000000000000000 ) ) ;
#148 = VECTOR ( 'NONE', #279, 1000.000000000000114 ) ;
#149 = DATE_AND_TIME ( #201, #117 ) ;
#150 = AXIS2_PLACEMENT_3D ( 'NONE', #138, #326, #324 ) ;
#151 = VERTEX_POINT ( 'NONE', #24 ) ;
#152 = CALENDAR_DATE ( 2024, 21, 9 ) ;
#153 = ORIENTED_EDGE ( 'NONE', *, *, #203, .T. ) ;
#154 = DIRECTION ( 'NONE',  ( 0.000000000000000000, 0.000000000000000000, 1.000000000000000000 ) ) ;
#155 = ORIENTED_EDGE ( 'NONE', *, *, #167, .T. ) ;
#156 = MECHANICAL_CONTEXT ( 'NONE', #209, 'mechanical' ) ;
#157 = ORIENTED_EDGE ( 'NONE', *, *, #272, .F. ) ;
#158 = CC_DESIGN_PERSON_AND_ORGANIZATION_ASSIGNMENT ( #341, #22, ( #274 ) ) ;
#159 = ORIENTED_EDGE ( 'NONE', *, *, #203, .F. ) ;
#160 = FACE_OUTER_BOUND ( 'NONE', #236, .T. ) ;
#161 = AXIS2_PLACEMENT_3D ( 'NONE', #123, #154, #127 ) ;
#162 = CARTESIAN_POINT ( 'NONE',  ( 2.775557561562891351E-14, 7.347880794884142416E-16, -6.000000000000019540 ) ) ;
#163 = ADVANCED_BREP_SHAPE_REPRESENTATION ( '3D_GR1392_DN12x1.5_18380030', ( #104, #161 ), #226 ) ;
#164 = DIRECTION ( 'NONE',  ( 0.000000000000000000, 0.000000000000000000, 1.000000000000000000 ) ) ;
#165 = DIRECTION ( 'NONE',  ( -0.000000000000000000, 0.000000000000000000, 1.000000000000000000 ) ) ;
#166 = LOCAL_TIME ( 12, 9, 3.000000000000000000, #290 ) ;
#167 = EDGE_CURVE ( 'NONE', #182, #206, #102, .T. ) ;
#168 = DIRECTION ( 'NONE',  ( 0.000000000000000000, 0.000000000000000000, 1.000000000000000000 ) ) ;
#169 = DIRECTION ( 'NONE',  ( 0.000000000000000000, 0.000000000000000000, 1.000000000000000000 ) ) ;
#170 = DESIGN_CONTEXT ( 'detailed design', #38, 'design' ) ;
#171 = DIRECTION ( 'NONE',  ( -1.000000000000000000, -0.000000000000000000, -0.000000000000000000 ) ) ;
#172 = CARTESIAN_POINT ( 'NONE',  ( 5.999999999999875655, 0.000000000000000000, 0.000000000000000000 ) ) ;
#173 = DATE_TIME_ROLE ( 'creation_date' ) ;
#174 = AXIS2_PLACEMENT_3D ( 'NONE', #172, #256, #281 ) ;
#175 = CIRCLE ( 'NONE', #25, 4.500000000000019540 ) ;
#176 = ORIENTED_EDGE ( 'NONE', *, *, #60, .T. ) ;
#177 = ADVANCED_FACE ( 'NONE', ( #113 ), #301, .T. ) ;
#178 = COORDINATED_UNIVERSAL_TIME_OFFSET ( 1, 0, .AHEAD. ) ;
#179 = EDGE_LOOP ( 'NONE', ( #153, #155 ) ) ;
#180 = PERSON ( 'UNSPECIFIED', 'UNSPECIFIED', 'UNSPECIFIED', ('UNSPECIFIED'), ('UNSPECIFIED'), ('UNSPECIFIED') ) ;
#181 = APPROVAL_STATUS ( 'not_yet_approved' ) ;
#182 = VERTEX_POINT ( 'NONE', #61 ) ;
#183 = LOCAL_TIME ( 12, 9, 3.000000000000000000, #178 ) ;
#184 = EDGE_CURVE ( 'NONE', #126, #340, #266, .T. ) ;
#185 = ORIENTED_EDGE ( 'NONE', *, *, #248, .F. ) ;
#186 = AXIS2_PLACEMENT_3D ( 'NONE', #253, #39, #37 ) ;
#187 = APPROVAL ( #181, 'UNSPECIFIED' ) ;
#188 = ORIENTED_EDGE ( 'NONE', *, *, #233, .F. ) ;
#189 = CARTESIAN_POINT ( 'NONE',  ( -154.8395502972293230, 0.000000000000000000, 0.000000000000000000 ) ) ;
#190 = LINE ( 'NONE', #116, #49 ) ;
#191 = CARTESIAN_POINT ( 'NONE',  ( 6.000000000000616396, 0.000000000000000000, 4.500000000000022204 ) ) ;
#192 = DIRECTION ( 'NONE',  ( 0.000000000000000000, 0.000000000000000000, 1.000000000000000000 ) ) ;
#193 = DIRECTION ( 'NONE',  ( 0.000000000000000000, 0.000000000000000000, 1.000000000000000000 ) ) ;
#194 = CIRCLE ( 'NONE', #312, 6.000000000000018652 ) ;
#195 = CARTESIAN_POINT ( 'NONE',  ( 7.000000000000616396, 0.000000000000000000, 0.000000000000000000 ) ) ;
#196 = UNCERTAINTY_MEASURE_WITH_UNIT (LENGTH_MEASURE( 1.000000000000000082E-05 ), #250, 'distance_accuracy_value', 'NONE');
#197 = FACE_BOUND ( 'NONE', #179, .T. ) ;
#198 = CARTESIAN_POINT ( 'NONE',  ( 7.000000000000616396, 0.000000000000000000, 0.000000000000000000 ) ) ;
#199 = DIRECTION ( 'NONE',  ( -0.000000000000000000, 0.000000000000000000, -1.000000000000000000 ) ) ;
#200 = DIRECTION ( 'NONE',  ( -1.000000000000000000, -0.000000000000000000, -0.000000000000000000 ) ) ;
#201 = CALENDAR_DATE ( 2024, 21, 9 ) ;
#202 = ORIENTED_EDGE ( 'NONE', *, *, #343, .F. ) ;
#203 = EDGE_CURVE ( 'NONE', #206, #182, #175, .T. ) ;
#204 = PERSON_AND_ORGANIZATION ( #180, #30 ) ;
#205 = AXIS2_PLACEMENT_3D ( 'NONE', #229, #122, #143 ) ;
#206 = VERTEX_POINT ( 'NONE', #9 ) ;
#207 = COORDINATED_UNIVERSAL_TIME_OFFSET ( 1, 0, .AHEAD. ) ;
#208 = ORIENTED_EDGE ( 'NONE', *, *, #233, .T. ) ;
#209 = APPLICATION_CONTEXT ( 'configuration controlled 3d designs of mechanical parts and assemblies' ) ;
#210 = ADVANCED_FACE ( 'NONE', ( #228 ), #145, .F. ) ;
#211 = COORDINATED_UNIVERSAL_TIME_OFFSET ( 1, 0, .AHEAD. ) ;
#212 = VERTEX_POINT ( 'NONE', #89 ) ;
#213 = CC_DESIGN_SECURITY_CLASSIFICATION ( #134, ( #231 ) ) ;
#214 = APPROVAL_DATE_TIME ( #149, #5 ) ;
#215 = ORIENTED_EDGE ( 'NONE', *, *, #272, .T. ) ;
#216 = CIRCLE ( 'NONE', #332, 9.999999999999896971 ) ;
#217 = DIRECTION ( 'NONE',  ( -1.000000000000000000, -0.000000000000000000, -0.000000000000000000 ) ) ;
#218 = DIRECTION ( 'NONE',  ( -1.000000000000000000, -0.000000000000000000, -0.000000000000000000 ) ) ;
#219 = EDGE_CURVE ( 'NONE', #151, #182, #232, .T. ) ;
#220 = DIRECTION ( 'NONE',  ( -1.000000000000000000, -0.000000000000000000, -0.000000000000000000 ) ) ;
#221 = CYLINDRICAL_SURFACE ( 'NONE', #129, 6.000000000000019540 ) ;
#222 = ADVANCED_FACE ( 'NONE', ( #62 ), #277, .T. ) ;
#223 = CC_DESIGN_DATE_AND_TIME_ASSIGNMENT ( #50, #288, ( #134 ) ) ;
#224 = DIRECTION ( 'NONE',  ( 1.000000000000000000, 0.000000000000000000, 0.000000000000000000 ) ) ;
#225 =( NAMED_UNIT ( * ) PLANE_ANGLE_UNIT ( ) SI_UNIT ( $, .RADIAN. ) );
#226 =( GEOMETRIC_REPRESENTATION_CONTEXT ( 3 ) GLOBAL_UNCERTAINTY_ASSIGNED_CONTEXT ( ( #196 ) ) GLOBAL_UNIT_ASSIGNED_CONTEXT ( ( #250, #225, #125 ) ) REPRESENTATION_CONTEXT ( 'NONE', 'WORKASPACE' ) );
#227 = CIRCLE ( 'NONE', #205, 6.000000000000019540 ) ;
#228 = FACE_OUTER_BOUND ( 'NONE', #51, .T. ) ;
#229 = CARTESIAN_POINT ( 'NONE',  ( 2.775557561562891351E-14, 0.000000000000000000, 0.000000000000000000 ) ) ;
#230 = DIRECTION ( 'NONE',  ( -1.000000000000000000, -0.000000000000000000, -0.000000000000000000 ) ) ;
#231 = PRODUCT_DEFINITION_FORMATION_WITH_SPECIFIED_SOURCE ( 'ANY', '', #274, .NOT_KNOWN. ) ;
#232 = LINE ( 'NONE', #333, #78 ) ;
#233 = EDGE_CURVE ( 'NONE', #126, #130, #227, .T. ) ;
#234 = EDGE_LOOP ( 'NONE', ( #44, #265, #215, #74 ) ) ;
#235 = APPROVAL_ROLE ( '' ) ;
#236 = EDGE_LOOP ( 'NONE', ( #208, #46, #314, #20, #318 ) ) ;
#237 = CONICAL_SURFACE ( 'NONE', #320, 3.500000000000021316, 0.7853981633974482790 ) ;
#238 = ORIENTED_EDGE ( 'NONE', *, *, #294, .F. ) ;
#239 = PERSON_AND_ORGANIZATION_ROLE ( 'design_supplier' ) ;
#240 = ORIENTED_EDGE ( 'NONE', *, *, #335, .F. ) ;
#241 = VERTEX_POINT ( 'NONE', #120 ) ;
#242 = FACE_OUTER_BOUND ( 'NONE', #128, .T. ) ;
#243 = AXIS2_PLACEMENT_3D ( 'NONE', #327, #29, #85 ) ;
#244 = DIRECTION ( 'NONE',  ( 0.000000000000000000, 0.000000000000000000, 1.000000000000000000 ) ) ;
#245 = CARTESIAN_POINT ( 'NONE',  ( 0.000000000000000000, 0.000000000000000000, 0.000000000000000000 ) ) ;
#246 = FACE_OUTER_BOUND ( 'NONE', #101, .T. ) ;
#247 = AXIS2_PLACEMENT_3D ( 'NONE', #83, #220, #298 ) ;
#248 = EDGE_CURVE ( 'NONE', #17, #52, #296, .T. ) ;
#249 = CARTESIAN_POINT ( 'NONE',  ( 5.999999999999875655, 0.000000000000000000, 0.000000000000000000 ) ) ;
#250 =( LENGTH_UNIT ( ) NAMED_UNIT ( * ) SI_UNIT ( .MILLI., .METRE. ) );
#251 = DIRECTION ( 'NONE',  ( -1.000000000000000000, -0.000000000000000000, -0.000000000000000000 ) ) ;
#252 = AXIS2_PLACEMENT_3D ( 'NONE', #96, #200, #309 ) ;
#253 = CARTESIAN_POINT ( 'NONE',  ( 7.000000000000309086, 0.000000000000000000, 0.000000000000000000 ) ) ;
#254 = ORIENTED_EDGE ( 'NONE', *, *, #331, .T. ) ;
#255 = DIRECTION ( 'NONE',  ( 0.000000000000000000, 0.000000000000000000, 1.000000000000000000 ) ) ;
#256 = DIRECTION ( 'NONE',  ( 0.000000000000000000, 1.224646799147353207E-16, -1.000000000000000000 ) ) ;
#257 = CC_DESIGN_DATE_AND_TIME_ASSIGNMENT ( #67, #173, ( #95 ) ) ;
#258 = PERSON_AND_ORGANIZATION ( #180, #30 ) ;
#259 = PRODUCT_RELATED_PRODUCT_CATEGORY ( 'detail', '', ( #274 ) ) ;
#260 = APPROVAL_ROLE ( '' ) ;
#261 = CARTESIAN_POINT ( 'NONE',  ( 7.000000000000616396, 4.898587196589439453E-16, -3.500000000000021316 ) ) ;
#262 = ORIENTED_EDGE ( 'NONE', *, *, #184, .T. ) ;
#263 = APPROVAL_DATE_TIME ( #43, #187 ) ;
#264 = ORIENTED_EDGE ( 'NONE', *, *, #68, .T. ) ;
#265 = ORIENTED_EDGE ( 'NONE', *, *, #267, .T. ) ;
#266 = LINE ( 'NONE', #111, #284 ) ;
#267 = EDGE_CURVE ( 'NONE', #151, #76, #18, .T. ) ;
#268 = VECTOR ( 'NONE', #33, 1000.000000000000000 ) ;
#269 = DIRECTION ( 'NONE',  ( -1.000000000000000000, -0.000000000000000000, -0.000000000000000000 ) ) ;
#270 = FACE_OUTER_BOUND ( 'NONE', #346, .T. ) ;
#271 = CYLINDRICAL_SURFACE ( 'NONE', #150, 4.500000000000021316 ) ;
#272 = EDGE_CURVE ( 'NONE', #76, #206, #118, .T. ) ;
#273 = APPROVAL_PERSON_ORGANIZATION ( #71, #5, #235 ) ;
#274 = PRODUCT ( '3D_GR1392_DN12x1.5_18380030', '3D_GR1392_DN12x1.5_18380030', '', ( #156 ) ) ;
#275 = CARTESIAN_POINT ( 'NONE',  ( 7.000000000000616396, 0.000000000000000000, 3.500000000000021316 ) ) ;
#276 = AXIS2_PLACEMENT_3D ( 'NONE', #35, #199, #280 ) ;
#277 = SPHERICAL_SURFACE ( 'NONE', #276, 9.999999999999896971 ) ;
#278 = DIRECTION ( 'NONE',  ( -1.000000000000000000, -0.000000000000000000, -0.000000000000000000 ) ) ;
#279 = DIRECTION ( 'NONE',  ( -0.7071067811865474617, 8.659560562354932858E-17, -0.7071067811865474617 ) ) ;
#280 = DIRECTION ( 'NONE',  ( 0.000000000000000000, 1.000000000000000000, 0.000000000000000000 ) ) ;
#281 = DIRECTION ( 'NONE',  ( 0.000000000000000000, 1.000000000000000000, 1.224646799147352961E-16 ) ) ;
#282 = EDGE_CURVE ( 'NONE', #130, #293, #92, .T. ) ;
#283 = CALENDAR_DATE ( 2024, 21, 9 ) ;
#284 = VECTOR ( 'NONE', #217, 1000.000000000000000 ) ;
#285 = AXIS2_PLACEMENT_3D ( 'NONE', #245, #86, #193 ) ;
#286 = CALENDAR_DATE ( 2024, 21, 9 ) ;
#287 = EDGE_LOOP ( 'NONE', ( #291, #289, #262, #311, #292 ) ) ;
#288 = DATE_TIME_ROLE ( 'classification_date' ) ;
#289 = ORIENTED_EDGE ( 'NONE', *, *, #343, .T. ) ;
#290 = COORDINATED_UNIVERSAL_TIME_OFFSET ( 1, 0, .AHEAD. ) ;
#291 = ORIENTED_EDGE ( 'NONE', *, *, #282, .F. ) ;
#292 = ORIENTED_EDGE ( 'NONE', *, *, #91, .F. ) ;
#293 = VERTEX_POINT ( 'NONE', #308 ) ;
#294 = EDGE_CURVE ( 'NONE', #52, #17, #54, .T. ) ;
#295 = CARTESIAN_POINT ( 'NONE',  ( 5.999999999999875655, 0.000000000000000000, 0.000000000000000000 ) ) ;
#296 = CIRCLE ( 'NONE', #325, 3.500000000000021316 ) ;
#297 = FACE_OUTER_BOUND ( 'NONE', #234, .T. ) ;
#298 = DIRECTION ( 'NONE',  ( 0.000000000000000000, 0.000000000000000000, 1.000000000000000000 ) ) ;
#299 = DIRECTION ( 'NONE',  ( 0.000000000000000000, 0.000000000000000000, 1.000000000000000000 ) ) ;
#300 = LOCAL_TIME ( 12, 9, 3.000000000000000000, #211 ) ;
#301 = CYLINDRICAL_SURFACE ( 'NONE', #94, 6.000000000000019540 ) ;
#302 = CLOSED_SHELL ( 'NONE', ( #146, #32, #84, #222, #81, #177, #315, #27, #21, #210 ) ) ;
#303 = CARTESIAN_POINT ( 'NONE',  ( 6.000000000000616396, 0.000000000000000000, 0.000000000000000000 ) ) ;
#304 = CARTESIAN_POINT ( 'NONE',  ( 8.467998814554862119E-15, 4.500000000000019540, 0.000000000000000000 ) ) ;
#305 = DIRECTION ( 'NONE',  ( -1.000000000000000000, 0.000000000000000000, -0.000000000000000000 ) ) ;
#306 = AXIS2_PLACEMENT_3D ( 'NONE', #249, #82, #112 ) ;
#307 = EDGE_CURVE ( 'NONE', #131, #293, #194, .T. ) ;
#308 = CARTESIAN_POINT ( 'NONE',  ( -1.999999999999974021, 7.347880794884141430E-16, -6.000000000000018652 ) ) ;
#309 = DIRECTION ( 'NONE',  ( 0.000000000000000000, 0.000000000000000000, 1.000000000000000000 ) ) ;
#310 = SHAPE_DEFINITION_REPRESENTATION ( #135, #163 ) ;
#311 = ORIENTED_EDGE ( 'NONE', *, *, #60, .F. ) ;
#312 = AXIS2_PLACEMENT_3D ( 'NONE', #147, #230, #330 ) ;
#313 = APPLICATION_PROTOCOL_DEFINITION ( 'international standard', 'config_control_design', 1994, #38 ) ;
#314 = ORIENTED_EDGE ( 'NONE', *, *, #307, .F. ) ;
#315 = ADVANCED_FACE ( 'NONE', ( #336, #197 ), #142, .F. ) ;
#316 = SECURITY_CLASSIFICATION_LEVEL ( 'unclassified' ) ;
#317 = ORIENTED_EDGE ( 'NONE', *, *, #307, .T. ) ;
#318 = ORIENTED_EDGE ( 'NONE', *, *, #184, .F. ) ;
#319 = APPROVAL_PERSON_ORGANIZATION ( #45, #187, #11 ) ;
#320 = AXIS2_PLACEMENT_3D ( 'NONE', #323, #328, #58 ) ;
#321 = APPROVAL ( #16, 'UNSPECIFIED' ) ;
#322 = ORIENTED_EDGE ( 'NONE', *, *, #248, .T. ) ;
#323 = CARTESIAN_POINT ( 'NONE',  ( 7.000000000000616396, 0.000000000000000000, 0.000000000000000000 ) ) ;
#324 = DIRECTION ( 'NONE',  ( 0.000000000000000000, 0.000000000000000000, 1.000000000000000000 ) ) ;
#325 = AXIS2_PLACEMENT_3D ( 'NONE', #195, #251, #168 ) ;
#326 = DIRECTION ( 'NONE',  ( -1.000000000000000000, -0.000000000000000000, -0.000000000000000000 ) ) ;
#327 = CARTESIAN_POINT ( 'NONE',  ( -1.999999999999974021, 0.000000000000000000, 0.000000000000000000 ) ) ;
#328 = DIRECTION ( 'NONE',  ( -1.000000000000000000, -0.000000000000000000, -0.000000000000000000 ) ) ;
#329 = APPROVAL_PERSON_ORGANIZATION ( #47, #321, #260 ) ;
#330 = DIRECTION ( 'NONE',  ( 0.000000000000000000, 0.000000000000000000, 1.000000000000000000 ) ) ;
#331 = EDGE_CURVE ( 'NONE', #17, #151, #64, .T. ) ;
#332 = AXIS2_PLACEMENT_3D ( 'NONE', #295, #165, #224 ) ;
#333 = CARTESIAN_POINT ( 'NONE',  ( -154.8395502972293230, 5.510910596163116180E-16, -4.500000000000021316 ) ) ;
#334 = DIRECTION ( 'NONE',  ( -1.000000000000000000, -0.000000000000000000, -0.000000000000000000 ) ) ;
#335 = EDGE_CURVE ( 'NONE', #212, #241, #337, .T. ) ;
#336 = FACE_OUTER_BOUND ( 'NONE', #70, .T. ) ;
#337 = CIRCLE ( 'NONE', #174, 9.999999999999896971 ) ;
#338 = AXIS2_PLACEMENT_3D ( 'NONE', #53, #218, #244 ) ;
#339 = CARTESIAN_POINT ( 'NONE',  ( -1.999999999999974021, 0.000000000000000000, 6.000000000000018652 ) ) ;
#340 = VERTEX_POINT ( 'NONE', #339 ) ;
#341 = PERSON_AND_ORGANIZATION ( #180, #30 ) ;
#342 = ORIENTED_EDGE ( 'NONE', *, *, #219, .T. ) ;
#343 = EDGE_CURVE ( 'NONE', #130, #126, #348, .T. ) ;
#344 = ORIENTED_EDGE ( 'NONE', *, *, #331, .F. ) ;
#345 = PERSON_AND_ORGANIZATION_ROLE ( 'classification_officer' ) ;
#346 = EDGE_LOOP ( 'NONE', ( #103, #254, #72, #347 ) ) ;
#347 = ORIENTED_EDGE ( 'NONE', *, *, #110, .F. ) ;
#348 = CIRCLE ( 'NONE', #252, 6.000000000000019540 ) ;
#349 = AXIS2_PLACEMENT_3D ( 'NONE', #140, #3, #80 ) ;
#350 = CARTESIAN_POINT ( 'NONE',  ( -154.8395502972293230, 0.000000000000000000, 0.000000000000000000 ) ) ;
#351 = CYLINDRICAL_SURFACE ( 'NONE', #139, 4.500000000000021316 ) ;
ENDSEC;
END-ISO-10303-21;
