ISO-10303-21;
HEADER;
FILE_DESCRIPTION (( 'STEP AP203' ),
    '1' );
FILE_NAME ('OT200-32-42_4x2_6_OSTP.step',
    '2020-12-16T02:16:34',
    ( '' ),
    ( '' ),
    'SwSTEP 2.0',
    'SolidWorks 2014',
    '' );
FILE_SCHEMA (( 'CONFIG_CONTROL_DESIGN' ));
ENDSEC;

DATA;
#1 = ORIENTED_EDGE ( 'NONE', *, *, #89, .T. ) ;
#2 = CARTESIAN_POINT ( 'NONE',  ( 21.19999999999999900, 0.0000000000000000000, -2.596251214192388800E-015 ) ) ;
#3 = APPLICATION_PROTOCOL_DEFINITION ( 'international standard', 'config_control_design', 1994, #164 ) ;
#4 = DATE_AND_TIME ( #57, #115 ) ;
#5 = VERTEX_POINT ( 'NONE', #73 ) ;
#6 = CC_DESIGN_DATE_AND_TIME_ASSIGNMENT ( #214, #63, ( #151 ) ) ;
#7 = APPROVAL_STATUS ( 'not_yet_approved' ) ;
#8 = CIRCLE ( 'NONE', #136, 21.19999999999999900 ) ;
#9 = EDGE_CURVE ( 'NONE', #11, #88, #69, .T. ) ;
#10 = CALENDAR_DATE ( 2020, 16, 12 ) ;
#11 = VERTEX_POINT ( 'NONE', #247 ) ;
#12 = APPROVAL_PERSON_ORGANIZATION ( #222, #224, #145 ) ;
#13 = ORIENTED_EDGE ( 'NONE', *, *, #77, .T. ) ;
#14 = CC_DESIGN_PERSON_AND_ORGANIZATION_ASSIGNMENT ( #152, #87, ( #71 ) ) ;
#15 = CARTESIAN_POINT ( 'NONE',  ( 47.50000000000000000, 47.50000000000000000, 0.0000000000000000000 ) ) ;
#16 = CARTESIAN_POINT ( 'NONE',  ( 47.49999999999999300, 47.50000000000000000, 0.0000000000000000000 ) ) ;
#17 = PERSON_AND_ORGANIZATION ( #240, #166 ) ;
#18 = AXIS2_PLACEMENT_3D ( 'NONE', #199, #78, #249 ) ;
#19 = CARTESIAN_POINT ( 'NONE',  ( 47.49999999999999300, 47.50000000000000000, 0.0000000000000000000 ) ) ;
#20 = CIRCLE ( 'NONE', #243, 21.19999999999999900 ) ;
#21 = DIRECTION ( 'NONE',  ( 0.0000000000000000000, 1.000000000000000000, 0.0000000000000000000 ) ) ;
#22 = CALENDAR_DATE ( 2020, 16, 12 ) ;
#23 = DIRECTION ( 'NONE',  ( 0.0000000000000000000, 0.0000000000000000000, 1.000000000000000000 ) ) ;
#24 = LOCAL_TIME ( 3, 16, 34.00000000000000000, #37 ) ;
#25 = DIRECTION ( 'NONE',  ( 0.0000000000000000000, 1.000000000000000000, 0.0000000000000000000 ) ) ;
#26 = APPROVAL_STATUS ( 'not_yet_approved' ) ;
#27 = ORIENTED_EDGE ( 'NONE', *, *, #83, .T. ) ;
#28 = CC_DESIGN_APPROVAL ( #210, ( #151 ) ) ;
#29 = COORDINATED_UNIVERSAL_TIME_OFFSET ( 1, 0, .AHEAD. ) ;
#30 = CC_DESIGN_APPROVAL ( #134, ( #35 ) ) ;
#31 = ORIENTED_EDGE ( 'NONE', *, *, #168, .T. ) ;
#32 = ADVANCED_FACE ( 'NONE', ( #232 ), #49, .F. ) ;
#33 = ORIENTED_EDGE ( 'NONE', *, *, #77, .F. ) ;
#34 = EDGE_LOOP ( 'NONE', ( #142, #108, #196, #33 ) ) ;
#35 = PRODUCT_DEFINITION_FORMATION_WITH_SPECIFIED_SOURCE ( 'ANY', '', #71, .NOT_KNOWN. ) ;
#36 = DIRECTION ( 'NONE',  ( 0.0000000000000000000, 0.0000000000000000000, 1.000000000000000000 ) ) ;
#37 = COORDINATED_UNIVERSAL_TIME_OFFSET ( 1, 0, .AHEAD. ) ;
#38 = ORIENTED_EDGE ( 'NONE', *, *, #180, .T. ) ;
#39 = DIRECTION ( 'NONE',  ( 1.000000000000000000, 6.123233995736766000E-017, 0.0000000000000000000 ) ) ;
#40 = DIRECTION ( 'NONE',  ( 0.0000000000000000000, 0.0000000000000000000, 1.000000000000000000 ) ) ;
#41 = CC_DESIGN_DATE_AND_TIME_ASSIGNMENT ( #167, #84, ( #46 ) ) ;
#42 = DIRECTION ( 'NONE',  ( 0.0000000000000000000, 0.0000000000000000000, 1.000000000000000000 ) ) ;
#43 = EDGE_LOOP ( 'NONE', ( #27, #98 ) ) ;
#44 = APPLICATION_PROTOCOL_DEFINITION ( 'international standard', 'config_control_design', 1994, #64 ) ;
#45 = ORIENTED_EDGE ( 'NONE', *, *, #228, .T. ) ;
#46 = SECURITY_CLASSIFICATION ( '', '', #125 ) ;
#47 = AXIS2_PLACEMENT_3D ( 'NONE', #212, #100, #99 ) ;
#48 = PERSON_AND_ORGANIZATION ( #240, #166 ) ;
#49 = TOROIDAL_SURFACE ( 'NONE', #189, 47.50000000000000000, 18.59999999999999800 ) ;
#50 = DESIGN_CONTEXT ( 'detailed design', #64, 'design' ) ;
#51 = DIRECTION ( 'NONE',  ( 1.000000000000000000, 6.123233995736766000E-017, 0.0000000000000000000 ) ) ;
#52 = CC_DESIGN_PERSON_AND_ORGANIZATION_ASSIGNMENT ( #92, #233, ( #151 ) ) ;
#53 = FACE_OUTER_BOUND ( 'NONE', #103, .T. ) ;
#54 = ADVANCED_FACE ( 'NONE', ( #93 ), #153, .F. ) ;
#55 = CARTESIAN_POINT ( 'NONE',  ( 47.50000000000000000, 0.0000000000000000000, 0.0000000000000000000 ) ) ;
#56 = DIRECTION ( 'NONE',  ( 0.0000000000000000000, 0.0000000000000000000, 1.000000000000000000 ) ) ;
#57 = CALENDAR_DATE ( 2020, 16, 12 ) ;
#58 = ORIENTED_EDGE ( 'NONE', *, *, #89, .F. ) ;
#59 = AXIS2_PLACEMENT_3D ( 'NONE', #76, #23, #194 ) ;
#60 = CARTESIAN_POINT ( 'NONE',  ( 0.0000000000000000000, 0.0000000000000000000, 0.0000000000000000000 ) ) ;
#61 = EDGE_LOOP ( 'NONE', ( #192, #188 ) ) ;
#62 = CARTESIAN_POINT ( 'NONE',  ( 0.0000000000000000000, 0.0000000000000000000, 0.0000000000000000000 ) ) ;
#63 = DATE_TIME_ROLE ( 'creation_date' ) ;
#64 = APPLICATION_CONTEXT ( 'configuration controlled 3d designs of mechanical parts and assemblies' ) ;
#65 = LOCAL_TIME ( 3, 16, 34.00000000000000000, #120 ) ;
#66 = CC_DESIGN_PERSON_AND_ORGANIZATION_ASSIGNMENT ( #17, #144, ( #35 ) ) ;
#67 = FACE_OUTER_BOUND ( 'NONE', #117, .T. ) ;
#68 = AXIS2_PLACEMENT_3D ( 'NONE', #141, #21, #107 ) ;
#69 = CIRCLE ( 'NONE', #106, 18.59999999999999100 ) ;
#70 = CC_DESIGN_PERSON_AND_ORGANIZATION_ASSIGNMENT ( #177, #185, ( #35 ) ) ;
#71 = PRODUCT ( 'OT200-32-42_4x2_6_OSTP', 'OT200-32-42_4x2_6_OSTP', '', ( #236 ) ) ;
#72 = ADVANCED_FACE ( 'NONE', ( #207, #250 ), #133, .T. ) ;
#73 = CARTESIAN_POINT ( 'NONE',  ( -21.19999999999999600, 0.0000000000000000000, 0.0000000000000000000 ) ) ;
#74 = DIRECTION ( 'NONE',  ( 0.0000000000000000000, 0.0000000000000000000, 1.000000000000000000 ) ) ;
#75 = DATE_AND_TIME ( #10, #65 ) ;
#76 = CARTESIAN_POINT ( 'NONE',  ( 47.50000000000000000, 0.0000000000000000000, 0.0000000000000000000 ) ) ;
#77 = EDGE_CURVE ( 'NONE', #11, #193, #242, .T. ) ;
#78 = DIRECTION ( 'NONE',  ( 0.0000000000000000000, 1.000000000000000000, 0.0000000000000000000 ) ) ;
#79 = CARTESIAN_POINT ( 'NONE',  ( -18.59999999999999400, 0.0000000000000000000, 0.0000000000000000000 ) ) ;
#80 = EDGE_LOOP ( 'NONE', ( #135, #147, #45, #38 ) ) ;
#81 = DIRECTION ( 'NONE',  ( 1.000000000000000000, 0.0000000000000000000, 0.0000000000000000000 ) ) ;
#82 = DIRECTION ( 'NONE',  ( 0.0000000000000000000, 0.0000000000000000000, 1.000000000000000000 ) ) ;
#83 = EDGE_CURVE ( 'NONE', #193, #206, #97, .T. ) ;
#84 = DATE_TIME_ROLE ( 'classification_date' ) ;
#85 = ORIENTED_EDGE ( 'NONE', *, *, #9, .F. ) ;
#86 = APPROVAL_ROLE ( '' ) ;
#87 = PERSON_AND_ORGANIZATION_ROLE ( 'design_owner' ) ;
#88 = VERTEX_POINT ( 'NONE', #94 ) ;
#89 = EDGE_CURVE ( 'NONE', #88, #11, #225, .T. ) ;
#90 = VERTEX_POINT ( 'NONE', #162 ) ;
#91 = DATE_AND_TIME ( #22, #198 ) ;
#92 = PERSON_AND_ORGANIZATION ( #240, #166 ) ;
#93 = FACE_OUTER_BOUND ( 'NONE', #132, .T. ) ;
#94 = CARTESIAN_POINT ( 'NONE',  ( 47.50000000000000000, 66.09999999999999400, 0.0000000000000000000 ) ) ;
#95 = AXIS2_PLACEMENT_3D ( 'NONE', #227, #252, #182 ) ;
#96 = MANIFOLD_SOLID_BREP ( 'cut-body', #170 ) ;
#97 = CIRCLE ( 'NONE', #68, 18.59999999999999800 ) ;
#98 = ORIENTED_EDGE ( 'NONE', *, *, #114, .T. ) ;
#99 = DIRECTION ( 'NONE',  ( 1.000000000000000000, 0.0000000000000000000, 0.0000000000000000000 ) ) ;
#100 = DIRECTION ( 'NONE',  ( 0.0000000000000000000, 0.0000000000000000000, 1.000000000000000000 ) ) ;
#101 = PLANE ( 'NONE',  #18 ) ;
#102 = CALENDAR_DATE ( 2020, 16, 12 ) ;
#103 = EDGE_LOOP ( 'NONE', ( #150, #239 ) ) ;
#104 = DIRECTION ( 'NONE',  ( 0.0000000000000000000, 0.0000000000000000000, 1.000000000000000000 ) ) ;
#105 = CARTESIAN_POINT ( 'NONE',  ( 47.50000000000000000, 0.0000000000000000000, -2.596251214192388800E-015 ) ) ;
#106 = AXIS2_PLACEMENT_3D ( 'NONE', #15, #51, #211 ) ;
#107 = DIRECTION ( 'NONE',  ( 0.0000000000000000000, 0.0000000000000000000, 1.000000000000000000 ) ) ;
#108 = ORIENTED_EDGE ( 'NONE', *, *, #186, .T. ) ;
#109 = AXIS2_PLACEMENT_3D ( 'NONE', #121, #161, #81 ) ;
#110 = APPROVAL_PERSON_ORGANIZATION ( #171, #210, #86 ) ;
#111 = CIRCLE ( 'NONE', #191, 18.59999999999999800 ) ;
#112 = ORIENTED_EDGE ( 'NONE', *, *, #186, .F. ) ;
#113 =( GEOMETRIC_REPRESENTATION_CONTEXT ( 3 ) GLOBAL_UNCERTAINTY_ASSIGNED_CONTEXT ( ( #241 ) ) GLOBAL_UNIT_ASSIGNED_CONTEXT ( ( #143, #231, #128 ) ) REPRESENTATION_CONTEXT ( 'NONE', 'WORKASPACE' ) );
#114 = EDGE_CURVE ( 'NONE', #206, #193, #111, .T. ) ;
#115 = LOCAL_TIME ( 3, 16, 34.00000000000000000, #29 ) ;
#116 = AXIS2_PLACEMENT_3D ( 'NONE', #197, #36, #178 ) ;
#117 = EDGE_LOOP ( 'NONE', ( #174, #31, #187, #246 ) ) ;
#118 = ADVANCED_FACE ( 'NONE', ( #67 ), #229, .T. ) ;
#119 = DIRECTION ( 'NONE',  ( 0.0000000000000000000, 0.0000000000000000000, 1.000000000000000000 ) ) ;
#120 = COORDINATED_UNIVERSAL_TIME_OFFSET ( 1, 0, .AHEAD. ) ;
#121 = CARTESIAN_POINT ( 'NONE',  ( 47.50000000000000000, 0.0000000000000000000, 0.0000000000000000000 ) ) ;
#122 = VERTEX_POINT ( 'NONE', #160 ) ;
#123 = DIRECTION ( 'NONE',  ( 0.0000000000000000000, 1.000000000000000000, 0.0000000000000000000 ) ) ;
#124 = AXIS2_PLACEMENT_3D ( 'NONE', #158, #82, #215 ) ;
#125 = SECURITY_CLASSIFICATION_LEVEL ( 'unclassified' ) ;
#126 = LOCAL_TIME ( 3, 16, 34.00000000000000000, #208 ) ;
#127 = CARTESIAN_POINT ( 'NONE',  ( 0.0000000000000000000, 0.0000000000000000000, 0.0000000000000000000 ) ) ;
#128 =( NAMED_UNIT ( * ) SI_UNIT ( $, .STERADIAN. ) SOLID_ANGLE_UNIT ( ) );
#129 = CIRCLE ( 'NONE', #159, 21.19999999999999900 ) ;
#130 = ADVANCED_BREP_SHAPE_REPRESENTATION ( 'OT200-32-42_4x2_6_OSTP', ( #96, #140 ), #113 ) ;
#131 = AXIS2_PLACEMENT_3D ( 'NONE', #19, #163, #42 ) ;
#132 = EDGE_LOOP ( 'NONE', ( #112, #1, #13, #200 ) ) ;
#133 = PLANE ( 'NONE',  #195 ) ;
#134 = APPROVAL ( #7, 'UNSPECIFIED' ) ;
#135 = ORIENTED_EDGE ( 'NONE', *, *, #168, .F. ) ;
#136 = AXIS2_PLACEMENT_3D ( 'NONE', #62, #25, #204 ) ;
#137 = DIRECTION ( 'NONE',  ( 1.000000000000000000, 6.123233995736766000E-017, -0.0000000000000000000 ) ) ;
#138 = CARTESIAN_POINT ( 'NONE',  ( 18.59999999999999800, 0.0000000000000000000, -2.277843046414076800E-015 ) ) ;
#139 = CARTESIAN_POINT ( 'NONE',  ( 47.49999999999999300, 47.50000000000000000, 0.0000000000000000000 ) ) ;
#140 = AXIS2_PLACEMENT_3D ( 'NONE', #127, #218, #202 ) ;
#141 = CARTESIAN_POINT ( 'NONE',  ( 0.0000000000000000000, 0.0000000000000000000, 0.0000000000000000000 ) ) ;
#142 = ORIENTED_EDGE ( 'NONE', *, *, #9, .T. ) ;
#143 =( LENGTH_UNIT ( ) NAMED_UNIT ( * ) SI_UNIT ( .MILLI., .METRE. ) );
#144 = PERSON_AND_ORGANIZATION_ROLE ( 'creator' ) ;
#145 = APPROVAL_ROLE ( '' ) ;
#146 = APPROVAL_DATE_TIME ( #75, #210 ) ;
#147 = ORIENTED_EDGE ( 'NONE', *, *, #165, .F. ) ;
#148 = APPROVAL_STATUS ( 'not_yet_approved' ) ;
#149 = APPROVAL_DATE_TIME ( #91, #224 ) ;
#150 = ORIENTED_EDGE ( 'NONE', *, *, #180, .F. ) ;
#151 = PRODUCT_DEFINITION ( 'UNKNOWN', '', #35, #50 ) ;
#152 = PERSON_AND_ORGANIZATION ( #240, #166 ) ;
#153 = TOROIDAL_SURFACE ( 'NONE', #173, 47.50000000000000000, 18.59999999999999800 ) ;
#154 = ADVANCED_FACE ( 'NONE', ( #237, #53 ), #101, .F. ) ;
#155 = CIRCLE ( 'NONE', #59, 68.70000000000000300 ) ;
#156 = APPROVAL_DATE_TIME ( #4, #134 ) ;
#157 = EDGE_LOOP ( 'NONE', ( #85, #58 ) ) ;
#158 = CARTESIAN_POINT ( 'NONE',  ( 47.50000000000000000, 0.0000000000000000000, 0.0000000000000000000 ) ) ;
#159 = AXIS2_PLACEMENT_3D ( 'NONE', #139, #39, #251 ) ;
#160 = CARTESIAN_POINT ( 'NONE',  ( 47.49999999999998600, 68.70000000000000300, 0.0000000000000000000 ) ) ;
#161 = DIRECTION ( 'NONE',  ( 0.0000000000000000000, 0.0000000000000000000, 1.000000000000000000 ) ) ;
#162 = CARTESIAN_POINT ( 'NONE',  ( 47.49999999999999300, 26.30000000000000100, -2.596251214192388800E-015 ) ) ;
#163 = DIRECTION ( 'NONE',  ( 1.000000000000000000, 6.123233995736766000E-017, 0.0000000000000000000 ) ) ;
#164 = APPLICATION_CONTEXT ( 'configuration controlled 3d designs of mechanical parts and assemblies' ) ;
#165 = EDGE_CURVE ( 'NONE', #90, #122, #129, .T. ) ;
#166 = ORGANIZATION ( 'UNSPECIFIED', 'UNSPECIFIED', '' ) ;
#167 = DATE_AND_TIME ( #181, #126 ) ;
#168 = EDGE_CURVE ( 'NONE', #122, #5, #155, .T. ) ;
#169 = CIRCLE ( 'NONE', #253, 26.30000000000000400 ) ;
#170 = CLOSED_SHELL ( 'NONE', ( #32, #118, #226, #72, #154, #54 ) ) ;
#171 = PERSON_AND_ORGANIZATION ( #240, #166 ) ;
#172 = COORDINATED_UNIVERSAL_TIME_OFFSET ( 1, 0, .AHEAD. ) ;
#173 = AXIS2_PLACEMENT_3D ( 'NONE', #245, #56, #175 ) ;
#174 = ORIENTED_EDGE ( 'NONE', *, *, #176, .F. ) ;
#175 = DIRECTION ( 'NONE',  ( 1.000000000000000000, 0.0000000000000000000, 0.0000000000000000000 ) ) ;
#176 = EDGE_CURVE ( 'NONE', #122, #90, #179, .T. ) ;
#177 = PERSON_AND_ORGANIZATION ( #240, #166 ) ;
#178 = DIRECTION ( 'NONE',  ( 1.000000000000000000, 0.0000000000000000000, 0.0000000000000000000 ) ) ;
#179 = CIRCLE ( 'NONE', #131, 21.19999999999999900 ) ;
#180 = EDGE_CURVE ( 'NONE', #209, #5, #20, .T. ) ;
#181 = CALENDAR_DATE ( 2020, 16, 12 ) ;
#182 = DIRECTION ( 'NONE',  ( 0.0000000000000000000, 1.000000000000000000, 0.0000000000000000000 ) ) ;
#183 = DIRECTION ( 'NONE',  ( 0.0000000000000000000, 1.000000000000000000, 0.0000000000000000000 ) ) ;
#184 = PERSON_AND_ORGANIZATION ( #240, #166 ) ;
#185 = PERSON_AND_ORGANIZATION_ROLE ( 'design_supplier' ) ;
#186 = EDGE_CURVE ( 'NONE', #88, #206, #190, .T. ) ;
#187 = ORIENTED_EDGE ( 'NONE', *, *, #238, .T. ) ;
#188 = ORIENTED_EDGE ( 'NONE', *, *, #176, .T. ) ;
#189 = AXIS2_PLACEMENT_3D ( 'NONE', #55, #119, #213 ) ;
#190 = CIRCLE ( 'NONE', #116, 66.09999999999999400 ) ;
#191 = AXIS2_PLACEMENT_3D ( 'NONE', #216, #183, #40 ) ;
#192 = ORIENTED_EDGE ( 'NONE', *, *, #165, .T. ) ;
#193 = VERTEX_POINT ( 'NONE', #138 ) ;
#194 = DIRECTION ( 'NONE',  ( 1.000000000000000000, 0.0000000000000000000, 0.0000000000000000000 ) ) ;
#195 = AXIS2_PLACEMENT_3D ( 'NONE', #16, #137, #74 ) ;
#196 = ORIENTED_EDGE ( 'NONE', *, *, #83, .F. ) ;
#197 = CARTESIAN_POINT ( 'NONE',  ( 47.50000000000000000, 0.0000000000000000000, 0.0000000000000000000 ) ) ;
#198 = LOCAL_TIME ( 3, 16, 34.00000000000000000, #172 ) ;
#199 = CARTESIAN_POINT ( 'NONE',  ( 0.0000000000000000000, 0.0000000000000000000, 0.0000000000000000000 ) ) ;
#200 = ORIENTED_EDGE ( 'NONE', *, *, #114, .F. ) ;
#201 = PERSON_AND_ORGANIZATION_ROLE ( 'classification_officer' ) ;
#202 = DIRECTION ( 'NONE',  ( 1.000000000000000000, 0.0000000000000000000, 0.0000000000000000000 ) ) ;
#203 = CC_DESIGN_PERSON_AND_ORGANIZATION_ASSIGNMENT ( #184, #201, ( #46 ) ) ;
#204 = DIRECTION ( 'NONE',  ( 0.0000000000000000000, 0.0000000000000000000, 1.000000000000000000 ) ) ;
#205 = SHAPE_DEFINITION_REPRESENTATION ( #244, #130 ) ;
#206 = VERTEX_POINT ( 'NONE', #79 ) ;
#207 = FACE_BOUND ( 'NONE', #157, .T. ) ;
#208 = COORDINATED_UNIVERSAL_TIME_OFFSET ( 1, 0, .AHEAD. ) ;
#209 = VERTEX_POINT ( 'NONE', #2 ) ;
#210 = APPROVAL ( #26, 'UNSPECIFIED' ) ;
#211 = DIRECTION ( 'NONE',  ( 0.0000000000000000000, 1.000000000000000000, 0.0000000000000000000 ) ) ;
#212 = CARTESIAN_POINT ( 'NONE',  ( 47.50000000000000000, 0.0000000000000000000, -2.277843046414076800E-015 ) ) ;
#213 = DIRECTION ( 'NONE',  ( 1.000000000000000000, 0.0000000000000000000, 0.0000000000000000000 ) ) ;
#214 = DATE_AND_TIME ( #102, #24 ) ;
#215 = DIRECTION ( 'NONE',  ( 1.000000000000000000, 0.0000000000000000000, 0.0000000000000000000 ) ) ;
#216 = CARTESIAN_POINT ( 'NONE',  ( 0.0000000000000000000, 0.0000000000000000000, 0.0000000000000000000 ) ) ;
#217 = TOROIDAL_SURFACE ( 'NONE', #109, 47.50000000000000000, 21.19999999999999900 ) ;
#218 = DIRECTION ( 'NONE',  ( 0.0000000000000000000, 0.0000000000000000000, 1.000000000000000000 ) ) ;
#219 = APPROVAL_ROLE ( '' ) ;
#220 = CC_DESIGN_APPROVAL ( #224, ( #46 ) ) ;
#221 = FACE_OUTER_BOUND ( 'NONE', #80, .T. ) ;
#222 = PERSON_AND_ORGANIZATION ( #240, #166 ) ;
#223 = APPROVAL_PERSON_ORGANIZATION ( #48, #134, #219 ) ;
#224 = APPROVAL ( #148, 'UNSPECIFIED' ) ;
#225 = CIRCLE ( 'NONE', #95, 18.59999999999999100 ) ;
#226 = ADVANCED_FACE ( 'NONE', ( #221 ), #217, .T. ) ;
#227 = CARTESIAN_POINT ( 'NONE',  ( 47.50000000000000000, 47.50000000000000000, 0.0000000000000000000 ) ) ;
#228 = EDGE_CURVE ( 'NONE', #90, #209, #169, .T. ) ;
#229 = TOROIDAL_SURFACE ( 'NONE', #124, 47.50000000000000000, 21.19999999999999900 ) ;
#230 = DIRECTION ( 'NONE',  ( 0.0000000000000000000, 0.0000000000000000000, 1.000000000000000000 ) ) ;
#231 =( NAMED_UNIT ( * ) PLANE_ANGLE_UNIT ( ) SI_UNIT ( $, .RADIAN. ) );
#232 = FACE_OUTER_BOUND ( 'NONE', #34, .T. ) ;
#233 = PERSON_AND_ORGANIZATION_ROLE ( 'creator' ) ;
#234 = CC_DESIGN_SECURITY_CLASSIFICATION ( #46, ( #35 ) ) ;
#235 = DIRECTION ( 'NONE',  ( 1.000000000000000000, 0.0000000000000000000, 0.0000000000000000000 ) ) ;
#236 = MECHANICAL_CONTEXT ( 'NONE', #164, 'mechanical' ) ;
#237 = FACE_BOUND ( 'NONE', #43, .T. ) ;
#238 = EDGE_CURVE ( 'NONE', #5, #209, #8, .T. ) ;
#239 = ORIENTED_EDGE ( 'NONE', *, *, #238, .F. ) ;
#240 = PERSON ( 'UNSPECIFIED', 'UNSPECIFIED', 'UNSPECIFIED', ('UNSPECIFIED'), ('UNSPECIFIED'), ('UNSPECIFIED') ) ;
#241 = UNCERTAINTY_MEASURE_WITH_UNIT (LENGTH_MEASURE( 1.000000000000000100E-005 ), #143, 'distance_accuracy_value', 'NONE');
#242 = CIRCLE ( 'NONE', #47, 28.89999999999999500 ) ;
#243 = AXIS2_PLACEMENT_3D ( 'NONE', #60, #123, #104 ) ;
#244 = PRODUCT_DEFINITION_SHAPE ( 'NONE', 'NONE',  #151 ) ;
#245 = CARTESIAN_POINT ( 'NONE',  ( 47.50000000000000000, 0.0000000000000000000, 0.0000000000000000000 ) ) ;
#246 = ORIENTED_EDGE ( 'NONE', *, *, #228, .F. ) ;
#247 = CARTESIAN_POINT ( 'NONE',  ( 47.50000000000000000, 28.90000000000000200, -2.277843046414076800E-015 ) ) ;
#248 = PRODUCT_RELATED_PRODUCT_CATEGORY ( 'detail', '', ( #71 ) ) ;
#249 = DIRECTION ( 'NONE',  ( 0.0000000000000000000, -0.0000000000000000000, 1.000000000000000000 ) ) ;
#250 = FACE_OUTER_BOUND ( 'NONE', #61, .T. ) ;
#251 = DIRECTION ( 'NONE',  ( 0.0000000000000000000, 0.0000000000000000000, 1.000000000000000000 ) ) ;
#252 = DIRECTION ( 'NONE',  ( 1.000000000000000000, 6.123233995736766000E-017, 0.0000000000000000000 ) ) ;
#253 = AXIS2_PLACEMENT_3D ( 'NONE', #105, #230, #235 ) ;
ENDSEC;
END-ISO-10303-21;
