ISO-10303-21;
HEADER;
/* Generated by software containing ST-Developer
 * from STEP Tools, Inc. (www.steptools.com) 
 */

FILE_DESCRIPTION(
/* description */ (''),
/* implementation_level */ '2;1');

FILE_NAME(
/* name */ 
'C:\\Users\\cad\\Desktop\\Zeichnungen neu von Ralph\\3D_Kupplung_R666-
SG\\3D_R666-SG-10-DN10_17113703.stp',
/* time_stamp */ '2021-06-22T10:24:01+02:00',
/* author */ ('cad'),
/* organization */ (''),
/* preprocessor_version */ 'ST-DEVELOPER v18.1',
/* originating_system */ 'Autodesk Inventor 2022',
/* authorisation */ '');

FILE_SCHEMA (('AUTOMOTIVE_DESIGN { 1 0 10303 214 3 1 1 }'));
ENDSEC;

DATA;
#10=MECHANICAL_DESIGN_GEOMETRIC_PRESENTATION_REPRESENTATION('',(#13),#493);
#11=SHAPE_REPRESENTATION_RELATIONSHIP('SRR','None',#500,#12);
#12=ADVANCED_BREP_SHAPE_REPRESENTATION('',(#14),#492);
#13=STYLED_ITEM('',(#509),#14);
#14=MANIFOLD_SOLID_BREP('Volumenk\X\F6rper2',#260);
#15=TOROIDAL_SURFACE('',#303,5.5,0.5);
#16=TOROIDAL_SURFACE('',#305,6.5,0.5);
#17=CYLINDRICAL_SURFACE('',#286,3.5);
#18=CYLINDRICAL_SURFACE('',#291,5.);
#19=CYLINDRICAL_SURFACE('',#300,6.);
#20=CYLINDRICAL_SURFACE('',#313,8.3);
#21=FACE_BOUND('',#47,.T.);
#22=FACE_BOUND('',#53,.T.);
#23=FACE_BOUND('',#58,.T.);
#24=FACE_BOUND('',#63,.T.);
#25=PLANE('',#284);
#26=PLANE('',#298);
#27=PLANE('',#308);
#28=PLANE('',#318);
#29=FACE_OUTER_BOUND('',#45,.T.);
#30=FACE_OUTER_BOUND('',#46,.T.);
#31=FACE_OUTER_BOUND('',#48,.T.);
#32=FACE_OUTER_BOUND('',#49,.T.);
#33=FACE_OUTER_BOUND('',#50,.T.);
#34=FACE_OUTER_BOUND('',#51,.T.);
#35=FACE_OUTER_BOUND('',#52,.T.);
#36=FACE_OUTER_BOUND('',#54,.T.);
#37=FACE_OUTER_BOUND('',#55,.T.);
#38=FACE_OUTER_BOUND('',#56,.T.);
#39=FACE_OUTER_BOUND('',#57,.T.);
#40=FACE_OUTER_BOUND('',#59,.T.);
#41=FACE_OUTER_BOUND('',#60,.T.);
#42=FACE_OUTER_BOUND('',#61,.T.);
#43=FACE_OUTER_BOUND('',#62,.T.);
#44=FACE_OUTER_BOUND('',#64,.T.);
#45=EDGE_LOOP('',(#168,#169,#170,#171,#172));
#46=EDGE_LOOP('',(#173));
#47=EDGE_LOOP('',(#174));
#48=EDGE_LOOP('',(#175,#176,#177,#178,#179));
#49=EDGE_LOOP('',(#180,#181,#182,#183,#184));
#50=EDGE_LOOP('',(#185,#186,#187,#188,#189,#190));
#51=EDGE_LOOP('',(#191,#192,#193,#194,#195));
#52=EDGE_LOOP('',(#196));
#53=EDGE_LOOP('',(#197));
#54=EDGE_LOOP('',(#198,#199,#200,#201,#202,#203));
#55=EDGE_LOOP('',(#204,#205,#206,#207,#208));
#56=EDGE_LOOP('',(#209,#210,#211,#212,#213));
#57=EDGE_LOOP('',(#214));
#58=EDGE_LOOP('',(#215));
#59=EDGE_LOOP('',(#216,#217,#218,#219,#220));
#60=EDGE_LOOP('',(#221,#222,#223,#224,#225,#226));
#61=EDGE_LOOP('',(#227,#228,#229,#230,#231));
#62=EDGE_LOOP('',(#232));
#63=EDGE_LOOP('',(#233));
#64=EDGE_LOOP('',(#234,#235,#236,#237));
#65=LINE('',#420,#75);
#66=LINE('',#430,#76);
#67=LINE('',#436,#77);
#68=LINE('',#441,#78);
#69=LINE('',#449,#79);
#70=LINE('',#458,#80);
#71=LINE('',#474,#81);
#72=LINE('',#480,#82);
#73=LINE('',#484,#83);
#74=LINE('',#489,#84);
#75=VECTOR('',#327,3.65);
#76=VECTOR('',#340,3.5);
#77=VECTOR('',#347,4.85);
#78=VECTOR('',#352,5.);
#79=VECTOR('',#361,5.85);
#80=VECTOR('',#372,6.);
#81=VECTOR('',#395,7.7);
#82=VECTOR('',#402,8.3);
#83=VECTOR('',#407,7.7);
#84=VECTOR('',#414,4.);
#85=CIRCLE('',#281,3.8);
#86=CIRCLE('',#282,3.5);
#87=CIRCLE('',#283,3.5);
#88=CIRCLE('',#285,4.7);
#89=CIRCLE('',#287,3.5);
#90=CIRCLE('',#289,5.);
#91=CIRCLE('',#290,5.);
#92=CIRCLE('',#292,5.);
#93=CIRCLE('',#293,5.);
#94=CIRCLE('',#295,6.);
#95=CIRCLE('',#296,6.);
#96=CIRCLE('',#297,5.7);
#97=CIRCLE('',#299,5.5);
#98=CIRCLE('',#301,6.);
#99=CIRCLE('',#302,6.);
#100=CIRCLE('',#304,0.5);
#101=CIRCLE('',#306,0.5);
#102=CIRCLE('',#307,6.5);
#103=CIRCLE('',#309,7.1);
#104=CIRCLE('',#311,8.3);
#105=CIRCLE('',#312,8.3);
#106=CIRCLE('',#314,8.3);
#107=CIRCLE('',#315,8.3);
#108=CIRCLE('',#317,7.1);
#109=CIRCLE('',#319,4.5);
#110=VERTEX_POINT('',#417);
#111=VERTEX_POINT('',#419);
#112=VERTEX_POINT('',#421);
#113=VERTEX_POINT('',#425);
#114=VERTEX_POINT('',#428);
#115=VERTEX_POINT('',#432);
#116=VERTEX_POINT('',#433);
#117=VERTEX_POINT('',#438);
#118=VERTEX_POINT('',#439);
#119=VERTEX_POINT('',#444);
#120=VERTEX_POINT('',#445);
#121=VERTEX_POINT('',#448);
#122=VERTEX_POINT('',#452);
#123=VERTEX_POINT('',#455);
#124=VERTEX_POINT('',#456);
#125=VERTEX_POINT('',#463);
#126=VERTEX_POINT('',#467);
#127=VERTEX_POINT('',#470);
#128=VERTEX_POINT('',#471);
#129=VERTEX_POINT('',#476);
#130=VERTEX_POINT('',#477);
#131=VERTEX_POINT('',#482);
#132=VERTEX_POINT('',#486);
#133=EDGE_CURVE('',#110,#110,#85,.T.);
#134=EDGE_CURVE('',#110,#111,#65,.T.);
#135=EDGE_CURVE('',#111,#112,#86,.T.);
#136=EDGE_CURVE('',#112,#111,#87,.T.);
#137=EDGE_CURVE('',#113,#113,#88,.T.);
#138=EDGE_CURVE('',#114,#114,#89,.T.);
#139=EDGE_CURVE('',#114,#112,#66,.T.);
#140=EDGE_CURVE('',#115,#116,#90,.T.);
#141=EDGE_CURVE('',#116,#115,#91,.T.);
#142=EDGE_CURVE('',#115,#113,#67,.T.);
#143=EDGE_CURVE('',#117,#118,#92,.T.);
#144=EDGE_CURVE('',#117,#116,#68,.T.);
#145=EDGE_CURVE('',#118,#117,#93,.T.);
#146=EDGE_CURVE('',#119,#120,#94,.T.);
#147=EDGE_CURVE('',#120,#119,#95,.T.);
#148=EDGE_CURVE('',#119,#121,#69,.T.);
#149=EDGE_CURVE('',#121,#121,#96,.T.);
#150=EDGE_CURVE('',#122,#122,#97,.T.);
#151=EDGE_CURVE('',#123,#124,#98,.T.);
#152=EDGE_CURVE('',#123,#120,#70,.T.);
#153=EDGE_CURVE('',#124,#123,#99,.T.);
#154=EDGE_CURVE('',#118,#122,#100,.T.);
#155=EDGE_CURVE('',#124,#125,#101,.T.);
#156=EDGE_CURVE('',#125,#125,#102,.T.);
#157=EDGE_CURVE('',#126,#126,#103,.T.);
#158=EDGE_CURVE('',#127,#128,#104,.T.);
#159=EDGE_CURVE('',#128,#127,#105,.T.);
#160=EDGE_CURVE('',#127,#126,#71,.T.);
#161=EDGE_CURVE('',#129,#130,#106,.T.);
#162=EDGE_CURVE('',#130,#129,#107,.T.);
#163=EDGE_CURVE('',#130,#128,#72,.T.);
#164=EDGE_CURVE('',#131,#131,#108,.T.);
#165=EDGE_CURVE('',#131,#129,#73,.T.);
#166=EDGE_CURVE('',#132,#132,#109,.T.);
#167=EDGE_CURVE('',#132,#114,#74,.T.);
#168=ORIENTED_EDGE('',*,*,#133,.T.);
#169=ORIENTED_EDGE('',*,*,#134,.T.);
#170=ORIENTED_EDGE('',*,*,#135,.T.);
#171=ORIENTED_EDGE('',*,*,#136,.T.);
#172=ORIENTED_EDGE('',*,*,#134,.F.);
#173=ORIENTED_EDGE('',*,*,#137,.F.);
#174=ORIENTED_EDGE('',*,*,#133,.F.);
#175=ORIENTED_EDGE('',*,*,#138,.T.);
#176=ORIENTED_EDGE('',*,*,#139,.T.);
#177=ORIENTED_EDGE('',*,*,#135,.F.);
#178=ORIENTED_EDGE('',*,*,#136,.F.);
#179=ORIENTED_EDGE('',*,*,#139,.F.);
#180=ORIENTED_EDGE('',*,*,#140,.T.);
#181=ORIENTED_EDGE('',*,*,#141,.T.);
#182=ORIENTED_EDGE('',*,*,#142,.T.);
#183=ORIENTED_EDGE('',*,*,#137,.T.);
#184=ORIENTED_EDGE('',*,*,#142,.F.);
#185=ORIENTED_EDGE('',*,*,#143,.F.);
#186=ORIENTED_EDGE('',*,*,#144,.T.);
#187=ORIENTED_EDGE('',*,*,#140,.F.);
#188=ORIENTED_EDGE('',*,*,#141,.F.);
#189=ORIENTED_EDGE('',*,*,#144,.F.);
#190=ORIENTED_EDGE('',*,*,#145,.F.);
#191=ORIENTED_EDGE('',*,*,#146,.T.);
#192=ORIENTED_EDGE('',*,*,#147,.T.);
#193=ORIENTED_EDGE('',*,*,#148,.T.);
#194=ORIENTED_EDGE('',*,*,#149,.T.);
#195=ORIENTED_EDGE('',*,*,#148,.F.);
#196=ORIENTED_EDGE('',*,*,#149,.F.);
#197=ORIENTED_EDGE('',*,*,#150,.F.);
#198=ORIENTED_EDGE('',*,*,#151,.F.);
#199=ORIENTED_EDGE('',*,*,#152,.T.);
#200=ORIENTED_EDGE('',*,*,#146,.F.);
#201=ORIENTED_EDGE('',*,*,#147,.F.);
#202=ORIENTED_EDGE('',*,*,#152,.F.);
#203=ORIENTED_EDGE('',*,*,#153,.F.);
#204=ORIENTED_EDGE('',*,*,#143,.T.);
#205=ORIENTED_EDGE('',*,*,#154,.T.);
#206=ORIENTED_EDGE('',*,*,#150,.T.);
#207=ORIENTED_EDGE('',*,*,#154,.F.);
#208=ORIENTED_EDGE('',*,*,#145,.T.);
#209=ORIENTED_EDGE('',*,*,#151,.T.);
#210=ORIENTED_EDGE('',*,*,#155,.T.);
#211=ORIENTED_EDGE('',*,*,#156,.T.);
#212=ORIENTED_EDGE('',*,*,#155,.F.);
#213=ORIENTED_EDGE('',*,*,#153,.T.);
#214=ORIENTED_EDGE('',*,*,#157,.F.);
#215=ORIENTED_EDGE('',*,*,#156,.F.);
#216=ORIENTED_EDGE('',*,*,#158,.T.);
#217=ORIENTED_EDGE('',*,*,#159,.T.);
#218=ORIENTED_EDGE('',*,*,#160,.T.);
#219=ORIENTED_EDGE('',*,*,#157,.T.);
#220=ORIENTED_EDGE('',*,*,#160,.F.);
#221=ORIENTED_EDGE('',*,*,#161,.F.);
#222=ORIENTED_EDGE('',*,*,#162,.F.);
#223=ORIENTED_EDGE('',*,*,#163,.T.);
#224=ORIENTED_EDGE('',*,*,#158,.F.);
#225=ORIENTED_EDGE('',*,*,#159,.F.);
#226=ORIENTED_EDGE('',*,*,#163,.F.);
#227=ORIENTED_EDGE('',*,*,#164,.T.);
#228=ORIENTED_EDGE('',*,*,#165,.T.);
#229=ORIENTED_EDGE('',*,*,#161,.T.);
#230=ORIENTED_EDGE('',*,*,#162,.T.);
#231=ORIENTED_EDGE('',*,*,#165,.F.);
#232=ORIENTED_EDGE('',*,*,#164,.F.);
#233=ORIENTED_EDGE('',*,*,#166,.F.);
#234=ORIENTED_EDGE('',*,*,#166,.T.);
#235=ORIENTED_EDGE('',*,*,#167,.T.);
#236=ORIENTED_EDGE('',*,*,#138,.F.);
#237=ORIENTED_EDGE('',*,*,#167,.F.);
#238=CONICAL_SURFACE('',#280,3.65,0.785398163397446);
#239=CONICAL_SURFACE('',#288,4.85,0.785398163397447);
#240=CONICAL_SURFACE('',#294,5.85,0.78539816339745);
#241=CONICAL_SURFACE('',#310,7.7,0.78539816339745);
#242=CONICAL_SURFACE('',#316,7.7,0.785398163397446);
#243=CONICAL_SURFACE('',#320,4.,0.523598775598299);
#244=ADVANCED_FACE('',(#29),#238,.F.);
#245=ADVANCED_FACE('',(#30,#21),#25,.T.);
#246=ADVANCED_FACE('',(#31),#17,.F.);
#247=ADVANCED_FACE('',(#32),#239,.T.);
#248=ADVANCED_FACE('',(#33),#18,.T.);
#249=ADVANCED_FACE('',(#34),#240,.T.);
#250=ADVANCED_FACE('',(#35,#22),#26,.T.);
#251=ADVANCED_FACE('',(#36),#19,.T.);
#252=ADVANCED_FACE('',(#37),#15,.F.);
#253=ADVANCED_FACE('',(#38),#16,.F.);
#254=ADVANCED_FACE('',(#39,#23),#27,.T.);
#255=ADVANCED_FACE('',(#40),#241,.T.);
#256=ADVANCED_FACE('',(#41),#20,.T.);
#257=ADVANCED_FACE('',(#42),#242,.T.);
#258=ADVANCED_FACE('',(#43,#24),#28,.T.);
#259=ADVANCED_FACE('',(#44),#243,.F.);
#260=CLOSED_SHELL('',(#244,#245,#246,#247,#248,#249,#250,#251,#252,#253,
#254,#255,#256,#257,#258,#259));
#261=DERIVED_UNIT_ELEMENT(#263,1.);
#262=DERIVED_UNIT_ELEMENT(#495,-3.);
#263=(
MASS_UNIT()
NAMED_UNIT(*)
SI_UNIT($,.GRAM.)
);
#264=DERIVED_UNIT((#261,#262));
#265=MEASURE_REPRESENTATION_ITEM('density measure',
POSITIVE_RATIO_MEASURE(1.),#264);
#266=PROPERTY_DEFINITION_REPRESENTATION(#271,#268);
#267=PROPERTY_DEFINITION_REPRESENTATION(#272,#269);
#268=REPRESENTATION('material name',(#270),#492);
#269=REPRESENTATION('density',(#265),#492);
#270=DESCRIPTIVE_REPRESENTATION_ITEM('Generisch','Generisch');
#271=PROPERTY_DEFINITION('material property','material name',#502);
#272=PROPERTY_DEFINITION('material property','density of part',#502);
#273=DATE_TIME_ROLE('creation_date');
#274=APPLIED_DATE_AND_TIME_ASSIGNMENT(#275,#273,(#502));
#275=DATE_AND_TIME(#276,#277);
#276=CALENDAR_DATE(2021,22,6);
#277=LOCAL_TIME(0,0,0.,#278);
#278=COORDINATED_UNIVERSAL_TIME_OFFSET(0,0,.BEHIND.);
#279=AXIS2_PLACEMENT_3D('placement',#415,#321,#322);
#280=AXIS2_PLACEMENT_3D('',#416,#323,#324);
#281=AXIS2_PLACEMENT_3D('',#418,#325,#326);
#282=AXIS2_PLACEMENT_3D('',#422,#328,#329);
#283=AXIS2_PLACEMENT_3D('',#423,#330,#331);
#284=AXIS2_PLACEMENT_3D('',#424,#332,#333);
#285=AXIS2_PLACEMENT_3D('',#426,#334,#335);
#286=AXIS2_PLACEMENT_3D('',#427,#336,#337);
#287=AXIS2_PLACEMENT_3D('',#429,#338,#339);
#288=AXIS2_PLACEMENT_3D('',#431,#341,#342);
#289=AXIS2_PLACEMENT_3D('',#434,#343,#344);
#290=AXIS2_PLACEMENT_3D('',#435,#345,#346);
#291=AXIS2_PLACEMENT_3D('',#437,#348,#349);
#292=AXIS2_PLACEMENT_3D('',#440,#350,#351);
#293=AXIS2_PLACEMENT_3D('',#442,#353,#354);
#294=AXIS2_PLACEMENT_3D('',#443,#355,#356);
#295=AXIS2_PLACEMENT_3D('',#446,#357,#358);
#296=AXIS2_PLACEMENT_3D('',#447,#359,#360);
#297=AXIS2_PLACEMENT_3D('',#450,#362,#363);
#298=AXIS2_PLACEMENT_3D('',#451,#364,#365);
#299=AXIS2_PLACEMENT_3D('',#453,#366,#367);
#300=AXIS2_PLACEMENT_3D('',#454,#368,#369);
#301=AXIS2_PLACEMENT_3D('',#457,#370,#371);
#302=AXIS2_PLACEMENT_3D('',#459,#373,#374);
#303=AXIS2_PLACEMENT_3D('',#460,#375,#376);
#304=AXIS2_PLACEMENT_3D('',#461,#377,#378);
#305=AXIS2_PLACEMENT_3D('',#462,#379,#380);
#306=AXIS2_PLACEMENT_3D('',#464,#381,#382);
#307=AXIS2_PLACEMENT_3D('',#465,#383,#384);
#308=AXIS2_PLACEMENT_3D('',#466,#385,#386);
#309=AXIS2_PLACEMENT_3D('',#468,#387,#388);
#310=AXIS2_PLACEMENT_3D('',#469,#389,#390);
#311=AXIS2_PLACEMENT_3D('',#472,#391,#392);
#312=AXIS2_PLACEMENT_3D('',#473,#393,#394);
#313=AXIS2_PLACEMENT_3D('',#475,#396,#397);
#314=AXIS2_PLACEMENT_3D('',#478,#398,#399);
#315=AXIS2_PLACEMENT_3D('',#479,#400,#401);
#316=AXIS2_PLACEMENT_3D('',#481,#403,#404);
#317=AXIS2_PLACEMENT_3D('',#483,#405,#406);
#318=AXIS2_PLACEMENT_3D('',#485,#408,#409);
#319=AXIS2_PLACEMENT_3D('',#487,#410,#411);
#320=AXIS2_PLACEMENT_3D('',#488,#412,#413);
#321=DIRECTION('axis',(0.,0.,1.));
#322=DIRECTION('refdir',(1.,0.,0.));
#323=DIRECTION('center_axis',(-1.,0.,0.));
#324=DIRECTION('ref_axis',(0.,-1.,0.));
#325=DIRECTION('center_axis',(-1.,0.,0.));
#326=DIRECTION('ref_axis',(0.,-1.,0.));
#327=DIRECTION('',(0.707106781186549,-0.707106781186546,8.65956056235491E-17));
#328=DIRECTION('center_axis',(1.,0.,0.));
#329=DIRECTION('ref_axis',(0.,-1.,0.));
#330=DIRECTION('center_axis',(1.,0.,0.));
#331=DIRECTION('ref_axis',(0.,-1.,0.));
#332=DIRECTION('center_axis',(-1.,0.,0.));
#333=DIRECTION('ref_axis',(0.,0.,1.));
#334=DIRECTION('center_axis',(1.,0.,0.));
#335=DIRECTION('ref_axis',(0.,-1.,0.));
#336=DIRECTION('center_axis',(1.,0.,0.));
#337=DIRECTION('ref_axis',(0.,1.,0.));
#338=DIRECTION('center_axis',(1.,0.,0.));
#339=DIRECTION('ref_axis',(0.,0.,-1.));
#340=DIRECTION('',(-1.,0.,0.));
#341=DIRECTION('center_axis',(1.,0.,0.));
#342=DIRECTION('ref_axis',(0.,-1.,0.));
#343=DIRECTION('center_axis',(-1.,0.,0.));
#344=DIRECTION('ref_axis',(0.,-1.,0.));
#345=DIRECTION('center_axis',(-1.,0.,0.));
#346=DIRECTION('ref_axis',(0.,-1.,0.));
#347=DIRECTION('',(-0.707106781186548,-0.707106781186547,-8.65956056235493E-17));
#348=DIRECTION('center_axis',(1.,0.,0.));
#349=DIRECTION('ref_axis',(0.,1.,0.));
#350=DIRECTION('center_axis',(1.,0.,0.));
#351=DIRECTION('ref_axis',(0.,-1.,1.83697019872103E-16));
#352=DIRECTION('',(-1.,0.,0.));
#353=DIRECTION('center_axis',(1.,0.,0.));
#354=DIRECTION('ref_axis',(0.,-1.,1.83697019872103E-16));
#355=DIRECTION('center_axis',(1.,0.,0.));
#356=DIRECTION('ref_axis',(0.,-1.,0.));
#357=DIRECTION('center_axis',(-1.,0.,0.));
#358=DIRECTION('ref_axis',(0.,-1.,0.));
#359=DIRECTION('center_axis',(-1.,0.,0.));
#360=DIRECTION('ref_axis',(0.,-1.,0.));
#361=DIRECTION('',(-0.707106781186546,-0.707106781186549,-8.65956056235495E-17));
#362=DIRECTION('center_axis',(1.,0.,0.));
#363=DIRECTION('ref_axis',(0.,-1.,0.));
#364=DIRECTION('center_axis',(-1.,0.,0.));
#365=DIRECTION('ref_axis',(0.,0.,1.));
#366=DIRECTION('center_axis',(-1.,0.,0.));
#367=DIRECTION('ref_axis',(0.,-1.,1.83697019872103E-16));
#368=DIRECTION('center_axis',(1.,0.,0.));
#369=DIRECTION('ref_axis',(0.,1.,0.));
#370=DIRECTION('center_axis',(1.,0.,0.));
#371=DIRECTION('ref_axis',(0.,-1.,1.83697019872103E-16));
#372=DIRECTION('',(-1.,0.,0.));
#373=DIRECTION('center_axis',(1.,0.,0.));
#374=DIRECTION('ref_axis',(0.,-1.,1.83697019872103E-16));
#375=DIRECTION('center_axis',(1.,0.,0.));
#376=DIRECTION('ref_axis',(0.,0.,-1.));
#377=DIRECTION('center_axis',(0.,-1.,-1.22464679914735E-16));
#378=DIRECTION('ref_axis',(0.,-1.22464679914735E-16,1.));
#379=DIRECTION('center_axis',(1.,0.,0.));
#380=DIRECTION('ref_axis',(0.,0.,-1.));
#381=DIRECTION('center_axis',(0.,-1.,-1.22464679914735E-16));
#382=DIRECTION('ref_axis',(0.,-1.22464679914735E-16,1.));
#383=DIRECTION('center_axis',(-1.,0.,0.));
#384=DIRECTION('ref_axis',(0.,-1.,1.83697019872103E-16));
#385=DIRECTION('center_axis',(-1.,0.,0.));
#386=DIRECTION('ref_axis',(0.,0.,1.));
#387=DIRECTION('center_axis',(1.,0.,0.));
#388=DIRECTION('ref_axis',(0.,-1.,0.));
#389=DIRECTION('center_axis',(1.,0.,0.));
#390=DIRECTION('ref_axis',(0.,-1.,0.));
#391=DIRECTION('center_axis',(-1.,0.,0.));
#392=DIRECTION('ref_axis',(0.,-1.,0.));
#393=DIRECTION('center_axis',(-1.,0.,0.));
#394=DIRECTION('ref_axis',(0.,-1.,0.));
#395=DIRECTION('',(-0.707106781186547,-0.707106781186548,-8.65956056235494E-17));
#396=DIRECTION('center_axis',(1.,0.,0.));
#397=DIRECTION('ref_axis',(0.,1.,0.));
#398=DIRECTION('center_axis',(1.,0.,0.));
#399=DIRECTION('ref_axis',(0.,-1.,0.));
#400=DIRECTION('center_axis',(1.,0.,0.));
#401=DIRECTION('ref_axis',(0.,-1.,0.));
#402=DIRECTION('',(-1.,0.,0.));
#403=DIRECTION('center_axis',(-1.,0.,0.));
#404=DIRECTION('ref_axis',(0.,-1.,0.));
#405=DIRECTION('center_axis',(-1.,0.,0.));
#406=DIRECTION('ref_axis',(0.,-1.,0.));
#407=DIRECTION('',(-0.70710678118655,0.707106781186546,8.65956056235491E-17));
#408=DIRECTION('center_axis',(1.,0.,0.));
#409=DIRECTION('ref_axis',(0.,0.,-1.));
#410=DIRECTION('center_axis',(1.,0.,0.));
#411=DIRECTION('ref_axis',(0.,0.,-1.));
#412=DIRECTION('center_axis',(1.,0.,0.));
#413=DIRECTION('ref_axis',(0.,1.,0.));
#414=DIRECTION('',(-0.866025403784439,0.5,6.12323399573676E-17));
#415=CARTESIAN_POINT('',(0.,0.,0.));
#416=CARTESIAN_POINT('Origin',(-17.85,0.,0.));
#417=CARTESIAN_POINT('',(-18.,3.8,-4.65365783675994E-16));
#418=CARTESIAN_POINT('Origin',(-18.,0.,0.));
#419=CARTESIAN_POINT('',(-17.7,3.5,4.28626379701574E-16));
#420=CARTESIAN_POINT('',(-17.85,3.65,-4.46996081688784E-16));
#421=CARTESIAN_POINT('',(-17.7,-3.5,-4.28626379701574E-16));
#422=CARTESIAN_POINT('Origin',(-17.7,0.,0.));
#423=CARTESIAN_POINT('Origin',(-17.7,0.,0.));
#424=CARTESIAN_POINT('Origin',(-18.,5.,0.));
#425=CARTESIAN_POINT('',(-18.,4.7,5.75583995599256E-16));
#426=CARTESIAN_POINT('Origin',(-18.,0.,0.));
#427=CARTESIAN_POINT('Origin',(-9.86602540378444,0.,0.));
#428=CARTESIAN_POINT('',(-1.73205080756888,-3.5,-4.28626379701574E-16));
#429=CARTESIAN_POINT('Origin',(-1.73205080756888,0.,0.));
#430=CARTESIAN_POINT('',(-9.86602540378444,-3.5,-4.28626379701574E-16));
#431=CARTESIAN_POINT('Origin',(-17.85,0.,0.));
#432=CARTESIAN_POINT('',(-17.7,5.,-6.12323399573676E-16));
#433=CARTESIAN_POINT('',(-17.7,-5.,-6.12323399573676E-16));
#434=CARTESIAN_POINT('Origin',(-17.7,0.,0.));
#435=CARTESIAN_POINT('Origin',(-17.7,0.,0.));
#436=CARTESIAN_POINT('',(-17.85,4.85,5.93953697586466E-16));
#437=CARTESIAN_POINT('Origin',(-15.5,0.,0.));
#438=CARTESIAN_POINT('',(-13.5,-5.,-6.12323399573676E-16));
#439=CARTESIAN_POINT('',(-13.5,-6.12323399573676E-16,5.));
#440=CARTESIAN_POINT('Origin',(-13.5,0.,0.));
#441=CARTESIAN_POINT('',(-15.5,-5.,-6.12323399573676E-16));
#442=CARTESIAN_POINT('Origin',(-13.5,0.,0.));
#443=CARTESIAN_POINT('Origin',(-12.85,0.,0.));
#444=CARTESIAN_POINT('',(-12.7,6.,-7.34788079488412E-16));
#445=CARTESIAN_POINT('',(-12.7,-6.,-7.34788079488412E-16));
#446=CARTESIAN_POINT('Origin',(-12.7,0.,0.));
#447=CARTESIAN_POINT('Origin',(-12.7,0.,0.));
#448=CARTESIAN_POINT('',(-13.,5.7,6.98048675513991E-16));
#449=CARTESIAN_POINT('',(-12.85,5.85,7.16418377501202E-16));
#450=CARTESIAN_POINT('Origin',(-13.,0.,0.));
#451=CARTESIAN_POINT('Origin',(-13.,6.,0.));
#452=CARTESIAN_POINT('',(-13.,-6.73555739531044E-16,5.5));
#453=CARTESIAN_POINT('Origin',(-13.,0.,0.));
#454=CARTESIAN_POINT('Origin',(-10.5,0.,0.));
#455=CARTESIAN_POINT('',(-8.5,-6.,-7.34788079488412E-16));
#456=CARTESIAN_POINT('',(-8.5,-7.34788079488412E-16,6.));
#457=CARTESIAN_POINT('Origin',(-8.5,0.,0.));
#458=CARTESIAN_POINT('',(-10.5,-6.,-7.34788079488412E-16));
#459=CARTESIAN_POINT('Origin',(-8.5,0.,0.));
#460=CARTESIAN_POINT('Origin',(-13.5,0.,0.));
#461=CARTESIAN_POINT('Origin',(-13.5,-6.73555739531044E-16,5.5));
#462=CARTESIAN_POINT('Origin',(-8.5,0.,0.));
#463=CARTESIAN_POINT('',(-8.,-7.9602041944578E-16,6.5));
#464=CARTESIAN_POINT('Origin',(-8.5,-7.9602041944578E-16,6.5));
#465=CARTESIAN_POINT('Origin',(-8.,0.,0.));
#466=CARTESIAN_POINT('Origin',(-8.,8.3,0.));
#467=CARTESIAN_POINT('',(-8.,7.1,8.6949922739462E-16));
#468=CARTESIAN_POINT('Origin',(-8.,0.,0.));
#469=CARTESIAN_POINT('Origin',(-7.4,0.,0.));
#470=CARTESIAN_POINT('',(-6.8,8.3,-1.0164568432923E-15));
#471=CARTESIAN_POINT('',(-6.8,-8.3,-1.0164568432923E-15));
#472=CARTESIAN_POINT('Origin',(-6.8,0.,0.));
#473=CARTESIAN_POINT('Origin',(-6.8,0.,0.));
#474=CARTESIAN_POINT('',(-7.4,7.7,9.42978035343462E-16));
#475=CARTESIAN_POINT('Origin',(-4.,0.,0.));
#476=CARTESIAN_POINT('',(-1.20000000000001,8.3,1.0164568432923E-15));
#477=CARTESIAN_POINT('',(-1.20000000000001,-8.3,-1.0164568432923E-15));
#478=CARTESIAN_POINT('Origin',(-1.20000000000001,0.,0.));
#479=CARTESIAN_POINT('Origin',(-1.20000000000001,0.,0.));
#480=CARTESIAN_POINT('',(-4.,-8.3,-1.0164568432923E-15));
#481=CARTESIAN_POINT('Origin',(-0.600000000000004,0.,0.));
#482=CARTESIAN_POINT('',(-2.22044604925031E-15,7.1,-8.69499227394621E-16));
#483=CARTESIAN_POINT('Origin',(-2.22044604925031E-15,0.,0.));
#484=CARTESIAN_POINT('',(-0.600000000000004,7.7,9.42978035343462E-16));
#485=CARTESIAN_POINT('Origin',(-2.22044604925031E-15,4.5,0.));
#486=CARTESIAN_POINT('',(-2.22044604925031E-15,-4.5,-5.51091059616309E-16));
#487=CARTESIAN_POINT('Origin',(-2.22044604925031E-15,0.,0.));
#488=CARTESIAN_POINT('Origin',(-0.866025403784441,0.,0.));
#489=CARTESIAN_POINT('',(-0.866025403784441,-4.,-4.89858719658941E-16));
#490=UNCERTAINTY_MEASURE_WITH_UNIT(LENGTH_MEASURE(0.01),#494,
'DISTANCE_ACCURACY_VALUE',
'Maximum model space distance between geometric entities at asserted c
onnectivities');
#491=UNCERTAINTY_MEASURE_WITH_UNIT(LENGTH_MEASURE(0.01),#494,
'DISTANCE_ACCURACY_VALUE',
'Maximum model space distance between geometric entities at asserted c
onnectivities');
#492=(
GEOMETRIC_REPRESENTATION_CONTEXT(3)
GLOBAL_UNCERTAINTY_ASSIGNED_CONTEXT((#490))
GLOBAL_UNIT_ASSIGNED_CONTEXT((#494,#496,#497))
REPRESENTATION_CONTEXT('','3D')
);
#493=(
GEOMETRIC_REPRESENTATION_CONTEXT(3)
GLOBAL_UNCERTAINTY_ASSIGNED_CONTEXT((#491))
GLOBAL_UNIT_ASSIGNED_CONTEXT((#494,#496,#497))
REPRESENTATION_CONTEXT('','3D')
);
#494=(
LENGTH_UNIT()
NAMED_UNIT(*)
SI_UNIT(.MILLI.,.METRE.)
);
#495=(
LENGTH_UNIT()
NAMED_UNIT(*)
SI_UNIT(.CENTI.,.METRE.)
);
#496=(
NAMED_UNIT(*)
PLANE_ANGLE_UNIT()
SI_UNIT($,.RADIAN.)
);
#497=(
NAMED_UNIT(*)
SI_UNIT($,.STERADIAN.)
SOLID_ANGLE_UNIT()
);
#498=SHAPE_DEFINITION_REPRESENTATION(#499,#500);
#499=PRODUCT_DEFINITION_SHAPE('',$,#502);
#500=SHAPE_REPRESENTATION('',(#279),#492);
#501=PRODUCT_DEFINITION_CONTEXT('part definition',#506,'design');
#502=PRODUCT_DEFINITION('3D_R666-SG-10-DN10_17113703',
'3D_R666-SG-10-DN10_17113703',#503,#501);
#503=PRODUCT_DEFINITION_FORMATION('',$,#508);
#504=PRODUCT_RELATED_PRODUCT_CATEGORY('3D_R666-SG-10-DN10_17113703',
'3D_R666-SG-10-DN10_17113703',(#508));
#505=APPLICATION_PROTOCOL_DEFINITION('international standard',
'automotive_design',2009,#506);
#506=APPLICATION_CONTEXT(
'Core Data for Automotive Mechanical Design Process');
#507=PRODUCT_CONTEXT('part definition',#506,'mechanical');
#508=PRODUCT('3D_R666-SG-10-DN10_17113703',
'3D_R666-SG-10-DN10_17113703',$,(#507));
#509=PRESENTATION_STYLE_ASSIGNMENT((#510));
#510=SURFACE_STYLE_USAGE(.BOTH.,#513);
#511=SURFACE_STYLE_RENDERING_WITH_PROPERTIES($,#517,(#512));
#512=SURFACE_STYLE_TRANSPARENT(0.);
#513=SURFACE_SIDE_STYLE('',(#514,#511));
#514=SURFACE_STYLE_FILL_AREA(#515);
#515=FILL_AREA_STYLE('',(#516));
#516=FILL_AREA_STYLE_COLOUR('',#517);
#517=COLOUR_RGB('',0.749019607843137,0.749019607843137,0.749019607843137);
ENDSEC;
END-ISO-10303-21;
