ISO-10303-21;
HEADER;
/* Generated by software containing ST-Developer
 * from STEP Tools, Inc. (www.steptools.com) 
 */
/* OPTION: using custom renumber hook */

FILE_DESCRIPTION(
/* description */ ('STEP AP203'),
/* implementation_level */ '2;1');

FILE_NAME(
/* name */ '0730G025CH',
/* time_stamp */ '2024-03-19T17:13:30+01:00',
/* author */ ('License CC BY-ND 4.0'),
/* organization */ ('CADENAS'),
/* preprocessor_version */ 'ST-DEVELOPER v19.3',
/* originating_system */ 'PARTsolutions',
/* authorisation */ '  ');

FILE_SCHEMA (('CONFIG_CONTROL_DESIGN'));
ENDSEC;

DATA;
#10=PROPERTY_DEFINITION_REPRESENTATION(#14,#12);
#11=PROPERTY_DEFINITION_REPRESENTATION(#15,#13);
#12=REPRESENTATION('',(#16),#558);
#13=REPRESENTATION('',(#17),#558);
#14=PROPERTY_DEFINITION('pmi validation property','',#563);
#15=PROPERTY_DEFINITION('pmi validation property','',#563);
#16=VALUE_REPRESENTATION_ITEM('number of annotations',COUNT_MEASURE(0.));
#17=VALUE_REPRESENTATION_ITEM('number of views',COUNT_MEASURE(0.));
#18=SHAPE_REPRESENTATION_RELATIONSHIP('','',#271,#19);
#19=ADVANCED_BREP_SHAPE_REPRESENTATION('',(#269),#558);
#20=LINE('',#512,#22);
#21=LINE('',#513,#23);
#22=VECTOR('',#331,1000.);
#23=VECTOR('',#332,1000.);
#24=PLANE('',#278);
#25=PLANE('',#284);
#26=PLANE('',#285);
#27=PLANE('',#288);
#28=PLANE('',#293);
#29=PLANE('',#294);
#30=PLANE('',#295);
#31=PLANE('',#302);
#32=PLANE('',#303);
#33=PLANE('',#304);
#34=PLANE('',#309);
#35=PLANE('',#312);
#36=ELLIPSE('',#275,22.6274169979695,16.);
#37=ELLIPSE('',#277,22.6274169979695,16.);
#38=ELLIPSE('',#280,31.1126983722081,22.);
#39=CIRCLE('',#274,16.);
#40=CIRCLE('',#276,16.);
#41=CIRCLE('',#279,20.955);
#42=CIRCLE('',#282,20.955);
#43=CIRCLE('',#283,20.955);
#44=CIRCLE('',#287,20.955);
#45=CIRCLE('',#290,22.);
#46=CIRCLE('',#291,22.);
#47=CIRCLE('',#292,22.);
#48=CIRCLE('',#296,20.);
#49=CIRCLE('',#298,20.);
#50=CIRCLE('',#300,35.);
#51=CIRCLE('',#301,35.);
#52=CIRCLE('',#305,9.);
#53=CIRCLE('',#308,9.);
#54=CIRCLE('',#311,9.);
#55=ORIENTED_EDGE('',*,*,#105,.T.);
#56=ORIENTED_EDGE('',*,*,#106,.F.);
#57=ORIENTED_EDGE('',*,*,#107,.F.);
#58=ORIENTED_EDGE('',*,*,#108,.T.);
#59=ORIENTED_EDGE('',*,*,#109,.F.);
#60=ORIENTED_EDGE('',*,*,#110,.F.);
#61=ORIENTED_EDGE('',*,*,#111,.F.);
#62=ORIENTED_EDGE('',*,*,#112,.F.);
#63=ORIENTED_EDGE('',*,*,#113,.T.);
#64=ORIENTED_EDGE('',*,*,#114,.T.);
#65=ORIENTED_EDGE('',*,*,#115,.T.);
#66=ORIENTED_EDGE('',*,*,#108,.F.);
#67=ORIENTED_EDGE('',*,*,#116,.T.);
#68=ORIENTED_EDGE('',*,*,#117,.F.);
#69=ORIENTED_EDGE('',*,*,#118,.T.);
#70=ORIENTED_EDGE('',*,*,#117,.T.);
#71=ORIENTED_EDGE('',*,*,#106,.T.);
#72=ORIENTED_EDGE('',*,*,#118,.F.);
#73=ORIENTED_EDGE('',*,*,#119,.T.);
#74=ORIENTED_EDGE('',*,*,#113,.F.);
#75=ORIENTED_EDGE('',*,*,#119,.F.);
#76=ORIENTED_EDGE('',*,*,#120,.F.);
#77=ORIENTED_EDGE('',*,*,#121,.T.);
#78=ORIENTED_EDGE('',*,*,#110,.T.);
#79=ORIENTED_EDGE('',*,*,#122,.T.);
#80=ORIENTED_EDGE('',*,*,#114,.F.);
#81=ORIENTED_EDGE('',*,*,#122,.F.);
#82=ORIENTED_EDGE('',*,*,#109,.T.);
#83=ORIENTED_EDGE('',*,*,#115,.F.);
#84=ORIENTED_EDGE('',*,*,#116,.F.);
#85=ORIENTED_EDGE('',*,*,#107,.T.);
#86=ORIENTED_EDGE('',*,*,#121,.F.);
#87=ORIENTED_EDGE('',*,*,#123,.F.);
#88=ORIENTED_EDGE('',*,*,#120,.T.);
#89=ORIENTED_EDGE('',*,*,#124,.F.);
#90=ORIENTED_EDGE('',*,*,#123,.T.);
#91=ORIENTED_EDGE('',*,*,#125,.F.);
#92=ORIENTED_EDGE('',*,*,#126,.T.);
#93=ORIENTED_EDGE('',*,*,#125,.T.);
#94=ORIENTED_EDGE('',*,*,#124,.T.);
#95=ORIENTED_EDGE('',*,*,#126,.F.);
#96=ORIENTED_EDGE('',*,*,#127,.F.);
#97=ORIENTED_EDGE('',*,*,#127,.T.);
#98=ORIENTED_EDGE('',*,*,#111,.T.);
#99=ORIENTED_EDGE('',*,*,#128,.F.);
#100=ORIENTED_EDGE('',*,*,#112,.T.);
#101=ORIENTED_EDGE('',*,*,#128,.T.);
#102=ORIENTED_EDGE('',*,*,#129,.T.);
#103=ORIENTED_EDGE('',*,*,#105,.F.);
#104=ORIENTED_EDGE('',*,*,#129,.F.);
#105=EDGE_CURVE('',#130,#130,#152,.T.);
#106=EDGE_CURVE('',#131,#131,#39,.T.);
#107=EDGE_CURVE('',#132,#133,#36,.T.);
#108=EDGE_CURVE('',#132,#134,#40,.T.);
#109=EDGE_CURVE('',#135,#134,#37,.T.);
#110=EDGE_CURVE('',#133,#135,#153,.T.);
#111=EDGE_CURVE('',#136,#136,#154,.T.);
#112=EDGE_CURVE('',#137,#137,#155,.T.);
#113=EDGE_CURVE('',#138,#138,#41,.T.);
#114=EDGE_CURVE('',#139,#140,#38,.F.);
#115=EDGE_CURVE('',#140,#134,#20,.T.);
#116=EDGE_CURVE('',#132,#139,#21,.T.);
#117=EDGE_CURVE('',#141,#141,#42,.T.);
#118=EDGE_CURVE('',#142,#142,#43,.T.);
#119=EDGE_CURVE('',#143,#143,#44,.T.);
#120=EDGE_CURVE('',#144,#144,#45,.T.);
#121=EDGE_CURVE('',#139,#133,#46,.T.);
#122=EDGE_CURVE('',#135,#140,#47,.T.);
#123=EDGE_CURVE('',#145,#145,#48,.T.);
#124=EDGE_CURVE('',#146,#146,#49,.T.);
#125=EDGE_CURVE('',#147,#147,#50,.T.);
#126=EDGE_CURVE('',#148,#148,#51,.T.);
#127=EDGE_CURVE('',#149,#149,#52,.T.);
#128=EDGE_CURVE('',#150,#150,#53,.T.);
#129=EDGE_CURVE('',#151,#151,#54,.T.);
#130=VERTEX_POINT('',#418);
#131=VERTEX_POINT('',#420);
#132=VERTEX_POINT('',#422);
#133=VERTEX_POINT('',#423);
#134=VERTEX_POINT('',#425);
#135=VERTEX_POINT('',#427);
#136=VERTEX_POINT('',#484);
#137=VERTEX_POINT('',#505);
#138=VERTEX_POINT('',#508);
#139=VERTEX_POINT('',#510);
#140=VERTEX_POINT('',#511);
#141=VERTEX_POINT('',#516);
#142=VERTEX_POINT('',#518);
#143=VERTEX_POINT('',#523);
#144=VERTEX_POINT('',#527);
#145=VERTEX_POINT('',#534);
#146=VERTEX_POINT('',#537);
#147=VERTEX_POINT('',#540);
#148=VERTEX_POINT('',#542);
#149=VERTEX_POINT('',#547);
#150=VERTEX_POINT('',#551);
#151=VERTEX_POINT('',#555);
#152=B_SPLINE_CURVE_WITH_KNOTS('',3,(#399,#400,#401,#402,#403,#404,#405,
#406,#407,#408,#409,#410,#411,#412,#413,#414,#415,#416,#417),
 .UNSPECIFIED.,.T.,.F.,(1,1,1,1,1,1,1,1,1,1,1,1,1,1,1,1,1,1,1,1,1,1,1),
(-0.0107810408064609,-0.00718736053764058,-0.00359368026882029,0.,0.00359368026882029,
0.00718736053764058,0.0107810408064609,0.0143747210752812,0.0179684013441015,
0.0215620816129218,0.025155761881742,0.0287494421505623,0.0323431224193826,
0.0359368026882029,0.0395304829570232,0.0431241632258435,0.0467178434946638,
0.0503115237634841,0.0539052040323044,0.0574988843011247,0.061092564569945,
0.0646862448387653,0.0682799251075855),.UNSPECIFIED.);
#153=B_SPLINE_CURVE_WITH_KNOTS('',3,(#428,#429,#430,#431,#432,#433,#434,
#435,#436,#437,#438,#439,#440,#441,#442,#443,#444,#445,#446,#447,#448,#449,
#450,#451,#452,#453,#454,#455,#456,#457,#458,#459,#460,#461,#462,#463),
 .UNSPECIFIED.,.F.,.F.,(4,1,1,1,1,1,1,1,1,1,1,1,1,1,1,1,1,1,1,1,1,1,1,1,
1,1,1,1,1,1,1,1,1,4),(5.51099015090077E-17,0.00363255526710614,0.00726511053421223,
0.00908138816776527,0.0108976658013183,0.0145302210684244,0.0181627763355305,
0.0217953316026366,0.0254278868697427,0.0290604421368487,0.0363255526710609,
0.039958107938167,0.0435906632052731,0.0472232184723792,0.0508557737394853,
0.0544883290065913,0.0563046066401444,0.0581208842736974,0.0599371619072505,
0.0617534395408035,0.0653859948079096,0.0690185500750157,0.0726511053421218,
0.0762836606092279,0.0799162158763339,0.0871813264105461,0.0908138816776522,
0.0944464369447583,0.0980789922118644,0.10171154747897,0.105344102746077,
0.108976658013183,0.112609213280289,0.116241768547395),.UNSPECIFIED.);
#154=B_SPLINE_CURVE_WITH_KNOTS('',3,(#464,#465,#466,#467,#468,#469,#470,
#471,#472,#473,#474,#475,#476,#477,#478,#479,#480,#481,#482,#483),
 .UNSPECIFIED.,.T.,.F.,(1,1,1,1,1,1,1,1,1,1,1,1,1,1,1,1,1,1,1,1,1,1,1,1),
(-0.00718381936170866,-0.00359190968085433,-0.00179595484042717,0.,0.00359190968085433,
0.00718381936170866,0.010775729042563,0.0143676387234173,0.0179595484042716,
0.021551458085126,0.0251433677659803,0.0287352774468346,0.0323271871276889,
0.0359190968085433,0.0395110064893976,0.0431029161702519,0.0466948258511063,
0.0502867355319606,0.0538786452128149,0.0556746000532421,0.0574705548936692,
0.0610624645745236,0.0646543742553779,0.0682462839362322),.UNSPECIFIED.);
#155=B_SPLINE_CURVE_WITH_KNOTS('',3,(#485,#486,#487,#488,#489,#490,#491,
#492,#493,#494,#495,#496,#497,#498,#499,#500,#501,#502,#503,#504),
 .UNSPECIFIED.,.T.,.F.,(1,1,1,1,1,1,1,1,1,1,1,1,1,1,1,1,1,1,1,1,1,1,1,1),
(-0.00718381936170865,-0.00359190968085432,-0.00179595484042716,0.,0.00359190968085433,
0.00718381936170865,0.010775729042563,0.0143676387234173,0.0179595484042716,
0.021551458085126,0.0251433677659803,0.0287352774468346,0.0323271871276889,
0.0359190968085433,0.0395110064893976,0.0431029161702519,0.0466948258511062,
0.0502867355319606,0.0538786452128149,0.0556746000532421,0.0574705548936692,
0.0610624645745235,0.0646543742553779,0.0682462839362322),.UNSPECIFIED.);
#156=EDGE_LOOP('',(#55));
#157=EDGE_LOOP('',(#56));
#158=EDGE_LOOP('',(#57,#58,#59,#60));
#159=EDGE_LOOP('',(#61));
#160=EDGE_LOOP('',(#62));
#161=EDGE_LOOP('',(#63));
#162=EDGE_LOOP('',(#64,#65,#66,#67));
#163=EDGE_LOOP('',(#68));
#164=EDGE_LOOP('',(#69));
#165=EDGE_LOOP('',(#70));
#166=EDGE_LOOP('',(#71));
#167=EDGE_LOOP('',(#72));
#168=EDGE_LOOP('',(#73));
#169=EDGE_LOOP('',(#74));
#170=EDGE_LOOP('',(#75));
#171=EDGE_LOOP('',(#76));
#172=EDGE_LOOP('',(#77,#78,#79,#80));
#173=EDGE_LOOP('',(#81,#82,#83));
#174=EDGE_LOOP('',(#84,#85,#86));
#175=EDGE_LOOP('',(#87));
#176=EDGE_LOOP('',(#88));
#177=EDGE_LOOP('',(#89));
#178=EDGE_LOOP('',(#90));
#179=EDGE_LOOP('',(#91));
#180=EDGE_LOOP('',(#92));
#181=EDGE_LOOP('',(#93));
#182=EDGE_LOOP('',(#94));
#183=EDGE_LOOP('',(#95));
#184=EDGE_LOOP('',(#96));
#185=EDGE_LOOP('',(#97));
#186=EDGE_LOOP('',(#98));
#187=EDGE_LOOP('',(#99));
#188=EDGE_LOOP('',(#100));
#189=EDGE_LOOP('',(#101));
#190=EDGE_LOOP('',(#102));
#191=EDGE_LOOP('',(#103));
#192=EDGE_LOOP('',(#104));
#193=FACE_BOUND('',#156,.T.);
#194=FACE_BOUND('',#157,.T.);
#195=FACE_BOUND('',#158,.T.);
#196=FACE_BOUND('',#159,.T.);
#197=FACE_BOUND('',#160,.T.);
#198=FACE_BOUND('',#161,.T.);
#199=FACE_BOUND('',#162,.T.);
#200=FACE_BOUND('',#163,.T.);
#201=FACE_BOUND('',#164,.T.);
#202=FACE_BOUND('',#165,.T.);
#203=FACE_BOUND('',#166,.T.);
#204=FACE_BOUND('',#167,.T.);
#205=FACE_BOUND('',#168,.T.);
#206=FACE_BOUND('',#169,.T.);
#207=FACE_BOUND('',#170,.T.);
#208=FACE_BOUND('',#171,.T.);
#209=FACE_BOUND('',#172,.T.);
#210=FACE_BOUND('',#173,.T.);
#211=FACE_BOUND('',#174,.T.);
#212=FACE_BOUND('',#175,.T.);
#213=FACE_BOUND('',#176,.T.);
#214=FACE_BOUND('',#177,.T.);
#215=FACE_BOUND('',#178,.T.);
#216=FACE_BOUND('',#179,.T.);
#217=FACE_BOUND('',#180,.T.);
#218=FACE_BOUND('',#181,.T.);
#219=FACE_BOUND('',#182,.T.);
#220=FACE_BOUND('',#183,.T.);
#221=FACE_BOUND('',#184,.T.);
#222=FACE_BOUND('',#185,.T.);
#223=FACE_BOUND('',#186,.T.);
#224=FACE_BOUND('',#187,.T.);
#225=FACE_BOUND('',#188,.T.);
#226=FACE_BOUND('',#189,.T.);
#227=FACE_BOUND('',#190,.T.);
#228=FACE_BOUND('',#191,.T.);
#229=FACE_BOUND('',#192,.T.);
#230=CYLINDRICAL_SURFACE('',#273,16.);
#231=CYLINDRICAL_SURFACE('',#281,20.955);
#232=CYLINDRICAL_SURFACE('',#286,20.955);
#233=CYLINDRICAL_SURFACE('',#289,22.);
#234=CYLINDRICAL_SURFACE('',#297,20.);
#235=CYLINDRICAL_SURFACE('',#299,35.);
#236=CYLINDRICAL_SURFACE('',#306,9.);
#237=CYLINDRICAL_SURFACE('',#307,9.);
#238=CYLINDRICAL_SURFACE('',#310,9.);
#239=ADVANCED_FACE('',(#193,#194,#195,#196,#197),#230,.T.);
#240=ADVANCED_FACE('',(#198,#199),#24,.T.);
#241=ADVANCED_FACE('',(#200,#201),#231,.T.);
#242=ADVANCED_FACE('',(#202),#25,.T.);
#243=ADVANCED_FACE('',(#203,#204),#26,.F.);
#244=ADVANCED_FACE('',(#205,#206),#232,.T.);
#245=ADVANCED_FACE('',(#207),#27,.F.);
#246=ADVANCED_FACE('',(#208,#209),#233,.T.);
#247=ADVANCED_FACE('',(#210),#28,.F.);
#248=ADVANCED_FACE('',(#211),#29,.F.);
#249=ADVANCED_FACE('',(#212,#213),#30,.T.);
#250=ADVANCED_FACE('',(#214,#215),#234,.T.);
#251=ADVANCED_FACE('',(#216,#217),#235,.T.);
#252=ADVANCED_FACE('',(#218),#31,.T.);
#253=ADVANCED_FACE('',(#219,#220),#32,.F.);
#254=ADVANCED_FACE('',(#221),#33,.F.);
#255=ADVANCED_FACE('',(#222,#223),#236,.T.);
#256=ADVANCED_FACE('',(#224,#225),#237,.T.);
#257=ADVANCED_FACE('',(#226),#34,.T.);
#258=ADVANCED_FACE('',(#227,#228),#238,.T.);
#259=ADVANCED_FACE('',(#229),#35,.F.);
#260=CLOSED_SHELL('',(#239,#240,#241,#242,#243,#244,#245,#246,#247,#248,
#249,#250,#251,#252,#253,#254,#255,#256,#257,#258,#259));
#261=STYLED_ITEM('',(#262),#269);
#262=PRESENTATION_STYLE_ASSIGNMENT((#263));
#263=SURFACE_STYLE_USAGE(.BOTH.,#264);
#264=SURFACE_SIDE_STYLE('',(#265));
#265=SURFACE_STYLE_FILL_AREA(#266);
#266=FILL_AREA_STYLE('',(#267));
#267=FILL_AREA_STYLE_COLOUR('',#268);
#268=COLOUR_RGB('',0.689999997615814,0.689999997615814,0.689999997615814);
#269=MANIFOLD_SOLID_BREP('0730G025CH',#260);
#270=SHAPE_DEFINITION_REPRESENTATION(#563,#271);
#271=SHAPE_REPRESENTATION('0730G025CH',(#272),#558);
#272=AXIS2_PLACEMENT_3D('',#397,#313,#314);
#273=AXIS2_PLACEMENT_3D('',#398,#315,#316);
#274=AXIS2_PLACEMENT_3D('',#419,#317,#318);
#275=AXIS2_PLACEMENT_3D('',#421,#319,#320);
#276=AXIS2_PLACEMENT_3D('',#424,#321,#322);
#277=AXIS2_PLACEMENT_3D('',#426,#323,#324);
#278=AXIS2_PLACEMENT_3D('',#506,#325,#326);
#279=AXIS2_PLACEMENT_3D('',#507,#327,#328);
#280=AXIS2_PLACEMENT_3D('',#509,#329,#330);
#281=AXIS2_PLACEMENT_3D('',#514,#333,#334);
#282=AXIS2_PLACEMENT_3D('',#515,#335,#336);
#283=AXIS2_PLACEMENT_3D('',#517,#337,#338);
#284=AXIS2_PLACEMENT_3D('',#519,#339,#340);
#285=AXIS2_PLACEMENT_3D('',#520,#341,#342);
#286=AXIS2_PLACEMENT_3D('',#521,#343,#344);
#287=AXIS2_PLACEMENT_3D('',#522,#345,#346);
#288=AXIS2_PLACEMENT_3D('',#524,#347,#348);
#289=AXIS2_PLACEMENT_3D('',#525,#349,#350);
#290=AXIS2_PLACEMENT_3D('',#526,#351,#352);
#291=AXIS2_PLACEMENT_3D('',#528,#353,#354);
#292=AXIS2_PLACEMENT_3D('',#529,#355,#356);
#293=AXIS2_PLACEMENT_3D('',#530,#357,#358);
#294=AXIS2_PLACEMENT_3D('',#531,#359,#360);
#295=AXIS2_PLACEMENT_3D('',#532,#361,#362);
#296=AXIS2_PLACEMENT_3D('',#533,#363,#364);
#297=AXIS2_PLACEMENT_3D('',#535,#365,#366);
#298=AXIS2_PLACEMENT_3D('',#536,#367,#368);
#299=AXIS2_PLACEMENT_3D('',#538,#369,#370);
#300=AXIS2_PLACEMENT_3D('',#539,#371,#372);
#301=AXIS2_PLACEMENT_3D('',#541,#373,#374);
#302=AXIS2_PLACEMENT_3D('',#543,#375,#376);
#303=AXIS2_PLACEMENT_3D('',#544,#377,#378);
#304=AXIS2_PLACEMENT_3D('',#545,#379,#380);
#305=AXIS2_PLACEMENT_3D('',#546,#381,#382);
#306=AXIS2_PLACEMENT_3D('',#548,#383,#384);
#307=AXIS2_PLACEMENT_3D('',#549,#385,#386);
#308=AXIS2_PLACEMENT_3D('',#550,#387,#388);
#309=AXIS2_PLACEMENT_3D('',#552,#389,#390);
#310=AXIS2_PLACEMENT_3D('',#553,#391,#392);
#311=AXIS2_PLACEMENT_3D('',#554,#393,#394);
#312=AXIS2_PLACEMENT_3D('',#556,#395,#396);
#313=DIRECTION('',(0.,0.,1.));
#314=DIRECTION('',(1.,0.,0.));
#315=DIRECTION('',(-1.,0.,0.));
#316=DIRECTION('',(0.,0.,1.));
#317=DIRECTION('',(1.,0.,0.));
#318=DIRECTION('',(0.,0.,-1.));
#319=DIRECTION('',(0.707106781186548,0.,0.707106781186548));
#320=DIRECTION('',(-0.707106781186548,0.,0.707106781186548));
#321=DIRECTION('',(1.,0.,0.));
#322=DIRECTION('',(0.,0.,-1.));
#323=DIRECTION('',(0.707106781186548,0.,0.707106781186548));
#324=DIRECTION('',(-0.707106781186548,0.,0.707106781186548));
#325=DIRECTION('',(1.,0.,0.));
#326=DIRECTION('',(0.,0.,-1.));
#327=DIRECTION('',(1.,0.,0.));
#328=DIRECTION('',(0.,0.,-1.));
#329=DIRECTION('',(1.,0.,0.));
#330=DIRECTION('',(0.,0.,-1.));
#331=DIRECTION('',(0.,-1.,0.));
#332=DIRECTION('',(0.,-1.,0.));
#333=DIRECTION('',(-1.,0.,0.));
#334=DIRECTION('',(0.,0.,1.));
#335=DIRECTION('',(1.,0.,0.));
#336=DIRECTION('',(0.,0.,-1.));
#337=DIRECTION('',(1.,0.,0.));
#338=DIRECTION('',(0.,0.,-1.));
#339=DIRECTION('',(1.,0.,0.));
#340=DIRECTION('',(0.,0.,-1.));
#341=DIRECTION('',(1.,0.,0.));
#342=DIRECTION('',(0.,0.,-1.));
#343=DIRECTION('',(1.,0.,0.));
#344=DIRECTION('',(0.,0.,-1.));
#345=DIRECTION('',(1.,0.,0.));
#346=DIRECTION('',(0.,0.,-1.));
#347=DIRECTION('',(1.,0.,0.));
#348=DIRECTION('',(0.,0.,-1.));
#349=DIRECTION('',(-0.707106781186547,0.,-0.707106781186547));
#350=DIRECTION('',(-0.707106781186548,0.,0.707106781186548));
#351=DIRECTION('',(0.707106781186548,0.,0.707106781186548));
#352=DIRECTION('',(0.707106781186548,0.,-0.707106781186548));
#353=DIRECTION('',(0.707106781186548,0.,0.707106781186548));
#354=DIRECTION('',(0.707106781186548,0.,-0.707106781186548));
#355=DIRECTION('',(0.707106781186548,0.,0.707106781186548));
#356=DIRECTION('',(0.707106781186548,0.,-0.707106781186548));
#357=DIRECTION('',(0.707106781186548,0.,0.707106781186548));
#358=DIRECTION('',(0.707106781186548,0.,-0.707106781186548));
#359=DIRECTION('',(0.707106781186548,0.,0.707106781186548));
#360=DIRECTION('',(0.707106781186548,0.,-0.707106781186548));
#361=DIRECTION('',(0.707106781186548,0.,0.707106781186548));
#362=DIRECTION('',(0.707106781186548,0.,-0.707106781186548));
#363=DIRECTION('',(0.707106781186548,0.,0.707106781186548));
#364=DIRECTION('',(0.707106781186548,0.,-0.707106781186548));
#365=DIRECTION('',(-0.707106781186548,0.,-0.707106781186548));
#366=DIRECTION('',(-0.707106781186548,0.,0.707106781186548));
#367=DIRECTION('',(0.707106781186548,0.,0.707106781186548));
#368=DIRECTION('',(0.707106781186548,0.,-0.707106781186548));
#369=DIRECTION('',(-0.707106781186547,0.,-0.707106781186547));
#370=DIRECTION('',(-0.707106781186548,0.,0.707106781186548));
#371=DIRECTION('',(0.707106781186548,0.,0.707106781186548));
#372=DIRECTION('',(0.707106781186548,0.,-0.707106781186548));
#373=DIRECTION('',(0.707106781186548,0.,0.707106781186548));
#374=DIRECTION('',(0.707106781186548,0.,-0.707106781186548));
#375=DIRECTION('',(0.707106781186548,0.,0.707106781186548));
#376=DIRECTION('',(0.707106781186548,0.,-0.707106781186548));
#377=DIRECTION('',(0.707106781186548,0.,0.707106781186548));
#378=DIRECTION('',(0.707106781186548,0.,-0.707106781186548));
#379=DIRECTION('',(0.,1.,0.));
#380=DIRECTION('',(0.,0.,1.));
#381=DIRECTION('',(0.,1.,0.));
#382=DIRECTION('',(1.,0.,0.));
#383=DIRECTION('',(0.,-1.,0.));
#384=DIRECTION('',(0.,0.,-1.));
#385=DIRECTION('',(0.,-1.,0.));
#386=DIRECTION('',(0.,0.,-1.));
#387=DIRECTION('',(0.,1.,0.));
#388=DIRECTION('',(1.,0.,0.));
#389=DIRECTION('',(0.,1.,0.));
#390=DIRECTION('',(0.,0.,1.));
#391=DIRECTION('',(0.,0.,1.));
#392=DIRECTION('',(1.,0.,0.));
#393=DIRECTION('',(0.,0.,1.));
#394=DIRECTION('',(1.,0.,0.));
#395=DIRECTION('',(0.,0.,1.));
#396=DIRECTION('',(1.,0.,0.));
#397=CARTESIAN_POINT('',(0.,0.,0.));
#398=CARTESIAN_POINT('',(33.5,0.,0.));
#399=CARTESIAN_POINT('',(-13.9990729713269,-3.60989773411625,-15.7117441720062));
#400=CARTESIAN_POINT('',(-13.2507569628489,0.000413254281733796,-16.1440186636764));
#401=CARTESIAN_POINT('',(-13.9978991772773,3.60824471698932,-15.7121811732883));
#402=CARTESIAN_POINT('',(-15.9922440824534,6.52859106959624,-14.6907411036941));
#403=CARTESIAN_POINT('',(-18.8809579284422,8.49273067912265,-13.5906696501013));
#404=CARTESIAN_POINT('',(-22.4855551305459,9.25054647783989,-13.0497562620938));
#405=CARTESIAN_POINT('',(-26.0940586433982,8.5050199863453,-13.582887782495));
#406=CARTESIAN_POINT('',(-29.0010036769554,6.53643986598897,-14.6872989544594));
#407=CARTESIAN_POINT('',(-30.9927548375772,3.62569906969246,-15.7071757792674));
#408=CARTESIAN_POINT('',(-31.749527009429,0.0265527545110533,-16.1441951205088));
#409=CARTESIAN_POINT('',(-31.0089667344004,-3.59625565895774,-15.7159478942535));
#410=CARTESIAN_POINT('',(-29.0139085230227,-6.52284888680706,-14.6935102302419));
#411=CARTESIAN_POINT('',(-26.1231857332782,-8.49209417884098,-13.5912636868554));
#412=CARTESIAN_POINT('',(-22.5096621997763,-9.25125684810823,-13.0492022534803));
#413=CARTESIAN_POINT('',(-18.8997656323019,-8.50284329371199,-13.5844905347665));
#414=CARTESIAN_POINT('',(-15.9898342221363,-6.52823020339662,-14.6912751510986));
#415=CARTESIAN_POINT('',(-13.9990729713269,-3.60989773411625,-15.7117441720062));
#416=CARTESIAN_POINT('',(-13.2507569628489,0.000413254281733796,-16.1440186636764));
#417=CARTESIAN_POINT('',(-13.9978991772773,3.60824471698932,-15.7121811732883));
#418=CARTESIAN_POINT('',(-13.5,0.,-16.));
#419=CARTESIAN_POINT('',(33.5,0.,0.));
#420=CARTESIAN_POINT('',(33.5,0.,-16.));
#421=CARTESIAN_POINT('',(-19.5,0.,0.));
#422=CARTESIAN_POINT('',(-33.5,-7.74596669241483,14.));
#423=CARTESIAN_POINT('',(-4.4003311294585,-5.29150262212918,-15.0996688705415));
#424=CARTESIAN_POINT('',(-33.5,0.,0.));
#425=CARTESIAN_POINT('',(-33.5,7.74596669241483,14.));
#426=CARTESIAN_POINT('',(-19.5,0.,0.));
#427=CARTESIAN_POINT('',(-4.4003311294585,5.29150262212918,-15.0996688705415));
#428=CARTESIAN_POINT('',(-4.4003311294585,-5.29150262212923,-15.0996688705415));
#429=CARTESIAN_POINT('',(-4.4003311294585,-6.44976704904763,-14.6937686283107));
#430=CARTESIAN_POINT('',(-4.38727133377074,-8.6295566740559,-13.6387419844001));
#431=CARTESIAN_POINT('',(-4.2169197716522,-11.0300118610654,-11.6995254062741));
#432=CARTESIAN_POINT('',(-3.8851831663873,-12.6064985096255,-9.9071397976372));
#433=CARTESIAN_POINT('',(-3.36617111351363,-13.9853678984071,-7.93163681574651));
#434=CARTESIAN_POINT('',(-2.32145160440298,-15.1983836818188,-5.34722878004969));
#435=CARTESIAN_POINT('',(-0.333025124504614,-15.9221879558408,-2.30696025754487));
#436=CARTESIAN_POINT('',(2.16063132681025,-16.0602745530649,0.397999477078823));
#437=CARTESIAN_POINT('',(4.89541229735142,-15.8148816916544,2.76222742359511));
#438=CARTESIAN_POINT('',(8.79078224633069,-15.0958848645167,5.63224580486185));
#439=CARTESIAN_POINT('',(12.7573301317197,-13.9177277514993,8.09536929290551));
#440=CARTESIAN_POINT('',(16.6900892464473,-12.2757193518044,10.3360103383133));
#441=CARTESIAN_POINT('',(19.6166507827629,-10.7482477408937,11.9241916392697));
#442=CARTESIAN_POINT('',(22.3899637602246,-8.89431451499986,13.3752495765398));
#443=CARTESIAN_POINT('',(24.9330786779695,-6.59797619204904,14.6691610023296));
#444=CARTESIAN_POINT('',(26.648883409733,-4.14643362327913,15.5239151451183));
#445=CARTESIAN_POINT('',(27.4538675243241,-1.88867051693667,15.9217497600705));
#446=CARTESIAN_POINT('',(27.6860698100323,-0.0455284870949001,16.0361442817649));
#447=CARTESIAN_POINT('',(27.4772384123334,1.79474326465558,15.9332762435889));
#448=CARTESIAN_POINT('',(26.679303622124,4.09772581807875,15.5390065822967));
#449=CARTESIAN_POINT('',(24.9827476790234,6.53919617272057,14.6940701930334));
#450=CARTESIAN_POINT('',(22.4515809885673,8.84873962224494,13.4070512677331));
#451=CARTESIAN_POINT('',(19.661343432439,10.7221026838712,11.9480091653108));
#452=CARTESIAN_POINT('',(16.7510474058793,12.2466563331395,10.3695677894702));
#453=CARTESIAN_POINT('',(12.8170723203171,13.8986010357778,8.13181714853637));
#454=CARTESIAN_POINT('',(8.79906061864742,15.0929670458586,5.63644325622511));
#455=CARTESIAN_POINT('',(4.93240924302629,15.8099237106622,2.79203622269235));
#456=CARTESIAN_POINT('',(2.16151432673012,16.0607441122288,0.399384378135429));
#457=CARTESIAN_POINT('',(-0.305954373663206,15.9238487532101,-2.27683425016413));
#458=CARTESIAN_POINT('',(-2.30011070957547,15.216020640262,-5.3023603471599));
#459=CARTESIAN_POINT('',(-3.57401406534684,13.7466042840334,-8.44330099480849));
#460=CARTESIAN_POINT('',(-4.18330475289592,11.5118496879557,-11.3106959455631));
#461=CARTESIAN_POINT('',(-4.38601176764133,8.66036267703061,-13.6191885293182));
#462=CARTESIAN_POINT('',(-4.4003311294585,6.44949243190227,-14.6938648646823));
#463=CARTESIAN_POINT('',(-4.4003311294585,5.29150262212923,-15.0996688705415));
#464=CARTESIAN_POINT('',(19.6716511010975,-13.3158412918102,-8.87417337109789));
#465=CARTESIAN_POINT('',(22.1162946130943,-13.1408239837917,-9.12531588566362));
#466=CARTESIAN_POINT('',(25.0950929766638,-13.5847260166679,-8.50129017353798));
#467=CARTESIAN_POINT('',(28.0049491559337,-14.688616287805,-6.53372494372043));
#468=CARTESIAN_POINT('',(29.9921606426755,-15.7070880165739,-3.62413835351521));
#469=CARTESIAN_POINT('',(30.7492637757436,-16.1439218792862,-0.0324289869429939));
#470=CARTESIAN_POINT('',(30.0105408092074,-15.7170875285998,3.59170617109151));
#471=CARTESIAN_POINT('',(28.0201297882158,-14.6957382878175,6.51767396200803));
#472=CARTESIAN_POINT('',(25.1260034541849,-13.5939088068124,8.48803787136663));
#473=CARTESIAN_POINT('',(21.5474072036488,-13.0505495839422,9.24928301718328));
#474=CARTESIAN_POINT('',(17.922762900595,-13.5767901981155,8.51430383273641));
#475=CARTESIAN_POINT('',(15.008229617398,-14.6831327530661,6.5462855120095));
#476=CARTESIAN_POINT('',(13.0106593523695,-15.7052187136161,3.63383942021884));
#477=CARTESIAN_POINT('',(12.2504256667016,-16.1440650257569,0.0379801955790359));
#478=CARTESIAN_POINT('',(12.9879946752793,-15.7183205431781,-3.58948775427576));
#479=CARTESIAN_POINT('',(14.9833109190451,-14.6921131642998,-6.52558118648547));
#480=CARTESIAN_POINT('',(17.4118659013167,-13.7750332576824,-8.16637598329157));
#481=CARTESIAN_POINT('',(19.6716511010975,-13.3158412918102,-8.87417337109789));
#482=CARTESIAN_POINT('',(22.1162946130943,-13.1408239837917,-9.12531588566362));
#483=CARTESIAN_POINT('',(25.0950929766638,-13.5847260166679,-8.50129017353798));
#484=CARTESIAN_POINT('',(21.5,-13.228756555323,-9.));
#485=CARTESIAN_POINT('',(23.3283488989025,13.3158412918102,-8.87417337109789));
#486=CARTESIAN_POINT('',(20.8837053869057,13.1408239837917,-9.12531588566362));
#487=CARTESIAN_POINT('',(17.9049070233362,13.5847260166679,-8.50129017353798));
#488=CARTESIAN_POINT('',(14.9950508440664,14.688616287805,-6.53372494372044));
#489=CARTESIAN_POINT('',(13.0078393573245,15.7070880165739,-3.62413835351521));
#490=CARTESIAN_POINT('',(12.2507362242564,16.1439218792862,-0.0324289869430099));
#491=CARTESIAN_POINT('',(12.9894591907926,15.7170875285998,3.5917061710915));
#492=CARTESIAN_POINT('',(14.9798702117842,14.6957382878175,6.51767396200802));
#493=CARTESIAN_POINT('',(17.8739965458151,13.5939088068124,8.48803787136662));
#494=CARTESIAN_POINT('',(21.4525927963512,13.0505495839422,9.24928301718328));
#495=CARTESIAN_POINT('',(25.077237099405,13.5767901981155,8.51430383273642));
#496=CARTESIAN_POINT('',(27.991770382602,14.6831327530661,6.54628551200951));
#497=CARTESIAN_POINT('',(29.9893406476305,15.7052187136161,3.63383942021885));
#498=CARTESIAN_POINT('',(30.7495743332984,16.1440650257569,0.0379801955790361));
#499=CARTESIAN_POINT('',(30.0120053247207,15.7183205431781,-3.58948775427576));
#500=CARTESIAN_POINT('',(28.0166890809549,14.6921131642998,-6.52558118648548));
#501=CARTESIAN_POINT('',(25.5881340986833,13.7750332576824,-8.16637598329157));
#502=CARTESIAN_POINT('',(23.3283488989025,13.3158412918102,-8.87417337109789));
#503=CARTESIAN_POINT('',(20.8837053869057,13.1408239837917,-9.12531588566362));
#504=CARTESIAN_POINT('',(17.9049070233362,13.5847260166679,-8.50129017353798));
#505=CARTESIAN_POINT('',(21.5,13.228756555323,-9.));
#506=CARTESIAN_POINT('',(-33.5,0.,0.));
#507=CARTESIAN_POINT('',(-33.5,0.,0.));
#508=CARTESIAN_POINT('',(-33.5,0.,-20.955));
#509=CARTESIAN_POINT('',(-33.5,0.,-14.));
#510=CARTESIAN_POINT('',(-33.5,-9.59166304662543,14.));
#511=CARTESIAN_POINT('',(-33.5,9.59166304662543,14.));
#512=CARTESIAN_POINT('',(-33.5,0.,14.));
#513=CARTESIAN_POINT('',(-33.5,0.,14.));
#514=CARTESIAN_POINT('',(48.5,0.,0.));
#515=CARTESIAN_POINT('',(48.5,0.,0.));
#516=CARTESIAN_POINT('',(48.5,0.,-20.955));
#517=CARTESIAN_POINT('',(33.5,0.,0.));
#518=CARTESIAN_POINT('',(33.5,0.,-20.955));
#519=CARTESIAN_POINT('',(48.5,0.,0.));
#520=CARTESIAN_POINT('',(33.5,0.,0.));
#521=CARTESIAN_POINT('',(-48.5,0.,0.));
#522=CARTESIAN_POINT('',(-48.5,0.,0.));
#523=CARTESIAN_POINT('',(-48.5,0.,-20.955));
#524=CARTESIAN_POINT('',(-48.5,0.,0.));
#525=CARTESIAN_POINT('',(20.8050865276332,0.,40.3050865276332));
#526=CARTESIAN_POINT('',(20.8050865276332,0.,40.3050865276332));
#527=CARTESIAN_POINT('',(36.3614357137373,0.,24.7487373415292));
#528=CARTESIAN_POINT('',(-19.5,0.,0.));
#529=CARTESIAN_POINT('',(-19.5,0.,0.));
#530=CARTESIAN_POINT('',(-19.5,0.,0.));
#531=CARTESIAN_POINT('',(-19.5,0.,0.));
#532=CARTESIAN_POINT('',(20.8050865276332,0.,40.3050865276332));
#533=CARTESIAN_POINT('',(20.8050865276332,0.,40.3050865276332));
#534=CARTESIAN_POINT('',(34.9472221513642,0.,26.1629509039023));
#535=CARTESIAN_POINT('',(78.0941708325861,0.,97.5941708325861));
#536=CARTESIAN_POINT('',(78.0941708325861,0.,97.5941708325861));
#537=CARTESIAN_POINT('',(92.2363064563171,0.,83.4520352088552));
#538=CARTESIAN_POINT('',(83.7510250820785,0.,103.251025082078));
#539=CARTESIAN_POINT('',(83.7510250820785,0.,103.251025082078));
#540=CARTESIAN_POINT('',(108.499762423608,0.,78.5022877405493));
#541=CARTESIAN_POINT('',(78.0941708325861,0.,97.5941708325861));
#542=CARTESIAN_POINT('',(102.842908174115,0.,72.845433491057));
#543=CARTESIAN_POINT('',(83.7510250820785,0.,103.251025082078));
#544=CARTESIAN_POINT('',(78.0941708325861,0.,97.5941708325861));
#545=CARTESIAN_POINT('',(21.5,-20.,0.));
#546=CARTESIAN_POINT('',(21.5,-20.,0.));
#547=CARTESIAN_POINT('',(30.5,-20.,0.));
#548=CARTESIAN_POINT('',(21.5,20.,0.));
#549=CARTESIAN_POINT('',(21.5,20.,0.));
#550=CARTESIAN_POINT('',(21.5,20.,0.));
#551=CARTESIAN_POINT('',(30.5,20.,0.));
#552=CARTESIAN_POINT('',(21.5,20.,0.));
#553=CARTESIAN_POINT('',(-22.5,0.,-21.));
#554=CARTESIAN_POINT('',(-22.5,0.,-21.));
#555=CARTESIAN_POINT('',(-13.5,0.,-21.));
#556=CARTESIAN_POINT('',(-22.5,0.,-21.));
#557=MECHANICAL_DESIGN_GEOMETRIC_PRESENTATION_REPRESENTATION('',(#261),
#558);
#558=(
GEOMETRIC_REPRESENTATION_CONTEXT(3)
GLOBAL_UNCERTAINTY_ASSIGNED_CONTEXT((#559))
GLOBAL_UNIT_ASSIGNED_CONTEXT((#562,#561,#560))
REPRESENTATION_CONTEXT('0730G025CH','TOP_LEVEL_ASSEMBLY_PART')
);
#559=UNCERTAINTY_MEASURE_WITH_UNIT(LENGTH_MEASURE(0.005),#562,
'DISTANCE_ACCURACY_VALUE','Maximum Tolerance applied to model');
#560=(
NAMED_UNIT(*)
SI_UNIT($,.STERADIAN.)
SOLID_ANGLE_UNIT()
);
#561=(
NAMED_UNIT(*)
PLANE_ANGLE_UNIT()
SI_UNIT($,.RADIAN.)
);
#562=(
LENGTH_UNIT()
NAMED_UNIT(*)
SI_UNIT(.MILLI.,.METRE.)
);
#563=PRODUCT_DEFINITION_SHAPE('','',#564);
#564=PRODUCT_DEFINITION('','',#566,#565);
#565=DESIGN_CONTEXT('',#572,'design');
#566=PRODUCT_DEFINITION_FORMATION_WITH_SPECIFIED_SOURCE('','',#568,
 .NOT_KNOWN.);
#567=PRODUCT_RELATED_PRODUCT_CATEGORY('','',(#568));
#568=PRODUCT('0730G025CH','0730G025CH','0730G025CH',(#570));
#569=PRODUCT_CATEGORY('','');
#570=MECHANICAL_CONTEXT('',#572,'mechanical');
#571=APPLICATION_PROTOCOL_DEFINITION('international standard',
'config_control_design',2010,#572);
#572=APPLICATION_CONTEXT(
'configuration controlled 3D designs of mechanical parts and assemblie
s');
ENDSEC;
END-ISO-10303-21;
