ISO-10303-21;
HEADER;
FILE_DESCRIPTION (( 'STEP AP203' ),
    '1' );
FILE_NAME ('3D_R1620_104x2_173631170.STEP',
    '2024-08-27T11:12:38',
    ( '' ),
    ( '' ),
    'SwSTEP 2.0',
    'SolidWorks 2024',
    '' );
FILE_SCHEMA (( 'CONFIG_CONTROL_DESIGN' ));
ENDSEC;

DATA;
#1 = VERTEX_POINT ( 'NONE', #139 ) ;
#2 = ORIENTED_EDGE ( 'NONE', *, *, #156, .T. ) ;
#3 = EDGE_CURVE ( 'NONE', #176, #234, #196, .T. ) ;
#4 = ORIENTED_EDGE ( 'NONE', *, *, #3, .F. ) ;
#5 = AXIS2_PLACEMENT_3D ( 'NONE', #43, #7, #85 ) ;
#6 = EDGE_LOOP ( 'NONE', ( #84, #65 ) ) ;
#7 = DIRECTION ( 'NONE',  ( -2.967189154025170812E-17, 0.000000000000000000, 1.000000000000000000 ) ) ;
#8 = FACE_OUTER_BOUND ( 'NONE', #121, .T. ) ;
#9 = AXIS2_PLACEMENT_3D ( 'NONE', #199, #29, #186 ) ;
#10 = AXIS2_PLACEMENT_3D ( 'NONE', #164, #125, #145 ) ;
#11 = CARTESIAN_POINT ( 'NONE',  ( -1.353263632004575023E-13, 0.000000000000000000, -48.00000000000000711 ) ) ;
#12 = DIRECTION ( 'NONE',  ( 3.140184917367554574E-15, 0.000000000000000000, 1.000000000000000000 ) ) ;
#13 = CARTESIAN_POINT ( 'NONE',  ( -152.0000000000000000, 0.000000000000000000, -1.991264034730342100E-14 ) ) ;
#14 = AXIS2_PLACEMENT_3D ( 'NONE', #82, #240, #216 ) ;
#15 = DIRECTION ( 'NONE',  ( 0.000000000000000000, 0.000000000000000000, 1.000000000000000000 ) ) ;
#16 =( NAMED_UNIT ( * ) SI_UNIT ( $, .STERADIAN. ) SOLID_ANGLE_UNIT ( ) );
#17 = PERSON_AND_ORGANIZATION_ROLE ( 'design_supplier' ) ;
#18 = APPLICATION_PROTOCOL_DEFINITION ( 'international standard', 'config_control_design', 1994, #239 ) ;
#19 = TOROIDAL_SURFACE ( 'NONE', #44, 100.0000000000000000, 49.99999999999999289 ) ;
#20 = EDGE_CURVE ( 'NONE', #81, #160, #60, .T. ) ;
#21 = CC_DESIGN_DATE_AND_TIME_ASSIGNMENT ( #37, #116, ( #76 ) ) ;
#22 = EDGE_CURVE ( 'NONE', #64, #81, #155, .T. ) ;
#23 = EDGE_LOOP ( 'NONE', ( #66, #180, #197, #102 ) ) ;
#24 = ORIENTED_EDGE ( 'NONE', *, *, #70, .T. ) ;
#25 = CC_DESIGN_SECURITY_CLASSIFICATION ( #76, ( #53 ) ) ;
#26 = CARTESIAN_POINT ( 'NONE',  ( 0.000000000000000000, 0.000000000000000000, 0.000000000000000000 ) ) ;
#27 = CC_DESIGN_DATE_AND_TIME_ASSIGNMENT ( #132, #208, ( #172 ) ) ;
#28 = CLOSED_SHELL ( 'NONE', ( #133, #233, #88, #228, #184, #52 ) ) ;
#29 = DIRECTION ( 'NONE',  ( 0.000000000000000000, 1.000000000000000000, 0.000000000000000000 ) ) ;
#30 = FACE_BOUND ( 'NONE', #158, .T. ) ;
#31 = CARTESIAN_POINT ( 'NONE',  ( 0.000000000000000000, 0.000000000000000000, 0.000000000000000000 ) ) ;
#32 = AXIS2_PLACEMENT_3D ( 'NONE', #26, #163, #96 ) ;
#33 = COORDINATED_UNIVERSAL_TIME_OFFSET ( 1, 0, .AHEAD. ) ;
#34 = CC_DESIGN_PERSON_AND_ORGANIZATION_ASSIGNMENT ( #151, #79, ( #76 ) ) ;
#35 = COORDINATED_UNIVERSAL_TIME_OFFSET ( 1, 0, .AHEAD. ) ;
#36 = AXIS2_PLACEMENT_3D ( 'NONE', #86, #73, #12 ) ;
#37 = DATE_AND_TIME ( #131, #214 ) ;
#38 = DIRECTION ( 'NONE',  ( 0.000000000000000000, 1.000000000000000000, 0.000000000000000000 ) ) ;
#39 = CC_DESIGN_APPROVAL ( #248, ( #53 ) ) ;
#40 = VERTEX_POINT ( 'NONE', #90 ) ;
#41 = UNCERTAINTY_MEASURE_WITH_UNIT (LENGTH_MEASURE( 1.000000000000000082E-05 ), #250, 'distance_accuracy_value', 'NONE');
#42 = ORIENTED_EDGE ( 'NONE', *, *, #20, .F. ) ;
#43 = CARTESIAN_POINT ( 'NONE',  ( -100.0000000000000000, 0.000000000000000000, -1.836970198721033218E-14 ) ) ;
#44 = AXIS2_PLACEMENT_3D ( 'NONE', #71, #162, #243 ) ;
#45 = APPROVAL ( #59, 'UNSPECIFIED' ) ;
#46 = DIRECTION ( 'NONE',  ( 1.000000000000000000, 0.000000000000000000, 2.967189154025170812E-17 ) ) ;
#47 = DIRECTION ( 'NONE',  ( -1.000000000000000000, 0.000000000000000000, 3.140184917367554968E-15 ) ) ;
#48 = EDGE_CURVE ( 'NONE', #40, #234, #146, .T. ) ;
#49 = AXIS2_PLACEMENT_3D ( 'NONE', #94, #129, #167 ) ;
#50 = CARTESIAN_POINT ( 'NONE',  ( -48.00000000000000711, 0.000000000000000000, -1.682676362711724335E-14 ) ) ;
#51 = FACE_OUTER_BOUND ( 'NONE', #23, .T. ) ;
#52 = ADVANCED_FACE ( 'NONE', ( #51 ), #19, .F. ) ;
#53 = PRODUCT_DEFINITION_FORMATION_WITH_SPECIFIED_SOURCE ( 'ANY', '', #222, .NOT_KNOWN. ) ;
#54 = APPROVAL_ROLE ( '' ) ;
#55 = CC_DESIGN_PERSON_AND_ORGANIZATION_ASSIGNMENT ( #97, #207, ( #53 ) ) ;
#56 = APPROVAL_STATUS ( 'not_yet_approved' ) ;
#57 = APPLICATION_CONTEXT ( 'configuration controlled 3d designs of mechanical parts and assemblies' ) ;
#58 = PERSON_AND_ORGANIZATION ( #185, #210 ) ;
#59 = APPROVAL_STATUS ( 'not_yet_approved' ) ;
#60 = CIRCLE ( 'NONE', #5, 52.00000000000000000 ) ;
#61 = ORIENTED_EDGE ( 'NONE', *, *, #219, .F. ) ;
#62 = EDGE_LOOP ( 'NONE', ( #179, #2, #83, #137 ) ) ;
#63 = CIRCLE ( 'NONE', #189, 52.00000000000000000 ) ;
#64 = VERTEX_POINT ( 'NONE', #11 ) ;
#65 = ORIENTED_EDGE ( 'NONE', *, *, #115, .F. ) ;
#66 = ORIENTED_EDGE ( 'NONE', *, *, #156, .F. ) ;
#67 = CARTESIAN_POINT ( 'NONE',  ( -100.0000000000000000, 0.000000000000000000, -1.836970198721033218E-14 ) ) ;
#68 =( GEOMETRIC_REPRESENTATION_CONTEXT ( 3 ) GLOBAL_UNCERTAINTY_ASSIGNED_CONTEXT ( ( #41 ) ) GLOBAL_UNIT_ASSIGNED_CONTEXT ( ( #250, #251, #16 ) ) REPRESENTATION_CONTEXT ( 'NONE', 'WORKASPACE' ) );
#69 = DIRECTION ( 'NONE',  ( 0.000000000000000000, 0.000000000000000000, 1.000000000000000000 ) ) ;
#70 = EDGE_CURVE ( 'NONE', #236, #160, #170, .T. ) ;
#71 = CARTESIAN_POINT ( 'NONE',  ( 0.000000000000000000, 0.000000000000000000, 0.000000000000000000 ) ) ;
#72 = PRODUCT_RELATED_PRODUCT_CATEGORY ( 'detail', '', ( #222 ) ) ;
#73 = DIRECTION ( 'NONE',  ( -1.000000000000000000, 0.000000000000000000, 3.140184917367554968E-15 ) ) ;
#74 = CARTESIAN_POINT ( 'NONE',  ( -2.986159789035703670E-13, 0.000000000000000000, -100.0000000000000000 ) ) ;
#75 = PRODUCT_DEFINITION_SHAPE ( 'NONE', 'NONE',  #172 ) ;
#76 = SECURITY_CLASSIFICATION ( '', '', #252 ) ;
#77 = CALENDAR_DATE ( 2024, 27, 8 ) ;
#78 = COORDINATED_UNIVERSAL_TIME_OFFSET ( 1, 0, .AHEAD. ) ;
#79 = PERSON_AND_ORGANIZATION_ROLE ( 'classification_officer' ) ;
#80 = AXIS2_PLACEMENT_3D ( 'NONE', #142, #103, #91 ) ;
#81 = VERTEX_POINT ( 'NONE', #50 ) ;
#82 = CARTESIAN_POINT ( 'NONE',  ( -100.0000000000000000, 0.000000000000000000, -2.967189154025170812E-15 ) ) ;
#83 = ORIENTED_EDGE ( 'NONE', *, *, #3, .T. ) ;
#84 = ORIENTED_EDGE ( 'NONE', *, *, #168, .F. ) ;
#85 = DIRECTION ( 'NONE',  ( 1.000000000000000000, 0.000000000000000000, 2.967189154025170812E-17 ) ) ;
#86 = CARTESIAN_POINT ( 'NONE',  ( -2.986159789035703670E-13, 0.000000000000000000, -100.0000000000000000 ) ) ;
#87 = AXIS2_PLACEMENT_3D ( 'NONE', #165, #204, #220 ) ;
#88 = ADVANCED_FACE ( 'NONE', ( #245 ), #173, .T. ) ;
#89 = CARTESIAN_POINT ( 'NONE',  ( 0.000000000000000000, 0.000000000000000000, 0.000000000000000000 ) ) ;
#90 = CARTESIAN_POINT ( 'NONE',  ( -1.570092458683777894E-13, 0.000000000000000000, -50.00000000000000711 ) ) ;
#91 = DIRECTION ( 'NONE',  ( 3.140184917367554968E-15, 0.000000000000000000, 1.000000000000000000 ) ) ;
#92 = CIRCLE ( 'NONE', #36, 52.00000000000000000 ) ;
#93 = MECHANICAL_CONTEXT ( 'NONE', #57, 'mechanical' ) ;
#94 = CARTESIAN_POINT ( 'NONE',  ( 0.000000000000000000, 0.000000000000000000, 0.000000000000000000 ) ) ;
#95 = EDGE_CURVE ( 'NONE', #160, #81, #109, .T. ) ;
#96 = DIRECTION ( 'NONE',  ( 0.000000000000000000, 0.000000000000000000, 1.000000000000000000 ) ) ;
#97 = PERSON_AND_ORGANIZATION ( #185, #210 ) ;
#98 = ORIENTED_EDGE ( 'NONE', *, *, #178, .T. ) ;
#99 = DATE_AND_TIME ( #249, #113 ) ;
#100 = CC_DESIGN_APPROVAL ( #154, ( #76 ) ) ;
#101 = ORIENTED_EDGE ( 'NONE', *, *, #115, .T. ) ;
#102 = ORIENTED_EDGE ( 'NONE', *, *, #219, .T. ) ;
#103 = DIRECTION ( 'NONE',  ( -1.000000000000000000, 0.000000000000000000, 3.140184917367554968E-15 ) ) ;
#104 = PLANE ( 'NONE',  #242 ) ;
#105 = AXIS2_PLACEMENT_3D ( 'NONE', #183, #181, #166 ) ;
#106 = CARTESIAN_POINT ( 'NONE',  ( 0.000000000000000000, -6.123233995736765296E-15, 0.000000000000000000 ) ) ;
#107 = FACE_OUTER_BOUND ( 'NONE', #6, .T. ) ;
#108 = DIRECTION ( 'NONE',  ( 0.000000000000000000, 0.000000000000000000, 1.000000000000000000 ) ) ;
#109 = CIRCLE ( 'NONE', #87, 52.00000000000000000 ) ;
#110 = APPROVAL_DATE_TIME ( #135, #248 ) ;
#111 = APPLICATION_PROTOCOL_DEFINITION ( 'international standard', 'config_control_design', 1994, #57 ) ;
#112 = APPROVAL_STATUS ( 'not_yet_approved' ) ;
#113 = LOCAL_TIME ( 13, 12, 38.00000000000000000, #193 ) ;
#114 = CARTESIAN_POINT ( 'NONE',  ( -4.619055946066831307E-13, 0.000000000000000000, -152.0000000000000000 ) ) ;
#115 = EDGE_CURVE ( 'NONE', #236, #64, #92, .T. ) ;
#116 = DATE_TIME_ROLE ( 'classification_date' ) ;
#117 = SHAPE_DEFINITION_REPRESENTATION ( #75, #127 ) ;
#118 = ORIENTED_EDGE ( 'NONE', *, *, #22, .F. ) ;
#119 = EDGE_LOOP ( 'NONE', ( #238, #24, #42, #118 ) ) ;
#120 = ORIENTED_EDGE ( 'NONE', *, *, #70, .F. ) ;
#121 = EDGE_LOOP ( 'NONE', ( #140, #235 ) ) ;
#122 = AXIS2_PLACEMENT_3D ( 'NONE', #106, #128, #15 ) ;
#123 = ORIENTED_EDGE ( 'NONE', *, *, #95, .F. ) ;
#124 = CARTESIAN_POINT ( 'NONE',  ( -50.00000000000000711, 0.000000000000000000, -1.483594577012585603E-15 ) ) ;
#125 = DIRECTION ( 'NONE',  ( -1.000000000000000000, 0.000000000000000000, 3.140184917367554968E-15 ) ) ;
#126 = DIRECTION ( 'NONE',  ( -2.967189154025170812E-17, 0.000000000000000000, 1.000000000000000000 ) ) ;
#127 = ADVANCED_BREP_SHAPE_REPRESENTATION ( '3D_R1620_104x2_173631170', ( #194, #49 ), #68 ) ;
#128 = DIRECTION ( 'NONE',  ( 0.000000000000000000, 1.000000000000000000, 0.000000000000000000 ) ) ;
#129 = DIRECTION ( 'NONE',  ( 0.000000000000000000, 0.000000000000000000, 1.000000000000000000 ) ) ;
#130 = AXIS2_PLACEMENT_3D ( 'NONE', #31, #203, #108 ) ;
#131 = CALENDAR_DATE ( 2024, 27, 8 ) ;
#132 = DATE_AND_TIME ( #205, #149 ) ;
#133 = ADVANCED_FACE ( 'NONE', ( #144 ), #246, .F. ) ;
#134 = LOCAL_TIME ( 13, 12, 38.00000000000000000, #35 ) ;
#135 = DATE_AND_TIME ( #77, #134 ) ;
#136 = CARTESIAN_POINT ( 'NONE',  ( 0.000000000000000000, -6.368163355566236381E-15, 0.000000000000000000 ) ) ;
#137 = ORIENTED_EDGE ( 'NONE', *, *, #48, .F. ) ;
#138 = APPROVAL_PERSON_ORGANIZATION ( #231, #248, #209 ) ;
#139 = CARTESIAN_POINT ( 'NONE',  ( -4.710277376051332925E-13, 0.000000000000000000, -150.0000000000000000 ) ) ;
#140 = ORIENTED_EDGE ( 'NONE', *, *, #20, .T. ) ;
#141 = TOROIDAL_SURFACE ( 'NONE', #32, 100.0000000000000000, 52.00000000000000000 ) ;
#142 = CARTESIAN_POINT ( 'NONE',  ( -2.986159789035703670E-13, 0.000000000000000000, -100.0000000000000000 ) ) ;
#143 = CARTESIAN_POINT ( 'NONE',  ( 0.000000000000000000, 0.000000000000000000, 0.000000000000000000 ) ) ;
#144 = FACE_OUTER_BOUND ( 'NONE', #62, .T. ) ;
#145 = DIRECTION ( 'NONE',  ( 3.140184917367555362E-15, 0.000000000000000000, 1.000000000000000000 ) ) ;
#146 = CIRCLE ( 'NONE', #122, 50.00000000000000711 ) ;
#147 = FACE_BOUND ( 'NONE', #212, .T. ) ;
#148 = CALENDAR_DATE ( 2024, 27, 8 ) ;
#149 = LOCAL_TIME ( 13, 12, 38.00000000000000000, #33 ) ;
#150 = APPROVAL_PERSON_ORGANIZATION ( #58, #45, #54 ) ;
#151 = PERSON_AND_ORGANIZATION ( #185, #210 ) ;
#152 = PERSON_AND_ORGANIZATION_ROLE ( 'creator' ) ;
#153 = APPROVAL_DATE_TIME ( #169, #45 ) ;
#154 = APPROVAL ( #56, 'UNSPECIFIED' ) ;
#155 = CIRCLE ( 'NONE', #182, 48.00000000000000711 ) ;
#156 = EDGE_CURVE ( 'NONE', #1, #176, #232, .T. ) ;
#157 = CC_DESIGN_PERSON_AND_ORGANIZATION_ASSIGNMENT ( #226, #152, ( #172 ) ) ;
#158 = EDGE_LOOP ( 'NONE', ( #98, #215 ) ) ;
#159 = DESIGN_CONTEXT ( 'detailed design', #239, 'design' ) ;
#160 = VERTEX_POINT ( 'NONE', #13 ) ;
#161 = CC_DESIGN_PERSON_AND_ORGANIZATION_ASSIGNMENT ( #190, #230, ( #222 ) ) ;
#162 = DIRECTION ( 'NONE',  ( 0.000000000000000000, 1.000000000000000000, 0.000000000000000000 ) ) ;
#163 = DIRECTION ( 'NONE',  ( 0.000000000000000000, 1.000000000000000000, 0.000000000000000000 ) ) ;
#164 = CARTESIAN_POINT ( 'NONE',  ( -3.140184917367555284E-13, 0.000000000000000000, -100.0000000000000000 ) ) ;
#165 = CARTESIAN_POINT ( 'NONE',  ( -100.0000000000000000, 0.000000000000000000, -1.836970198721033218E-14 ) ) ;
#166 = DIRECTION ( 'NONE',  ( 1.000000000000000000, 0.000000000000000000, 2.967189154025170812E-17 ) ) ;
#167 = DIRECTION ( 'NONE',  ( 1.000000000000000000, 0.000000000000000000, 0.000000000000000000 ) ) ;
#168 = EDGE_CURVE ( 'NONE', #64, #236, #63, .T. ) ;
#169 = DATE_AND_TIME ( #148, #192 ) ;
#170 = CIRCLE ( 'NONE', #9, 152.0000000000000000 ) ;
#171 = PERSON_AND_ORGANIZATION ( #185, #210 ) ;
#172 = PRODUCT_DEFINITION ( 'UNKNOWN', '', #53, #159 ) ;
#173 = TOROIDAL_SURFACE ( 'NONE', #237, 100.0000000000000000, 52.00000000000000000 ) ;
#174 = ORIENTED_EDGE ( 'NONE', *, *, #22, .T. ) ;
#175 = APPROVAL_DATE_TIME ( #99, #154 ) ;
#176 = VERTEX_POINT ( 'NONE', #218 ) ;
#177 = AXIS2_PLACEMENT_3D ( 'NONE', #143, #221, #188 ) ;
#178 = EDGE_CURVE ( 'NONE', #40, #1, #253, .T. ) ;
#179 = ORIENTED_EDGE ( 'NONE', *, *, #224, .F. ) ;
#180 = ORIENTED_EDGE ( 'NONE', *, *, #178, .F. ) ;
#181 = DIRECTION ( 'NONE',  ( -2.967189154025170812E-17, 0.000000000000000000, 1.000000000000000000 ) ) ;
#182 = AXIS2_PLACEMENT_3D ( 'NONE', #136, #38, #195 ) ;
#183 = CARTESIAN_POINT ( 'NONE',  ( -100.0000000000000000, 0.000000000000000000, -2.967189154025170812E-15 ) ) ;
#184 = ADVANCED_FACE ( 'NONE', ( #30, #107 ), #202, .F. ) ;
#185 = PERSON ( 'UNSPECIFIED', 'UNSPECIFIED', 'UNSPECIFIED', ('UNSPECIFIED'), ('UNSPECIFIED'), ('UNSPECIFIED') ) ;
#186 = DIRECTION ( 'NONE',  ( 0.000000000000000000, 0.000000000000000000, 1.000000000000000000 ) ) ;
#187 = DIRECTION ( 'NONE',  ( 0.000000000000000000, 1.000000000000000000, 0.000000000000000000 ) ) ;
#188 = DIRECTION ( 'NONE',  ( 0.000000000000000000, 0.000000000000000000, 1.000000000000000000 ) ) ;
#189 = AXIS2_PLACEMENT_3D ( 'NONE', #74, #47, #241 ) ;
#190 = PERSON_AND_ORGANIZATION ( #185, #210 ) ;
#191 = APPROVAL_ROLE ( '' ) ;
#192 = LOCAL_TIME ( 13, 12, 38.00000000000000000, #78 ) ;
#193 = COORDINATED_UNIVERSAL_TIME_OFFSET ( 1, 0, .AHEAD. ) ;
#194 = MANIFOLD_SOLID_BREP ( 'Wandung1', #28 ) ;
#195 = DIRECTION ( 'NONE',  ( 0.000000000000000000, 0.000000000000000000, 1.000000000000000000 ) ) ;
#196 = CIRCLE ( 'NONE', #14, 49.99999999999999289 ) ;
#197 = ORIENTED_EDGE ( 'NONE', *, *, #48, .T. ) ;
#198 = EDGE_LOOP ( 'NONE', ( #120, #101, #174, #123 ) ) ;
#199 = CARTESIAN_POINT ( 'NONE',  ( 0.000000000000000000, 0.000000000000000000, 0.000000000000000000 ) ) ;
#200 = CARTESIAN_POINT ( 'NONE',  ( -3.140184917367555284E-13, 0.000000000000000000, -100.0000000000000000 ) ) ;
#201 = CIRCLE ( 'NONE', #105, 49.99999999999999289 ) ;
#202 = PLANE ( 'NONE',  #80 ) ;
#203 = DIRECTION ( 'NONE',  ( 0.000000000000000000, 1.000000000000000000, 0.000000000000000000 ) ) ;
#204 = DIRECTION ( 'NONE',  ( -2.967189154025170812E-17, 0.000000000000000000, 1.000000000000000000 ) ) ;
#205 = CALENDAR_DATE ( 2024, 27, 8 ) ;
#206 = CC_DESIGN_APPROVAL ( #45, ( #172 ) ) ;
#207 = PERSON_AND_ORGANIZATION_ROLE ( 'creator' ) ;
#208 = DATE_TIME_ROLE ( 'creation_date' ) ;
#209 = APPROVAL_ROLE ( '' ) ;
#210 = ORGANIZATION ( 'UNSPECIFIED', 'UNSPECIFIED', '' ) ;
#211 = COORDINATED_UNIVERSAL_TIME_OFFSET ( 1, 0, .AHEAD. ) ;
#212 = EDGE_LOOP ( 'NONE', ( #61, #4 ) ) ;
#213 = CC_DESIGN_PERSON_AND_ORGANIZATION_ASSIGNMENT ( #171, #17, ( #53 ) ) ;
#214 = LOCAL_TIME ( 13, 12, 38.00000000000000000, #211 ) ;
#215 = ORIENTED_EDGE ( 'NONE', *, *, #224, .T. ) ;
#216 = DIRECTION ( 'NONE',  ( 1.000000000000000000, 0.000000000000000000, 2.967189154025170812E-17 ) ) ;
#217 = AXIS2_PLACEMENT_3D ( 'NONE', #200, #244, #247 ) ;
#218 = CARTESIAN_POINT ( 'NONE',  ( -150.0000000000000000, 0.000000000000000000, -4.450783731037756218E-15 ) ) ;
#219 = EDGE_CURVE ( 'NONE', #234, #176, #201, .T. ) ;
#220 = DIRECTION ( 'NONE',  ( 1.000000000000000000, 0.000000000000000000, 2.967189154025170812E-17 ) ) ;
#221 = DIRECTION ( 'NONE',  ( 0.000000000000000000, 1.000000000000000000, 0.000000000000000000 ) ) ;
#222 = PRODUCT ( '3D_R1620_104x2_173631170', '3D_R1620_104x2_173631170', '', ( #93 ) ) ;
#223 = APPROVAL_PERSON_ORGANIZATION ( #229, #154, #191 ) ;
#224 = EDGE_CURVE ( 'NONE', #1, #40, #227, .T. ) ;
#225 = FACE_OUTER_BOUND ( 'NONE', #119, .T. ) ;
#226 = PERSON_AND_ORGANIZATION ( #185, #210 ) ;
#227 = CIRCLE ( 'NONE', #217, 49.99999999999999289 ) ;
#228 = ADVANCED_FACE ( 'NONE', ( #147, #8 ), #104, .T. ) ;
#229 = PERSON_AND_ORGANIZATION ( #185, #210 ) ;
#230 = PERSON_AND_ORGANIZATION_ROLE ( 'design_owner' ) ;
#231 = PERSON_AND_ORGANIZATION ( #185, #210 ) ;
#232 = CIRCLE ( 'NONE', #177, 150.0000000000000000 ) ;
#233 = ADVANCED_FACE ( 'NONE', ( #225 ), #141, .T. ) ;
#234 = VERTEX_POINT ( 'NONE', #124 ) ;
#235 = ORIENTED_EDGE ( 'NONE', *, *, #95, .T. ) ;
#236 = VERTEX_POINT ( 'NONE', #114 ) ;
#237 = AXIS2_PLACEMENT_3D ( 'NONE', #89, #187, #69 ) ;
#238 = ORIENTED_EDGE ( 'NONE', *, *, #168, .T. ) ;
#239 = APPLICATION_CONTEXT ( 'configuration controlled 3d designs of mechanical parts and assemblies' ) ;
#240 = DIRECTION ( 'NONE',  ( -2.967189154025170812E-17, 0.000000000000000000, 1.000000000000000000 ) ) ;
#241 = DIRECTION ( 'NONE',  ( 3.140184917367554574E-15, 0.000000000000000000, 1.000000000000000000 ) ) ;
#242 = AXIS2_PLACEMENT_3D ( 'NONE', #67, #126, #46 ) ;
#243 = DIRECTION ( 'NONE',  ( 0.000000000000000000, 0.000000000000000000, 1.000000000000000000 ) ) ;
#244 = DIRECTION ( 'NONE',  ( -1.000000000000000000, 0.000000000000000000, 3.140184917367554968E-15 ) ) ;
#245 = FACE_OUTER_BOUND ( 'NONE', #198, .T. ) ;
#246 = TOROIDAL_SURFACE ( 'NONE', #130, 100.0000000000000000, 49.99999999999999289 ) ;
#247 = DIRECTION ( 'NONE',  ( 3.140184917367555362E-15, 0.000000000000000000, 1.000000000000000000 ) ) ;
#248 = APPROVAL ( #112, 'UNSPECIFIED' ) ;
#249 = CALENDAR_DATE ( 2024, 27, 8 ) ;
#250 =( LENGTH_UNIT ( ) NAMED_UNIT ( * ) SI_UNIT ( .MILLI., .METRE. ) );
#251 =( NAMED_UNIT ( * ) PLANE_ANGLE_UNIT ( ) SI_UNIT ( $, .RADIAN. ) );
#252 = SECURITY_CLASSIFICATION_LEVEL ( 'unclassified' ) ;
#253 = CIRCLE ( 'NONE', #10, 49.99999999999999289 ) ;
ENDSEC;
END-ISO-10303-21;
