ISO-10303-21;
HEADER;
FILE_DESCRIPTION (( 'STEP AP203' ),
    '1' );
FILE_NAME ('3D_M2060_20-10_174121015.STEP',
    '2024-09-05T10:12:34',
    ( '' ),
    ( '' ),
    'SwSTEP 2.0',
    'SolidWorks 2024',
    '' );
FILE_SCHEMA (( 'CONFIG_CONTROL_DESIGN' ));
ENDSEC;

DATA;
#1 = CARTESIAN_POINT ( 'NONE',  ( 18.00000000000000000, 0.000000000000000000, 3.443204858977550575 ) ) ;
#2 = AXIS2_PLACEMENT_3D ( 'NONE', #235, #10, #45 ) ;
#3 = AXIS2_PLACEMENT_3D ( 'NONE', #72, #17, #225 ) ;
#4 = ADVANCED_FACE ( 'NONE', ( #146 ), #119, .F. ) ;
#5 = DATE_AND_TIME ( #143, #145 ) ;
#6 = CARTESIAN_POINT ( 'NONE',  ( 0.000000000000000000, 0.000000000000000000, 0.000000000000000000 ) ) ;
#7 = ADVANCED_FACE ( 'NONE', ( #152 ), #42, .T. ) ;
#8 = DATE_AND_TIME ( #102, #193 ) ;
#9 = ORIENTED_EDGE ( 'NONE', *, *, #147, .T. ) ;
#10 = DIRECTION ( 'NONE',  ( 1.000000000000000000, 0.000000000000000000, 0.000000000000000000 ) ) ;
#11 = ORIENTED_EDGE ( 'NONE', *, *, #32, .T. ) ;
#12 =( NAMED_UNIT ( * ) SI_UNIT ( $, .STERADIAN. ) SOLID_ANGLE_UNIT ( ) );
#13 = VECTOR ( 'NONE', #71, 1000.000000000000114 ) ;
#14 = AXIS2_PLACEMENT_3D ( 'NONE', #128, #75, #114 ) ;
#15 = ORIENTED_EDGE ( 'NONE', *, *, #207, .F. ) ;
#16 = ORIENTED_EDGE ( 'NONE', *, *, #49, .F. ) ;
#17 = DIRECTION ( 'NONE',  ( 1.000000000000000000, 0.000000000000000000, 0.000000000000000000 ) ) ;
#18 = CALENDAR_DATE ( 2024, 5, 9 ) ;
#19 = DIRECTION ( 'NONE',  ( -1.000000000000000000, -0.000000000000000000, -0.000000000000000000 ) ) ;
#20 = CARTESIAN_POINT ( 'NONE',  ( 18.00000000000000000, 3.061616997868383141E-16, -5.000000000000000000 ) ) ;
#21 = LOCAL_TIME ( 12, 12, 34.00000000000000000, #224 ) ;
#22 = DIRECTION ( 'NONE',  ( 0.000000000000000000, 0.000000000000000000, 1.000000000000000000 ) ) ;
#23 = DIRECTION ( 'NONE',  ( 1.000000000000000000, 0.000000000000000000, 0.000000000000000000 ) ) ;
#24 = AXIS2_PLACEMENT_3D ( 'NONE', #167, #210, #96 ) ;
#25 = CLOSED_SHELL ( 'NONE', ( #41, #165, #226, #100, #7, #4 ) ) ;
#26 = APPLICATION_PROTOCOL_DEFINITION ( 'international standard', 'config_control_design', 1994, #159 ) ;
#27 = APPROVAL_ROLE ( '' ) ;
#28 = ORIENTED_EDGE ( 'NONE', *, *, #80, .F. ) ;
#29 = APPROVAL_STATUS ( 'not_yet_approved' ) ;
#30 = ORIENTED_EDGE ( 'NONE', *, *, #246, .T. ) ;
#31 = ORIENTED_EDGE ( 'NONE', *, *, #246, .F. ) ;
#32 = EDGE_CURVE ( 'NONE', #50, #89, #73, .T. ) ;
#33 = DIRECTION ( 'NONE',  ( -0.9635179096299406609, 3.277692010970709517E-17, -0.2676438637860946712 ) ) ;
#34 = AXIS2_PLACEMENT_3D ( 'NONE', #6, #195, #196 ) ;
#35 = CONICAL_SURFACE ( 'NONE', #86, 5.000000000000000000, 0.2709468503384205862 ) ;
#36 = FACE_OUTER_BOUND ( 'NONE', #48, .T. ) ;
#37 = CARTESIAN_POINT ( 'NONE',  ( 18.00000000000000000, 3.061616997868383141E-16, 5.000000000000000000 ) ) ;
#38 = CARTESIAN_POINT ( 'NONE',  ( 18.00000000000000000, 7.278326807223855161E-16, -3.443204858977550575 ) ) ;
#39 = EDGE_CURVE ( 'NONE', #166, #66, #139, .T. ) ;
#40 = CARTESIAN_POINT ( 'NONE',  ( 0.000000000000000000, 0.000000000000000000, 0.000000000000000000 ) ) ;
#41 = ADVANCED_FACE ( 'NONE', ( #36 ), #151, .F. ) ;
#42 = CONICAL_SURFACE ( 'NONE', #228, 5.000000000000000000, 0.2709468503384205862 ) ;
#43 = COORDINATED_UNIVERSAL_TIME_OFFSET ( 1, 0, .AHEAD. ) ;
#44 = APPROVAL_STATUS ( 'not_yet_approved' ) ;
#45 = DIRECTION ( 'NONE',  ( 0.000000000000000000, 0.000000000000000000, -1.000000000000000000 ) ) ;
#46 = PERSON ( 'UNSPECIFIED', 'UNSPECIFIED', 'UNSPECIFIED', ('UNSPECIFIED'), ('UNSPECIFIED'), ('UNSPECIFIED') ) ;
#47 = APPROVAL_PERSON_ORGANIZATION ( #136, #74, #222 ) ;
#48 = EDGE_LOOP ( 'NONE', ( #9, #160, #63, #108 ) ) ;
#49 = EDGE_CURVE ( 'NONE', #66, #166, #175, .T. ) ;
#50 = VERTEX_POINT ( 'NONE', #245 ) ;
#51 = FACE_OUTER_BOUND ( 'NONE', #219, .T. ) ;
#52 = APPROVAL_PERSON_ORGANIZATION ( #221, #54, #27 ) ;
#53 = CARTESIAN_POINT ( 'NONE',  ( 0.000000000000000000, 0.000000000000000000, 0.000000000000000000 ) ) ;
#54 = APPROVAL ( #29, 'UNSPECIFIED' ) ;
#55 = FACE_OUTER_BOUND ( 'NONE', #182, .T. ) ;
#56 = LINE ( 'NONE', #185, #111 ) ;
#57 = PRODUCT_DEFINITION ( 'UNKNOWN', '', #161, #104 ) ;
#58 = PLANE ( 'NONE',  #2 ) ;
#59 = DATE_TIME_ROLE ( 'classification_date' ) ;
#60 = COORDINATED_UNIVERSAL_TIME_OFFSET ( 1, 0, .AHEAD. ) ;
#61 = LOCAL_TIME ( 12, 12, 34.00000000000000000, #177 ) ;
#62 = CIRCLE ( 'NONE', #87, 5.000000000000000000 ) ;
#63 = ORIENTED_EDGE ( 'NONE', *, *, #39, .F. ) ;
#64 = UNCERTAINTY_MEASURE_WITH_UNIT (LENGTH_MEASURE( 1.000000000000000082E-05 ), #120, 'distance_accuracy_value', 'NONE');
#65 = PERSON_AND_ORGANIZATION_ROLE ( 'design_owner' ) ;
#66 = VERTEX_POINT ( 'NONE', #171 ) ;
#67 = COORDINATED_UNIVERSAL_TIME_OFFSET ( 1, 0, .AHEAD. ) ;
#68 = ORIENTED_EDGE ( 'NONE', *, *, #207, .T. ) ;
#69 = ADVANCED_BREP_SHAPE_REPRESENTATION ( '3D_M2060_20-10_174121015', ( #92, #34 ), #129 ) ;
#70 = VERTEX_POINT ( 'NONE', #37 ) ;
#71 = DIRECTION ( 'NONE',  ( -0.9635179096299406609, 0.000000000000000000, 0.2676438637860946712 ) ) ;
#72 = CARTESIAN_POINT ( 'NONE',  ( 18.00000000000000000, 0.000000000000000000, 0.000000000000000000 ) ) ;
#73 = CIRCLE ( 'NONE', #98, 10.00000000000000000 ) ;
#74 = APPROVAL ( #187, 'UNSPECIFIED' ) ;
#75 = DIRECTION ( 'NONE',  ( -1.000000000000000000, -0.000000000000000000, -0.000000000000000000 ) ) ;
#76 = DIRECTION ( 'NONE',  ( 0.000000000000000000, 0.000000000000000000, -1.000000000000000000 ) ) ;
#77 = DIRECTION ( 'NONE',  ( 1.000000000000000000, 0.000000000000000000, 0.000000000000000000 ) ) ;
#78 = VECTOR ( 'NONE', #209, 1000.000000000000114 ) ;
#79 = APPLICATION_PROTOCOL_DEFINITION ( 'international standard', 'config_control_design', 1994, #173 ) ;
#80 = EDGE_CURVE ( 'NONE', #70, #178, #112, .T. ) ;
#81 = APPROVAL_DATE_TIME ( #99, #121 ) ;
#82 = APPROVAL_DATE_TIME ( #8, #54 ) ;
#83 = VERTEX_POINT ( 'NONE', #1 ) ;
#84 = CC_DESIGN_DATE_AND_TIME_ASSIGNMENT ( #5, #59, ( #194 ) ) ;
#85 =( NAMED_UNIT ( * ) PLANE_ANGLE_UNIT ( ) SI_UNIT ( $, .RADIAN. ) );
#86 = AXIS2_PLACEMENT_3D ( 'NONE', #132, #115, #169 ) ;
#87 = AXIS2_PLACEMENT_3D ( 'NONE', #208, #110, #131 ) ;
#88 = PERSON_AND_ORGANIZATION ( #46, #184 ) ;
#89 = VERTEX_POINT ( 'NONE', #126 ) ;
#90 = ORIENTED_EDGE ( 'NONE', *, *, #147, .F. ) ;
#91 = DIRECTION ( 'NONE',  ( -0.9635179096299406609, 0.000000000000000000, 0.2676438637860946712 ) ) ;
#92 = MANIFOLD_SOLID_BREP ( 'Wandung2', #25 ) ;
#93 = CARTESIAN_POINT ( 'NONE',  ( 17.59853420432085613, 0.000000000000000000, 0.000000000000000000 ) ) ;
#94 = LINE ( 'NONE', #248, #78 ) ;
#95 = LINE ( 'NONE', #155, #217 ) ;
#96 = DIRECTION ( 'NONE',  ( 0.000000000000000000, 0.000000000000000000, -1.000000000000000000 ) ) ;
#97 = LOCAL_TIME ( 12, 12, 34.00000000000000000, #43 ) ;
#98 = AXIS2_PLACEMENT_3D ( 'NONE', #191, #186, #133 ) ;
#99 = DATE_AND_TIME ( #122, #61 ) ;
#100 = ADVANCED_FACE ( 'NONE', ( #150, #51 ), #229, .F. ) ;
#101 = APPROVAL_ROLE ( '' ) ;
#102 = CALENDAR_DATE ( 2024, 5, 9 ) ;
#103 = ORIENTED_EDGE ( 'NONE', *, *, #192, .F. ) ;
#104 = DESIGN_CONTEXT ( 'detailed design', #173, 'design' ) ;
#105 = ORIENTED_EDGE ( 'NONE', *, *, #213, .T. ) ;
#106 = CIRCLE ( 'NONE', #205, 3.443204858977550131 ) ;
#107 = ORIENTED_EDGE ( 'NONE', *, *, #125, .F. ) ;
#108 = ORIENTED_EDGE ( 'NONE', *, *, #170, .F. ) ;
#109 = ORIENTED_EDGE ( 'NONE', *, *, #125, .T. ) ;
#110 = DIRECTION ( 'NONE',  ( 1.000000000000000000, 0.000000000000000000, 0.000000000000000000 ) ) ;
#111 = VECTOR ( 'NONE', #91, 1000.000000000000114 ) ;
#112 = CIRCLE ( 'NONE', #3, 5.000000000000000000 ) ;
#113 = PRODUCT_RELATED_PRODUCT_CATEGORY ( 'detail', '', ( #158 ) ) ;
#114 = DIRECTION ( 'NONE',  ( 0.000000000000000000, 0.000000000000000000, 1.000000000000000000 ) ) ;
#115 = DIRECTION ( 'NONE',  ( -1.000000000000000000, -0.000000000000000000, -0.000000000000000000 ) ) ;
#116 = CARTESIAN_POINT ( 'NONE',  ( 0.000000000000000000, 0.000000000000000000, 0.000000000000000000 ) ) ;
#117 = CARTESIAN_POINT ( 'NONE',  ( 18.00000000000000000, 0.000000000000000000, 0.000000000000000000 ) ) ;
#118 = AXIS2_PLACEMENT_3D ( 'NONE', #180, #137, #214 ) ;
#119 = CONICAL_SURFACE ( 'NONE', #14, 3.554723135555089009, 0.2709468503384205862 ) ;
#120 =( LENGTH_UNIT ( ) NAMED_UNIT ( * ) SI_UNIT ( .MILLI., .METRE. ) );
#121 = APPROVAL ( #44, 'UNSPECIFIED' ) ;
#122 = CALENDAR_DATE ( 2024, 5, 9 ) ;
#123 = EDGE_LOOP ( 'NONE', ( #90, #163 ) ) ;
#124 = SECURITY_CLASSIFICATION_LEVEL ( 'unclassified' ) ;
#125 = EDGE_CURVE ( 'NONE', #178, #70, #62, .T. ) ;
#126 = CARTESIAN_POINT ( 'NONE',  ( 0.000000000000000000, -6.123233995736766282E-16, 10.00000000000000000 ) ) ;
#127 = CC_DESIGN_PERSON_AND_ORGANIZATION_ASSIGNMENT ( #176, #234, ( #161 ) ) ;
#128 = CARTESIAN_POINT ( 'NONE',  ( 17.59853420432085613, 0.000000000000000000, 0.000000000000000000 ) ) ;
#129 =( GEOMETRIC_REPRESENTATION_CONTEXT ( 3 ) GLOBAL_UNCERTAINTY_ASSIGNED_CONTEXT ( ( #64 ) ) GLOBAL_UNIT_ASSIGNED_CONTEXT ( ( #120, #85, #12 ) ) REPRESENTATION_CONTEXT ( 'NONE', 'WORKASPACE' ) );
#130 = AXIS2_PLACEMENT_3D ( 'NONE', #53, #230, #76 ) ;
#131 = DIRECTION ( 'NONE',  ( 0.000000000000000000, 0.000000000000000000, -1.000000000000000000 ) ) ;
#132 = CARTESIAN_POINT ( 'NONE',  ( 18.00000000000000000, 0.000000000000000000, 0.000000000000000000 ) ) ;
#133 = DIRECTION ( 'NONE',  ( 0.000000000000000000, 0.000000000000000000, -1.000000000000000000 ) ) ;
#134 = PRODUCT_DEFINITION_SHAPE ( 'NONE', 'NONE',  #57 ) ;
#135 = CC_DESIGN_PERSON_AND_ORGANIZATION_ASSIGNMENT ( #215, #65, ( #158 ) ) ;
#136 = PERSON_AND_ORGANIZATION ( #46, #184 ) ;
#137 = DIRECTION ( 'NONE',  ( 1.000000000000000000, 0.000000000000000000, 0.000000000000000000 ) ) ;
#138 = CIRCLE ( 'NONE', #24, 3.443204858977550131 ) ;
#139 = CIRCLE ( 'NONE', #239, 8.443204858977550131 ) ;
#140 = ORIENTED_EDGE ( 'NONE', *, *, #211, .T. ) ;
#141 = PERSON_AND_ORGANIZATION_ROLE ( 'creator' ) ;
#142 = EDGE_LOOP ( 'NONE', ( #144, #109 ) ) ;
#143 = CALENDAR_DATE ( 2024, 5, 9 ) ;
#144 = ORIENTED_EDGE ( 'NONE', *, *, #80, .T. ) ;
#145 = LOCAL_TIME ( 12, 12, 34.00000000000000000, #60 ) ;
#146 = FACE_OUTER_BOUND ( 'NONE', #198, .T. ) ;
#147 = EDGE_CURVE ( 'NONE', #83, #202, #106, .T. ) ;
#148 = FACE_BOUND ( 'NONE', #123, .T. ) ;
#149 = APPROVAL_DATE_TIME ( #244, #74 ) ;
#150 = FACE_BOUND ( 'NONE', #241, .T. ) ;
#151 = CONICAL_SURFACE ( 'NONE', #181, 3.554723135555089009, 0.2709468503384205862 ) ;
#152 = FACE_OUTER_BOUND ( 'NONE', #243, .T. ) ;
#153 = DIRECTION ( 'NONE',  ( -1.000000000000000000, -0.000000000000000000, -0.000000000000000000 ) ) ;
#154 = CC_DESIGN_APPROVAL ( #54, ( #161 ) ) ;
#155 = CARTESIAN_POINT ( 'NONE',  ( 18.00000000000000000, 6.123233995736766282E-16, -5.000000000000000000 ) ) ;
#156 = CC_DESIGN_PERSON_AND_ORGANIZATION_ASSIGNMENT ( #240, #141, ( #57 ) ) ;
#157 = DATE_AND_TIME ( #199, #97 ) ;
#158 = PRODUCT ( '3D_M2060_20-10_174121015', '3D_M2060_20-10_174121015', '', ( #179 ) ) ;
#159 = APPLICATION_CONTEXT ( 'configuration controlled 3d designs of mechanical parts and assemblies' ) ;
#160 = ORIENTED_EDGE ( 'NONE', *, *, #192, .T. ) ;
#161 = PRODUCT_DEFINITION_FORMATION_WITH_SPECIFIED_SOURCE ( 'ANY', '', #158, .NOT_KNOWN. ) ;
#162 = ORIENTED_EDGE ( 'NONE', *, *, #32, .F. ) ;
#163 = ORIENTED_EDGE ( 'NONE', *, *, #213, .F. ) ;
#164 = CC_DESIGN_APPROVAL ( #74, ( #194 ) ) ;
#165 = ADVANCED_FACE ( 'NONE', ( #55 ), #35, .T. ) ;
#166 = VERTEX_POINT ( 'NONE', #190 ) ;
#167 = CARTESIAN_POINT ( 'NONE',  ( 18.00000000000000000, 0.000000000000000000, 0.000000000000000000 ) ) ;
#168 = DIRECTION ( 'NONE',  ( 1.000000000000000000, 0.000000000000000000, 0.000000000000000000 ) ) ;
#169 = DIRECTION ( 'NONE',  ( 0.000000000000000000, 0.000000000000000000, 1.000000000000000000 ) ) ;
#170 = EDGE_CURVE ( 'NONE', #83, #166, #188, .T. ) ;
#171 = CARTESIAN_POINT ( 'NONE',  ( 0.000000000000000000, 1.033994380509223584E-15, -8.443204858977550131 ) ) ;
#172 = FACE_OUTER_BOUND ( 'NONE', #142, .T. ) ;
#173 = APPLICATION_CONTEXT ( 'configuration controlled 3d designs of mechanical parts and assemblies' ) ;
#174 = APPROVAL_PERSON_ORGANIZATION ( #216, #121, #101 ) ;
#175 = CIRCLE ( 'NONE', #212, 8.443204858977550131 ) ;
#176 = PERSON_AND_ORGANIZATION ( #46, #184 ) ;
#177 = COORDINATED_UNIVERSAL_TIME_OFFSET ( 1, 0, .AHEAD. ) ;
#178 = VERTEX_POINT ( 'NONE', #20 ) ;
#179 = MECHANICAL_CONTEXT ( 'NONE', #159, 'mechanical' ) ;
#180 = CARTESIAN_POINT ( 'NONE',  ( 0.000000000000000000, 0.000000000000000000, 0.000000000000000000 ) ) ;
#181 = AXIS2_PLACEMENT_3D ( 'NONE', #93, #153, #22 ) ;
#182 = EDGE_LOOP ( 'NONE', ( #107, #68, #11, #223 ) ) ;
#183 = ORIENTED_EDGE ( 'NONE', *, *, #39, .T. ) ;
#184 = ORGANIZATION ( 'UNSPECIFIED', 'UNSPECIFIED', '' ) ;
#185 = CARTESIAN_POINT ( 'NONE',  ( 18.00000000000000000, 0.000000000000000000, 5.000000000000000000 ) ) ;
#186 = DIRECTION ( 'NONE',  ( 1.000000000000000000, 0.000000000000000000, 0.000000000000000000 ) ) ;
#187 = APPROVAL_STATUS ( 'not_yet_approved' ) ;
#188 = LINE ( 'NONE', #231, #13 ) ;
#189 = CC_DESIGN_PERSON_AND_ORGANIZATION_ASSIGNMENT ( #237, #220, ( #161 ) ) ;
#190 = CARTESIAN_POINT ( 'NONE',  ( 0.000000000000000000, 0.000000000000000000, 8.443204858977550131 ) ) ;
#191 = CARTESIAN_POINT ( 'NONE',  ( 0.000000000000000000, 0.000000000000000000, 0.000000000000000000 ) ) ;
#192 = EDGE_CURVE ( 'NONE', #202, #66, #94, .T. ) ;
#193 = LOCAL_TIME ( 12, 12, 34.00000000000000000, #67 ) ;
#194 = SECURITY_CLASSIFICATION ( '', '', #124 ) ;
#195 = DIRECTION ( 'NONE',  ( 0.000000000000000000, 0.000000000000000000, 1.000000000000000000 ) ) ;
#196 = DIRECTION ( 'NONE',  ( 1.000000000000000000, 0.000000000000000000, 0.000000000000000000 ) ) ;
#197 = DATE_TIME_ROLE ( 'creation_date' ) ;
#198 = EDGE_LOOP ( 'NONE', ( #103, #105, #238, #16 ) ) ;
#199 = CALENDAR_DATE ( 2024, 5, 9 ) ;
#200 = ORIENTED_EDGE ( 'NONE', *, *, #49, .T. ) ;
#201 = PERSON_AND_ORGANIZATION_ROLE ( 'classification_officer' ) ;
#202 = VERTEX_POINT ( 'NONE', #38 ) ;
#203 = DIRECTION ( 'NONE',  ( 0.000000000000000000, 0.000000000000000000, 1.000000000000000000 ) ) ;
#204 = CC_DESIGN_APPROVAL ( #121, ( #57 ) ) ;
#205 = AXIS2_PLACEMENT_3D ( 'NONE', #206, #77, #249 ) ;
#206 = CARTESIAN_POINT ( 'NONE',  ( 18.00000000000000000, 0.000000000000000000, 0.000000000000000000 ) ) ;
#207 = EDGE_CURVE ( 'NONE', #178, #50, #95, .T. ) ;
#208 = CARTESIAN_POINT ( 'NONE',  ( 18.00000000000000000, 0.000000000000000000, 0.000000000000000000 ) ) ;
#209 = DIRECTION ( 'NONE',  ( -0.9635179096299406609, 3.277692010970709517E-17, -0.2676438637860946712 ) ) ;
#210 = DIRECTION ( 'NONE',  ( 1.000000000000000000, 0.000000000000000000, 0.000000000000000000 ) ) ;
#211 = EDGE_CURVE ( 'NONE', #70, #89, #56, .T. ) ;
#212 = AXIS2_PLACEMENT_3D ( 'NONE', #40, #23, #247 ) ;
#213 = EDGE_CURVE ( 'NONE', #202, #83, #138, .T. ) ;
#214 = DIRECTION ( 'NONE',  ( 0.000000000000000000, 0.000000000000000000, -1.000000000000000000 ) ) ;
#215 = PERSON_AND_ORGANIZATION ( #46, #184 ) ;
#216 = PERSON_AND_ORGANIZATION ( #46, #184 ) ;
#217 = VECTOR ( 'NONE', #33, 1000.000000000000114 ) ;
#218 = CC_DESIGN_PERSON_AND_ORGANIZATION_ASSIGNMENT ( #88, #201, ( #194 ) ) ;
#219 = EDGE_LOOP ( 'NONE', ( #31, #162 ) ) ;
#220 = PERSON_AND_ORGANIZATION_ROLE ( 'design_supplier' ) ;
#221 = PERSON_AND_ORGANIZATION ( #46, #184 ) ;
#222 = APPROVAL_ROLE ( '' ) ;
#223 = ORIENTED_EDGE ( 'NONE', *, *, #211, .F. ) ;
#224 = COORDINATED_UNIVERSAL_TIME_OFFSET ( 1, 0, .AHEAD. ) ;
#225 = DIRECTION ( 'NONE',  ( 0.000000000000000000, 0.000000000000000000, -1.000000000000000000 ) ) ;
#226 = ADVANCED_FACE ( 'NONE', ( #148, #172 ), #58, .T. ) ;
#227 = CIRCLE ( 'NONE', #118, 10.00000000000000000 ) ;
#228 = AXIS2_PLACEMENT_3D ( 'NONE', #117, #19, #203 ) ;
#229 = PLANE ( 'NONE',  #130 ) ;
#230 = DIRECTION ( 'NONE',  ( 1.000000000000000000, 0.000000000000000000, 0.000000000000000000 ) ) ;
#231 = CARTESIAN_POINT ( 'NONE',  ( 17.59853420432085613, 0.000000000000000000, 3.554723135555089009 ) ) ;
#232 = DIRECTION ( 'NONE',  ( 0.000000000000000000, 0.000000000000000000, -1.000000000000000000 ) ) ;
#233 = CC_DESIGN_SECURITY_CLASSIFICATION ( #194, ( #161 ) ) ;
#234 = PERSON_AND_ORGANIZATION_ROLE ( 'creator' ) ;
#235 = CARTESIAN_POINT ( 'NONE',  ( 18.00000000000000000, 0.000000000000000000, 0.000000000000000000 ) ) ;
#236 = CC_DESIGN_DATE_AND_TIME_ASSIGNMENT ( #157, #197, ( #57 ) ) ;
#237 = PERSON_AND_ORGANIZATION ( #46, #184 ) ;
#238 = ORIENTED_EDGE ( 'NONE', *, *, #170, .T. ) ;
#239 = AXIS2_PLACEMENT_3D ( 'NONE', #116, #168, #232 ) ;
#240 = PERSON_AND_ORGANIZATION ( #46, #184 ) ;
#241 = EDGE_LOOP ( 'NONE', ( #183, #200 ) ) ;
#242 = SHAPE_DEFINITION_REPRESENTATION ( #134, #69 ) ;
#243 = EDGE_LOOP ( 'NONE', ( #15, #28, #140, #30 ) ) ;
#244 = DATE_AND_TIME ( #18, #21 ) ;
#245 = CARTESIAN_POINT ( 'NONE',  ( 0.000000000000000000, 1.836970198721029589E-15, -10.00000000000000000 ) ) ;
#246 = EDGE_CURVE ( 'NONE', #89, #50, #227, .T. ) ;
#247 = DIRECTION ( 'NONE',  ( 0.000000000000000000, 0.000000000000000000, -1.000000000000000000 ) ) ;
#248 = CARTESIAN_POINT ( 'NONE',  ( 17.59853420432085613, 4.353280309812582872E-16, -3.554723135555089009 ) ) ;
#249 = DIRECTION ( 'NONE',  ( 0.000000000000000000, 0.000000000000000000, -1.000000000000000000 ) ) ;
ENDSEC;
END-ISO-10303-21;
