ISO-10303-21;
HEADER;
/* Generated by software containing ST-Developer
 * from STEP Tools, Inc. (www.steptools.com) 
 */

FILE_DESCRIPTION(
/* description */ ('TAPPO DI CHIUSURA DN54'),
/* implementation_level */ '2;1');

FILE_NAME(
/* name */ 
'R:\\Disegni3D_Area_Manager\\Steelpres.step\\383_003_STEELPRES\\383054
003_Steelpres.stp',
/* time_stamp */ '2022-10-21T16:15:23+02:00',
/* author */ ('Vault'),
/* organization */ ('Raccorderie metalliche s.p.a. '),
/* preprocessor_version */ 'ST-DEVELOPER v18.1',
/* originating_system */ 'Autodesk Inventor 2020',
/* authorisation */ 'Raccorderie metalliche s.p.a. ');

FILE_SCHEMA (('AUTOMOTIVE_DESIGN { 1 0 10303 214 3 1 1 }'));
ENDSEC;

DATA;
#10=MECHANICAL_DESIGN_GEOMETRIC_PRESENTATION_REPRESENTATION('',(#13),#492);
#11=SHAPE_REPRESENTATION_RELATIONSHIP('SRR','None',#499,#12);
#12=ADVANCED_BREP_SHAPE_REPRESENTATION('',(#14),#491);
#13=STYLED_ITEM('',(#508),#14);
#14=MANIFOLD_SOLID_BREP('Solido1',#249);
#15=FACE_BOUND('',#57,.T.);
#16=CONICAL_SURFACE('',#298,28.25,0.785398163397453);
#17=PLANE('',#293);
#18=PLANE('',#301);
#19=PLANE('',#303);
#20=LINE('',#441,#25);
#21=LINE('',#461,#26);
#22=LINE('',#467,#27);
#23=LINE('',#471,#28);
#24=LINE('',#486,#29);
#25=VECTOR('',#350,27.35);
#26=VECTOR('',#373,27.25);
#27=VECTOR('',#380,28.25);
#28=VECTOR('',#387,28.75);
#29=VECTOR('',#406,27.35);
#30=CYLINDRICAL_SURFACE('',#283,27.35);
#31=CYLINDRICAL_SURFACE('',#294,27.25);
#32=CYLINDRICAL_SURFACE('',#302,28.75);
#33=CYLINDRICAL_SURFACE('',#311,27.35);
#34=FACE_OUTER_BOUND('',#47,.T.);
#35=FACE_OUTER_BOUND('',#48,.T.);
#36=FACE_OUTER_BOUND('',#49,.T.);
#37=FACE_OUTER_BOUND('',#50,.T.);
#38=FACE_OUTER_BOUND('',#51,.T.);
#39=FACE_OUTER_BOUND('',#52,.T.);
#40=FACE_OUTER_BOUND('',#53,.T.);
#41=FACE_OUTER_BOUND('',#54,.T.);
#42=FACE_OUTER_BOUND('',#55,.T.);
#43=FACE_OUTER_BOUND('',#56,.T.);
#44=FACE_OUTER_BOUND('',#58,.T.);
#45=FACE_OUTER_BOUND('',#59,.T.);
#46=FACE_OUTER_BOUND('',#60,.T.);
#47=EDGE_LOOP('',(#157,#158,#159,#160,#161,#162,#163));
#48=EDGE_LOOP('',(#164,#165,#166,#167,#168,#169,#170));
#49=EDGE_LOOP('',(#171,#172,#173,#174,#175,#176));
#50=EDGE_LOOP('',(#177,#178,#179,#180,#181,#182,#183));
#51=EDGE_LOOP('',(#184,#185));
#52=EDGE_LOOP('',(#186,#187,#188,#189,#190,#191,#192,#193));
#53=EDGE_LOOP('',(#194,#195,#196,#197));
#54=EDGE_LOOP('',(#198));
#55=EDGE_LOOP('',(#199,#200,#201,#202,#203,#204));
#56=EDGE_LOOP('',(#205,#206));
#57=EDGE_LOOP('',(#207,#208));
#58=EDGE_LOOP('',(#209,#210,#211,#212,#213,#214,#215));
#59=EDGE_LOOP('',(#216,#217,#218,#219,#220,#221,#222,#223));
#60=EDGE_LOOP('',(#224,#225,#226,#227,#228,#229,#230));
#61=CIRCLE('',#270,28.75);
#62=CIRCLE('',#271,28.75);
#63=CIRCLE('',#272,4.68133444501877);
#64=CIRCLE('',#273,28.1113227286533);
#65=CIRCLE('',#274,28.1113227286533);
#66=CIRCLE('',#275,28.75);
#67=CIRCLE('',#277,27.35);
#68=CIRCLE('',#278,27.35);
#69=CIRCLE('',#279,27.35);
#70=CIRCLE('',#280,3.);
#71=CIRCLE('',#281,27.35);
#72=CIRCLE('',#282,27.35);
#73=CIRCLE('',#284,27.35);
#74=CIRCLE('',#285,27.35);
#75=CIRCLE('',#287,27.25);
#76=CIRCLE('',#288,0.8);
#77=CIRCLE('',#289,26.45);
#78=CIRCLE('',#290,26.45);
#79=CIRCLE('',#291,27.25);
#80=CIRCLE('',#292,27.25);
#81=CIRCLE('',#295,27.25);
#82=CIRCLE('',#296,27.25);
#83=CIRCLE('',#297,27.25);
#84=CIRCLE('',#299,27.75);
#85=CIRCLE('',#300,28.75);
#86=CIRCLE('',#304,27.95);
#87=CIRCLE('',#305,27.95);
#88=CIRCLE('',#307,27.35);
#89=CIRCLE('',#308,27.35);
#90=CIRCLE('',#309,27.35);
#91=CIRCLE('',#310,0.600000000000003);
#92=CIRCLE('',#313,2.);
#93=VERTEX_POINT('',#413);
#94=VERTEX_POINT('',#414);
#95=VERTEX_POINT('',#416);
#96=VERTEX_POINT('',#418);
#97=VERTEX_POINT('',#420);
#98=VERTEX_POINT('',#425);
#99=VERTEX_POINT('',#426);
#100=VERTEX_POINT('',#428);
#101=VERTEX_POINT('',#431);
#102=VERTEX_POINT('',#433);
#103=VERTEX_POINT('',#437);
#104=VERTEX_POINT('',#438);
#105=VERTEX_POINT('',#443);
#106=VERTEX_POINT('',#444);
#107=VERTEX_POINT('',#446);
#108=VERTEX_POINT('',#448);
#109=VERTEX_POINT('',#451);
#110=VERTEX_POINT('',#456);
#111=VERTEX_POINT('',#457);
#112=VERTEX_POINT('',#459);
#113=VERTEX_POINT('',#464);
#114=VERTEX_POINT('',#466);
#115=VERTEX_POINT('',#473);
#116=VERTEX_POINT('',#474);
#117=VERTEX_POINT('',#478);
#118=VERTEX_POINT('',#479);
#119=VERTEX_POINT('',#481);
#120=EDGE_CURVE('',#93,#94,#61,.T.);
#121=EDGE_CURVE('',#94,#95,#62,.T.);
#122=EDGE_CURVE('',#95,#96,#63,.T.);
#123=EDGE_CURVE('',#97,#96,#64,.T.);
#124=EDGE_CURVE('',#96,#97,#65,.T.);
#125=EDGE_CURVE('',#95,#93,#66,.T.);
#126=EDGE_CURVE('',#98,#99,#67,.T.);
#127=EDGE_CURVE('',#100,#98,#68,.T.);
#128=EDGE_CURVE('',#99,#100,#69,.T.);
#129=EDGE_CURVE('',#99,#101,#70,.T.);
#130=EDGE_CURVE('',#101,#102,#71,.T.);
#131=EDGE_CURVE('',#102,#101,#72,.T.);
#132=EDGE_CURVE('',#103,#104,#73,.T.);
#133=EDGE_CURVE('',#104,#103,#74,.T.);
#134=EDGE_CURVE('',#104,#101,#20,.T.);
#135=EDGE_CURVE('',#105,#106,#75,.T.);
#136=EDGE_CURVE('',#106,#107,#76,.T.);
#137=EDGE_CURVE('',#107,#108,#77,.T.);
#138=EDGE_CURVE('',#108,#107,#78,.T.);
#139=EDGE_CURVE('',#106,#109,#79,.T.);
#140=EDGE_CURVE('',#109,#105,#80,.T.);
#141=EDGE_CURVE('',#110,#111,#81,.T.);
#142=EDGE_CURVE('',#111,#112,#82,.T.);
#143=EDGE_CURVE('',#112,#109,#21,.T.);
#144=EDGE_CURVE('',#112,#110,#83,.T.);
#145=EDGE_CURVE('',#113,#113,#84,.T.);
#146=EDGE_CURVE('',#113,#114,#22,.T.);
#147=EDGE_CURVE('',#114,#114,#85,.T.);
#148=EDGE_CURVE('',#94,#114,#23,.T.);
#149=EDGE_CURVE('',#115,#116,#86,.T.);
#150=EDGE_CURVE('',#116,#115,#87,.T.);
#151=EDGE_CURVE('',#117,#118,#88,.T.);
#152=EDGE_CURVE('',#119,#117,#89,.T.);
#153=EDGE_CURVE('',#118,#119,#90,.T.);
#154=EDGE_CURVE('',#118,#116,#91,.T.);
#155=EDGE_CURVE('',#119,#100,#24,.T.);
#156=EDGE_CURVE('',#111,#103,#92,.T.);
#157=ORIENTED_EDGE('',*,*,#120,.T.);
#158=ORIENTED_EDGE('',*,*,#121,.T.);
#159=ORIENTED_EDGE('',*,*,#122,.T.);
#160=ORIENTED_EDGE('',*,*,#123,.F.);
#161=ORIENTED_EDGE('',*,*,#124,.F.);
#162=ORIENTED_EDGE('',*,*,#122,.F.);
#163=ORIENTED_EDGE('',*,*,#125,.T.);
#164=ORIENTED_EDGE('',*,*,#126,.F.);
#165=ORIENTED_EDGE('',*,*,#127,.F.);
#166=ORIENTED_EDGE('',*,*,#128,.F.);
#167=ORIENTED_EDGE('',*,*,#129,.T.);
#168=ORIENTED_EDGE('',*,*,#130,.T.);
#169=ORIENTED_EDGE('',*,*,#131,.T.);
#170=ORIENTED_EDGE('',*,*,#129,.F.);
#171=ORIENTED_EDGE('',*,*,#132,.F.);
#172=ORIENTED_EDGE('',*,*,#133,.F.);
#173=ORIENTED_EDGE('',*,*,#134,.T.);
#174=ORIENTED_EDGE('',*,*,#131,.F.);
#175=ORIENTED_EDGE('',*,*,#130,.F.);
#176=ORIENTED_EDGE('',*,*,#134,.F.);
#177=ORIENTED_EDGE('',*,*,#135,.T.);
#178=ORIENTED_EDGE('',*,*,#136,.T.);
#179=ORIENTED_EDGE('',*,*,#137,.T.);
#180=ORIENTED_EDGE('',*,*,#138,.T.);
#181=ORIENTED_EDGE('',*,*,#136,.F.);
#182=ORIENTED_EDGE('',*,*,#139,.T.);
#183=ORIENTED_EDGE('',*,*,#140,.T.);
#184=ORIENTED_EDGE('',*,*,#138,.F.);
#185=ORIENTED_EDGE('',*,*,#137,.F.);
#186=ORIENTED_EDGE('',*,*,#141,.T.);
#187=ORIENTED_EDGE('',*,*,#142,.T.);
#188=ORIENTED_EDGE('',*,*,#143,.T.);
#189=ORIENTED_EDGE('',*,*,#139,.F.);
#190=ORIENTED_EDGE('',*,*,#135,.F.);
#191=ORIENTED_EDGE('',*,*,#140,.F.);
#192=ORIENTED_EDGE('',*,*,#143,.F.);
#193=ORIENTED_EDGE('',*,*,#144,.T.);
#194=ORIENTED_EDGE('',*,*,#145,.T.);
#195=ORIENTED_EDGE('',*,*,#146,.T.);
#196=ORIENTED_EDGE('',*,*,#147,.T.);
#197=ORIENTED_EDGE('',*,*,#146,.F.);
#198=ORIENTED_EDGE('',*,*,#145,.F.);
#199=ORIENTED_EDGE('',*,*,#120,.F.);
#200=ORIENTED_EDGE('',*,*,#125,.F.);
#201=ORIENTED_EDGE('',*,*,#121,.F.);
#202=ORIENTED_EDGE('',*,*,#148,.T.);
#203=ORIENTED_EDGE('',*,*,#147,.F.);
#204=ORIENTED_EDGE('',*,*,#148,.F.);
#205=ORIENTED_EDGE('',*,*,#123,.T.);
#206=ORIENTED_EDGE('',*,*,#124,.T.);
#207=ORIENTED_EDGE('',*,*,#149,.F.);
#208=ORIENTED_EDGE('',*,*,#150,.F.);
#209=ORIENTED_EDGE('',*,*,#151,.F.);
#210=ORIENTED_EDGE('',*,*,#152,.F.);
#211=ORIENTED_EDGE('',*,*,#153,.F.);
#212=ORIENTED_EDGE('',*,*,#154,.T.);
#213=ORIENTED_EDGE('',*,*,#150,.T.);
#214=ORIENTED_EDGE('',*,*,#149,.T.);
#215=ORIENTED_EDGE('',*,*,#154,.F.);
#216=ORIENTED_EDGE('',*,*,#151,.T.);
#217=ORIENTED_EDGE('',*,*,#153,.T.);
#218=ORIENTED_EDGE('',*,*,#155,.T.);
#219=ORIENTED_EDGE('',*,*,#127,.T.);
#220=ORIENTED_EDGE('',*,*,#126,.T.);
#221=ORIENTED_EDGE('',*,*,#128,.T.);
#222=ORIENTED_EDGE('',*,*,#155,.F.);
#223=ORIENTED_EDGE('',*,*,#152,.T.);
#224=ORIENTED_EDGE('',*,*,#141,.F.);
#225=ORIENTED_EDGE('',*,*,#144,.F.);
#226=ORIENTED_EDGE('',*,*,#142,.F.);
#227=ORIENTED_EDGE('',*,*,#156,.T.);
#228=ORIENTED_EDGE('',*,*,#132,.T.);
#229=ORIENTED_EDGE('',*,*,#133,.T.);
#230=ORIENTED_EDGE('',*,*,#156,.F.);
#231=TOROIDAL_SURFACE('',#269,27.8186679714923,4.68133444501877);
#232=TOROIDAL_SURFACE('',#276,30.,3.);
#233=TOROIDAL_SURFACE('',#286,26.45,0.8);
#234=TOROIDAL_SURFACE('',#306,27.95,0.600000000000003);
#235=TOROIDAL_SURFACE('',#312,29.25,2.);
#236=ADVANCED_FACE('',(#34),#231,.T.);
#237=ADVANCED_FACE('',(#35),#232,.T.);
#238=ADVANCED_FACE('',(#36),#30,.F.);
#239=ADVANCED_FACE('',(#37),#233,.F.);
#240=ADVANCED_FACE('',(#38),#17,.T.);
#241=ADVANCED_FACE('',(#39),#31,.F.);
#242=ADVANCED_FACE('',(#40),#16,.T.);
#243=ADVANCED_FACE('',(#41),#18,.T.);
#244=ADVANCED_FACE('',(#42),#32,.T.);
#245=ADVANCED_FACE('',(#43,#15),#19,.T.);
#246=ADVANCED_FACE('',(#44),#234,.T.);
#247=ADVANCED_FACE('',(#45),#33,.F.);
#248=ADVANCED_FACE('',(#46),#235,.T.);
#249=CLOSED_SHELL('',(#236,#237,#238,#239,#240,#241,#242,#243,#244,#245,
#246,#247,#248));
#250=DERIVED_UNIT_ELEMENT(#252,1.);
#251=DERIVED_UNIT_ELEMENT(#494,3.);
#252=(
MASS_UNIT()
NAMED_UNIT(*)
SI_UNIT($,.GRAM.)
);
#253=DERIVED_UNIT((#250,#251));
#254=MEASURE_REPRESENTATION_ITEM('density measure',
POSITIVE_RATIO_MEASURE(1.),#253);
#255=PROPERTY_DEFINITION_REPRESENTATION(#260,#257);
#256=PROPERTY_DEFINITION_REPRESENTATION(#261,#258);
#257=REPRESENTATION('material name',(#259),#491);
#258=REPRESENTATION('density',(#254),#491);
#259=DESCRIPTIVE_REPRESENTATION_ITEM('Generico','Generico');
#260=PROPERTY_DEFINITION('material property','material name',#501);
#261=PROPERTY_DEFINITION('material property','density of part',#501);
#262=DATE_TIME_ROLE('creation_date');
#263=APPLIED_DATE_AND_TIME_ASSIGNMENT(#264,#262,(#501));
#264=DATE_AND_TIME(#265,#266);
#265=CALENDAR_DATE(2016,12,1);
#266=LOCAL_TIME(15,11,13.,#267);
#267=COORDINATED_UNIVERSAL_TIME_OFFSET(0,0,.BEHIND.);
#268=AXIS2_PLACEMENT_3D('placement',#411,#314,#315);
#269=AXIS2_PLACEMENT_3D('',#412,#316,#317);
#270=AXIS2_PLACEMENT_3D('',#415,#318,#319);
#271=AXIS2_PLACEMENT_3D('',#417,#320,#321);
#272=AXIS2_PLACEMENT_3D('',#419,#322,#323);
#273=AXIS2_PLACEMENT_3D('',#421,#324,#325);
#274=AXIS2_PLACEMENT_3D('',#422,#326,#327);
#275=AXIS2_PLACEMENT_3D('',#423,#328,#329);
#276=AXIS2_PLACEMENT_3D('',#424,#330,#331);
#277=AXIS2_PLACEMENT_3D('',#427,#332,#333);
#278=AXIS2_PLACEMENT_3D('',#429,#334,#335);
#279=AXIS2_PLACEMENT_3D('',#430,#336,#337);
#280=AXIS2_PLACEMENT_3D('',#432,#338,#339);
#281=AXIS2_PLACEMENT_3D('',#434,#340,#341);
#282=AXIS2_PLACEMENT_3D('',#435,#342,#343);
#283=AXIS2_PLACEMENT_3D('',#436,#344,#345);
#284=AXIS2_PLACEMENT_3D('',#439,#346,#347);
#285=AXIS2_PLACEMENT_3D('',#440,#348,#349);
#286=AXIS2_PLACEMENT_3D('',#442,#351,#352);
#287=AXIS2_PLACEMENT_3D('',#445,#353,#354);
#288=AXIS2_PLACEMENT_3D('',#447,#355,#356);
#289=AXIS2_PLACEMENT_3D('',#449,#357,#358);
#290=AXIS2_PLACEMENT_3D('',#450,#359,#360);
#291=AXIS2_PLACEMENT_3D('',#452,#361,#362);
#292=AXIS2_PLACEMENT_3D('',#453,#363,#364);
#293=AXIS2_PLACEMENT_3D('',#454,#365,#366);
#294=AXIS2_PLACEMENT_3D('',#455,#367,#368);
#295=AXIS2_PLACEMENT_3D('',#458,#369,#370);
#296=AXIS2_PLACEMENT_3D('',#460,#371,#372);
#297=AXIS2_PLACEMENT_3D('',#462,#374,#375);
#298=AXIS2_PLACEMENT_3D('',#463,#376,#377);
#299=AXIS2_PLACEMENT_3D('',#465,#378,#379);
#300=AXIS2_PLACEMENT_3D('',#468,#381,#382);
#301=AXIS2_PLACEMENT_3D('',#469,#383,#384);
#302=AXIS2_PLACEMENT_3D('',#470,#385,#386);
#303=AXIS2_PLACEMENT_3D('',#472,#388,#389);
#304=AXIS2_PLACEMENT_3D('',#475,#390,#391);
#305=AXIS2_PLACEMENT_3D('',#476,#392,#393);
#306=AXIS2_PLACEMENT_3D('',#477,#394,#395);
#307=AXIS2_PLACEMENT_3D('',#480,#396,#397);
#308=AXIS2_PLACEMENT_3D('',#482,#398,#399);
#309=AXIS2_PLACEMENT_3D('',#483,#400,#401);
#310=AXIS2_PLACEMENT_3D('',#484,#402,#403);
#311=AXIS2_PLACEMENT_3D('',#485,#404,#405);
#312=AXIS2_PLACEMENT_3D('',#487,#407,#408);
#313=AXIS2_PLACEMENT_3D('',#488,#409,#410);
#314=DIRECTION('axis',(0.,0.,1.));
#315=DIRECTION('refdir',(1.,0.,0.));
#316=DIRECTION('center_axis',(-1.,0.,0.));
#317=DIRECTION('ref_axis',(0.,0.,1.));
#318=DIRECTION('center_axis',(1.,0.,0.));
#319=DIRECTION('ref_axis',(1.71994917110936E-17,1.,0.));
#320=DIRECTION('center_axis',(1.,0.,0.));
#321=DIRECTION('ref_axis',(1.71994917110936E-17,1.,0.));
#322=DIRECTION('center_axis',(0.,-1.,1.22464679914735E-16));
#323=DIRECTION('ref_axis',(0.,-1.22464679914735E-16,-1.));
#324=DIRECTION('center_axis',(1.,0.,0.));
#325=DIRECTION('ref_axis',(1.71994917110936E-17,1.,0.));
#326=DIRECTION('center_axis',(1.,0.,0.));
#327=DIRECTION('ref_axis',(1.71994917110936E-17,1.,0.));
#328=DIRECTION('center_axis',(1.,0.,0.));
#329=DIRECTION('ref_axis',(1.71994917110936E-17,1.,0.));
#330=DIRECTION('center_axis',(-1.,0.,0.));
#331=DIRECTION('ref_axis',(0.,0.,1.));
#332=DIRECTION('center_axis',(-1.,0.,0.));
#333=DIRECTION('ref_axis',(0.,0.,1.));
#334=DIRECTION('center_axis',(-1.,0.,0.));
#335=DIRECTION('ref_axis',(0.,0.,1.));
#336=DIRECTION('center_axis',(-1.,0.,0.));
#337=DIRECTION('ref_axis',(0.,0.,1.));
#338=DIRECTION('center_axis',(0.,-1.,1.22464679914735E-16));
#339=DIRECTION('ref_axis',(0.,-1.22464679914735E-16,-1.));
#340=DIRECTION('center_axis',(-1.,0.,0.));
#341=DIRECTION('ref_axis',(0.,0.,1.));
#342=DIRECTION('center_axis',(-1.,0.,0.));
#343=DIRECTION('ref_axis',(0.,0.,1.));
#344=DIRECTION('center_axis',(-1.,0.,0.));
#345=DIRECTION('ref_axis',(0.,0.,1.));
#346=DIRECTION('center_axis',(1.,0.,0.));
#347=DIRECTION('ref_axis',(0.,0.,1.));
#348=DIRECTION('center_axis',(1.,0.,0.));
#349=DIRECTION('ref_axis',(0.,0.,1.));
#350=DIRECTION('',(1.,0.,0.));
#351=DIRECTION('center_axis',(1.,0.,0.));
#352=DIRECTION('ref_axis',(0.,0.,-1.));
#353=DIRECTION('center_axis',(1.,0.,0.));
#354=DIRECTION('ref_axis',(0.,-1.,1.22464679914735E-16));
#355=DIRECTION('center_axis',(0.,-1.,-1.22464679914735E-16));
#356=DIRECTION('ref_axis',(0.,-1.22464679914735E-16,1.));
#357=DIRECTION('center_axis',(-1.,0.,0.));
#358=DIRECTION('ref_axis',(0.,-1.,1.22464679914735E-16));
#359=DIRECTION('center_axis',(-1.,0.,0.));
#360=DIRECTION('ref_axis',(0.,-1.,1.22464679914735E-16));
#361=DIRECTION('center_axis',(1.,0.,0.));
#362=DIRECTION('ref_axis',(0.,-1.,1.22464679914735E-16));
#363=DIRECTION('center_axis',(1.,0.,0.));
#364=DIRECTION('ref_axis',(0.,-1.,1.22464679914735E-16));
#365=DIRECTION('center_axis',(1.,0.,0.));
#366=DIRECTION('ref_axis',(0.,0.,-1.));
#367=DIRECTION('center_axis',(1.,0.,0.));
#368=DIRECTION('ref_axis',(1.71994917110936E-17,1.,0.));
#369=DIRECTION('center_axis',(1.,0.,0.));
#370=DIRECTION('ref_axis',(1.71994917110936E-17,1.,0.));
#371=DIRECTION('center_axis',(1.,0.,0.));
#372=DIRECTION('ref_axis',(1.71994917110936E-17,1.,0.));
#373=DIRECTION('',(-1.,0.,0.));
#374=DIRECTION('center_axis',(1.,0.,0.));
#375=DIRECTION('ref_axis',(1.71994917110936E-17,1.,0.));
#376=DIRECTION('center_axis',(1.,0.,0.));
#377=DIRECTION('ref_axis',(8.75195374679544E-18,1.,0.));
#378=DIRECTION('center_axis',(1.,0.,0.));
#379=DIRECTION('ref_axis',(0.,1.,0.));
#380=DIRECTION('',(0.707106781186544,-0.707106781186551,8.65956056235497E-17));
#381=DIRECTION('center_axis',(-1.,0.,0.));
#382=DIRECTION('ref_axis',(1.71994917110936E-17,1.,0.));
#383=DIRECTION('center_axis',(-1.,0.,0.));
#384=DIRECTION('ref_axis',(0.,0.,1.));
#385=DIRECTION('center_axis',(1.,0.,0.));
#386=DIRECTION('ref_axis',(1.71994917110936E-17,1.,0.));
#387=DIRECTION('',(-1.,0.,0.));
#388=DIRECTION('center_axis',(1.,0.,0.));
#389=DIRECTION('ref_axis',(0.,0.,-1.));
#390=DIRECTION('center_axis',(1.,0.,0.));
#391=DIRECTION('ref_axis',(1.71994917110936E-17,1.,0.));
#392=DIRECTION('center_axis',(1.,0.,0.));
#393=DIRECTION('ref_axis',(1.71994917110936E-17,1.,0.));
#394=DIRECTION('center_axis',(1.,0.,0.));
#395=DIRECTION('ref_axis',(0.,0.,-1.));
#396=DIRECTION('center_axis',(1.,0.,0.));
#397=DIRECTION('ref_axis',(1.71994917110936E-17,1.,0.));
#398=DIRECTION('center_axis',(1.,0.,0.));
#399=DIRECTION('ref_axis',(1.71994917110936E-17,1.,0.));
#400=DIRECTION('center_axis',(1.,0.,0.));
#401=DIRECTION('ref_axis',(1.71994917110936E-17,1.,0.));
#402=DIRECTION('center_axis',(0.,-1.,-1.22464679914735E-16));
#403=DIRECTION('ref_axis',(0.,-1.22464679914735E-16,1.));
#404=DIRECTION('center_axis',(1.,0.,0.));
#405=DIRECTION('ref_axis',(1.71994917110936E-17,1.,0.));
#406=DIRECTION('',(-1.,0.,0.));
#407=DIRECTION('center_axis',(1.,0.,0.));
#408=DIRECTION('ref_axis',(0.,0.,-1.));
#409=DIRECTION('center_axis',(0.,-1.,-1.22464679914735E-16));
#410=DIRECTION('ref_axis',(0.,-1.22464679914735E-16,1.));
#411=CARTESIAN_POINT('',(0.,0.,0.));
#412=CARTESIAN_POINT('Origin',(-4.67217779833244,0.,0.));
#413=CARTESIAN_POINT('',(-9.25993464005751,28.75,0.));
#414=CARTESIAN_POINT('',(-9.25993464005751,-28.75,-3.52085954754864E-15));
#415=CARTESIAN_POINT('Origin',(-9.25993464005751,0.,0.));
#416=CARTESIAN_POINT('',(-9.25993464005751,-3.52085954754864E-15,-28.75));
#417=CARTESIAN_POINT('Origin',(-9.25993464005751,0.,0.));
#418=CARTESIAN_POINT('',(0.,-3.44264413994436E-15,-28.1113227286533));
#419=CARTESIAN_POINT('Origin',(-4.67217779833244,-3.4068042687831E-15,-27.8186679714923));
#420=CARTESIAN_POINT('',(8.0682646745058E-19,28.1113227286533,0.));
#421=CARTESIAN_POINT('Origin',(8.13151629364128E-19,0.,0.));
#422=CARTESIAN_POINT('Origin',(8.13151629364128E-19,0.,0.));
#423=CARTESIAN_POINT('Origin',(-9.25993464005751,0.,0.));
#424=CARTESIAN_POINT('Origin',(-4.67217779833241,0.,0.));
#425=CARTESIAN_POINT('',(-3.26594168728988,0.,27.35));
#426=CARTESIAN_POINT('',(-3.26594168728988,-3.34940899566801E-15,-27.35));
#427=CARTESIAN_POINT('Origin',(-3.26594168728988,0.,0.));
#428=CARTESIAN_POINT('',(-3.26594168728988,-27.35,-3.34940899566801E-15));
#429=CARTESIAN_POINT('Origin',(-3.26594168728988,0.,0.));
#430=CARTESIAN_POINT('Origin',(-3.26594168728988,0.,0.));
#431=CARTESIAN_POINT('',(-6.07841390937494,-3.34940899566801E-15,-27.35));
#432=CARTESIAN_POINT('Origin',(-4.67217779833241,-3.67394039744206E-15,
-30.));
#433=CARTESIAN_POINT('',(-6.07841390937494,0.,27.35));
#434=CARTESIAN_POINT('Origin',(-6.07841390937494,0.,0.));
#435=CARTESIAN_POINT('Origin',(-6.07841390937494,0.,0.));
#436=CARTESIAN_POINT('Origin',(-7.3857918882558,0.,0.));
#437=CARTESIAN_POINT('',(-8.69316986713666,0.,27.35));
#438=CARTESIAN_POINT('',(-8.69316986713666,-3.34940899566801E-15,-27.35));
#439=CARTESIAN_POINT('Origin',(-8.69316986713666,0.,0.));
#440=CARTESIAN_POINT('Origin',(-8.69316986713666,0.,0.));
#441=CARTESIAN_POINT('',(-7.3857918882558,-3.34940899566801E-15,-27.35));
#442=CARTESIAN_POINT('Origin',(-35.2,0.,0.));
#443=CARTESIAN_POINT('',(-35.2,27.25,0.));
#444=CARTESIAN_POINT('',(-35.2,-3.33716252767654E-15,27.25));
#445=CARTESIAN_POINT('Origin',(-35.2,0.,0.));
#446=CARTESIAN_POINT('',(-36.,-3.23919078374475E-15,26.45));
#447=CARTESIAN_POINT('Origin',(-35.2,-3.23919078374475E-15,26.45));
#448=CARTESIAN_POINT('',(-36.,26.45,-6.4783815674895E-15));
#449=CARTESIAN_POINT('Origin',(-36.,0.,0.));
#450=CARTESIAN_POINT('Origin',(-36.,0.,0.));
#451=CARTESIAN_POINT('',(-35.2,-27.25,-3.33716252767654E-15));
#452=CARTESIAN_POINT('Origin',(-35.2,0.,0.));
#453=CARTESIAN_POINT('Origin',(-35.2,0.,0.));
#454=CARTESIAN_POINT('Origin',(-36.,0.,28.75));
#455=CARTESIAN_POINT('Origin',(-22.6588348334882,0.,0.));
#456=CARTESIAN_POINT('',(-9.31766966697648,27.25,0.));
#457=CARTESIAN_POINT('',(-9.31766966697648,-3.33716252767654E-15,27.25));
#458=CARTESIAN_POINT('Origin',(-9.31766966697648,0.,0.));
#459=CARTESIAN_POINT('',(-9.31766966697648,-27.25,-3.33716252767654E-15));
#460=CARTESIAN_POINT('Origin',(-9.31766966697648,0.,0.));
#461=CARTESIAN_POINT('',(-22.6588348334882,-27.25,-3.33716252767654E-15));
#462=CARTESIAN_POINT('Origin',(-9.31766966697648,0.,0.));
#463=CARTESIAN_POINT('Origin',(-40.5,0.,0.));
#464=CARTESIAN_POINT('',(-41.,-27.75,-3.39839486763391E-15));
#465=CARTESIAN_POINT('Origin',(-41.,0.,0.));
#466=CARTESIAN_POINT('',(-40.,-28.75,3.52085954754864E-15));
#467=CARTESIAN_POINT('',(-40.5,-28.25,3.45962720759128E-15));
#468=CARTESIAN_POINT('Origin',(-40.,0.,0.));
#469=CARTESIAN_POINT('Origin',(-41.,0.,0.));
#470=CARTESIAN_POINT('Origin',(-22.6299673200288,0.,0.));
#471=CARTESIAN_POINT('',(-22.6299673200288,-28.75,-3.52085954754864E-15));
#472=CARTESIAN_POINT('Origin',(-2.06428059508903E-14,28.0306613643267,0.));
#473=CARTESIAN_POINT('',(-4.1286418728248E-14,27.95,0.));
#474=CARTESIAN_POINT('',(-4.1286418728248E-14,-3.42288780361686E-15,27.95));
#475=CARTESIAN_POINT('Origin',(-4.1286418728248E-14,0.,0.));
#476=CARTESIAN_POINT('Origin',(-4.1286418728248E-14,0.,0.));
#477=CARTESIAN_POINT('Origin',(-0.600000000000045,0.,0.));
#478=CARTESIAN_POINT('',(-0.600000000000041,27.35,0.));
#479=CARTESIAN_POINT('',(-0.600000000000041,-3.34940899566801E-15,27.35));
#480=CARTESIAN_POINT('Origin',(-0.600000000000041,0.,0.));
#481=CARTESIAN_POINT('',(-0.600000000000041,-27.35,-3.34940899566801E-15));
#482=CARTESIAN_POINT('Origin',(-0.600000000000041,0.,0.));
#483=CARTESIAN_POINT('Origin',(-0.600000000000041,0.,0.));
#484=CARTESIAN_POINT('Origin',(-0.600000000000045,-3.42288780361685E-15,
27.95));
#485=CARTESIAN_POINT('Origin',(-0.744177868403998,0.,0.));
#486=CARTESIAN_POINT('',(-0.744177868403998,-27.35,-3.34940899566801E-15));
#487=CARTESIAN_POINT('Origin',(-9.31766966697648,0.,0.));
#488=CARTESIAN_POINT('Origin',(-9.31766966697648,-3.58209188750601E-15,
29.25));
#489=UNCERTAINTY_MEASURE_WITH_UNIT(LENGTH_MEASURE(0.01),#493,
'DISTANCE_ACCURACY_VALUE',
'Maximum model space distance between geometric entities at asserted c
onnectivities');
#490=UNCERTAINTY_MEASURE_WITH_UNIT(LENGTH_MEASURE(0.01),#493,
'DISTANCE_ACCURACY_VALUE',
'Maximum model space distance between geometric entities at asserted c
onnectivities');
#491=(
GEOMETRIC_REPRESENTATION_CONTEXT(3)
GLOBAL_UNCERTAINTY_ASSIGNED_CONTEXT((#489))
GLOBAL_UNIT_ASSIGNED_CONTEXT((#493,#495,#496))
REPRESENTATION_CONTEXT('','3D')
);
#492=(
GEOMETRIC_REPRESENTATION_CONTEXT(3)
GLOBAL_UNCERTAINTY_ASSIGNED_CONTEXT((#490))
GLOBAL_UNIT_ASSIGNED_CONTEXT((#493,#495,#496))
REPRESENTATION_CONTEXT('','3D')
);
#493=(
LENGTH_UNIT()
NAMED_UNIT(*)
SI_UNIT(.MILLI.,.METRE.)
);
#494=(
LENGTH_UNIT()
NAMED_UNIT(*)
SI_UNIT(.CENTI.,.METRE.)
);
#495=(
NAMED_UNIT(*)
PLANE_ANGLE_UNIT()
SI_UNIT($,.RADIAN.)
);
#496=(
NAMED_UNIT(*)
SI_UNIT($,.STERADIAN.)
SOLID_ANGLE_UNIT()
);
#497=SHAPE_DEFINITION_REPRESENTATION(#498,#499);
#498=PRODUCT_DEFINITION_SHAPE('',$,#501);
#499=SHAPE_REPRESENTATION('',(#268),#491);
#500=PRODUCT_DEFINITION_CONTEXT('part definition',#505,'design');
#501=PRODUCT_DEFINITION('383054003_Steelpres','383054003_Steelpres',#502,
#500);
#502=PRODUCT_DEFINITION_FORMATION('0',$,#507);
#503=PRODUCT_RELATED_PRODUCT_CATEGORY('383054003_Steelpres',
'383054003_Steelpres',(#507));
#504=APPLICATION_PROTOCOL_DEFINITION('international standard',
'automotive_design',2009,#505);
#505=APPLICATION_CONTEXT(
'Core Data for Automotive Mechanical Design Process');
#506=PRODUCT_CONTEXT('part definition',#505,'mechanical');
#507=PRODUCT('383054003_Steelpres','383054003_Steelpres',
'TAPPO DI CHIUSURA DN54',(#506));
#508=PRESENTATION_STYLE_ASSIGNMENT((#509));
#509=SURFACE_STYLE_USAGE(.BOTH.,#512);
#510=SURFACE_STYLE_RENDERING_WITH_PROPERTIES($,#516,(#511));
#511=SURFACE_STYLE_TRANSPARENT(0.);
#512=SURFACE_SIDE_STYLE('',(#513,#510));
#513=SURFACE_STYLE_FILL_AREA(#514);
#514=FILL_AREA_STYLE('',(#515));
#515=FILL_AREA_STYLE_COLOUR('',#516);
#516=COLOUR_RGB('',0.83921568627451,0.886274509803922,0.854901960784314);
ENDSEC;
END-ISO-10303-21;
