ISO-10303-21;
HEADER;
FILE_DESCRIPTION (( 'STEP AP203' ),
    '1' );
FILE_NAME ('19-0402-24_outokumpu.step',
    '2015-08-11T09:25:03',
    ( '' ),
    ( '' ),
    'SwSTEP 2.0',
    'SolidWorks 2008',
    '' );
FILE_SCHEMA (( 'CONFIG_CONTROL_DESIGN' ));
ENDSEC;

DATA;
#1 = DIRECTION ( 'NONE',  ( 1.000000000000000000, 0.0000000000000000000, 0.0000000000000000000 ) ) ;
#2 = DIRECTION ( 'NONE',  ( -0.0000000000000000000, -0.0000000000000000000, 1.000000000000000000 ) ) ;
#3 = CARTESIAN_POINT ( 'NONE',  ( 0.0000000000000000000, 0.0000000000000000000, -50.00000000000000000 ) ) ;
#4 = AXIS2_PLACEMENT_3D ( 'NONE', #3, #2, #1 ) ;
#5 = CIRCLE ( 'NONE', #4, 10.84338236234979500 ) ;
#6 = FACE_OUTER_BOUND ( 'NONE', #104, .T. ) ;
#7 = DIRECTION ( 'NONE',  ( 1.000000000000000000, 0.0000000000000000000, 0.0000000000000000000 ) ) ;
#8 = DIRECTION ( 'NONE',  ( -0.0000000000000000000, -0.0000000000000000000, 1.000000000000000000 ) ) ;
#9 = CARTESIAN_POINT ( 'NONE',  ( 0.0000000000000000000, 0.0000000000000000000, -50.00000000000000000 ) ) ;
#10 = AXIS2_PLACEMENT_3D ( 'NONE', #9, #8, #7 ) ;
#11 = DIRECTION ( 'NONE',  ( 1.000000000000000000, 0.0000000000000000000, 0.0000000000000000000 ) ) ;
#12 = DIRECTION ( 'NONE',  ( 0.0000000000000000000, -0.0000000000000000000, 1.000000000000000000 ) ) ;
#13 = AXIS2_PLACEMENT_3D ( 'NONE', #15, #12, #11 ) ;
#14 = CIRCLE ( 'NONE', #10, 13.15000000000000000 ) ;
#15 = CARTESIAN_POINT ( 'NONE',  ( 0.0000000000000000000, 13.15000000000000000, -50.00000000000000000 ) ) ;
#16 = PLANE ( 'NONE',  #13 ) ;
#17 = FACE_BOUND ( 'NONE', #99, .T. ) ;
#18 = FACE_OUTER_BOUND ( 'NONE', #95, .T. ) ;
#19 = DIRECTION ( 'NONE',  ( 1.000000000000000000, 0.0000000000000000000, 0.0000000000000000000 ) ) ;
#20 = DIRECTION ( 'NONE',  ( -0.0000000000000000000, -0.0000000000000000000, 1.000000000000000000 ) ) ;
#21 = CARTESIAN_POINT ( 'NONE',  ( 0.0000000000000000000, 0.0000000000000000000, -49.63411763765020600 ) ) ;
#22 = AXIS2_PLACEMENT_3D ( 'NONE', #21, #20, #19 ) ;
#23 = CIRCLE ( 'NONE', #22, 10.47749999999999700 ) ;
#24 = DIRECTION ( 'NONE',  ( 1.000000000000000000, 0.0000000000000000000, 0.0000000000000000000 ) ) ;
#25 = DIRECTION ( 'NONE',  ( -0.0000000000000000000, -0.0000000000000000000, 1.000000000000000000 ) ) ;
#26 = CARTESIAN_POINT ( 'NONE',  ( 0.0000000000000000000, 0.0000000000000000000, -0.3658823623497114400 ) ) ;
#27 = AXIS2_PLACEMENT_3D ( 'NONE', #26, #25, #24 ) ;
#28 = DIRECTION ( 'NONE',  ( 0.0000000000000000000, 1.000000000000000000, 0.0000000000000000000 ) ) ;
#29 = DIRECTION ( 'NONE',  ( -0.0000000000000000000, 1.085776366117879100E-016, -1.000000000000000000 ) ) ;
#30 = AXIS2_PLACEMENT_3D ( 'NONE', #46, #29, #28 ) ;
#31 = CIRCLE ( 'NONE', #27, 10.47749999999999700 ) ;
#32 = CYLINDRICAL_SURFACE ( 'NONE', #30, 10.47750000000000400 ) ;
#33 = ADVANCED_FACE ( 'NONE', ( #165 ), #162, .F. ) ;
#34 = EDGE_LOOP ( 'NONE', ( #35, #109, #179, #125, #128 ) ) ;
#35 = ORIENTED_EDGE ( 'NONE', *, *, #111, .F. ) ;
#36 = VERTEX_POINT ( 'NONE', #163 ) ;
#37 = EDGE_CURVE ( 'NONE', #40, #194, #72, .T. ) ;
#38 = ORIENTED_EDGE ( 'NONE', *, *, #39, .T. ) ;
#39 = EDGE_CURVE ( 'NONE', #40, #202, #68, .T. ) ;
#40 = VERTEX_POINT ( 'NONE', #63 ) ;
#41 = MANIFOLD_SOLID_BREP ( 'NONE', #172 ) ;
#42 = FACE_OUTER_BOUND ( 'NONE', #85, .T. ) ;
#43 = DIRECTION ( 'NONE',  ( -0.0000000000000000000, 1.085776366117879100E-016, -1.000000000000000000 ) ) ;
#44 = VECTOR ( 'NONE', #43, 1000.000000000000000 ) ;
#45 = CARTESIAN_POINT ( 'NONE',  ( 0.0000000000000000000, 10.47750000000000600, -50.00000000000004300 ) ) ;
#46 = CARTESIAN_POINT ( 'NONE',  ( 0.0000000000000000000, 1.959434878635785200E-015, -50.00000000000004300 ) ) ;
#47 = LINE ( 'NONE', #45, #44 ) ;
#48 = DIRECTION ( 'NONE',  ( -0.0000000000000000000, -0.0000000000000000000, 1.000000000000000000 ) ) ;
#49 = VECTOR ( 'NONE', #48, 1000.000000000000000 ) ;
#50 = CARTESIAN_POINT ( 'NONE',  ( 13.15000000000000000, 0.0000000000000000000, -4.336808689942017700E-016 ) ) ;
#51 = LINE ( 'NONE', #50, #49 ) ;
#52 = CARTESIAN_POINT ( 'NONE',  ( 13.15000000000000000, 0.0000000000000000000, 0.0000000000000000000 ) ) ;
#53 = DIRECTION ( 'NONE',  ( 1.000000000000000000, 0.0000000000000000000, 0.0000000000000000000 ) ) ;
#54 = DIRECTION ( 'NONE',  ( -0.0000000000000000000, -0.0000000000000000000, 1.000000000000000000 ) ) ;
#55 = CARTESIAN_POINT ( 'NONE',  ( 0.0000000000000000000, 0.0000000000000000000, 0.0000000000000000000 ) ) ;
#56 = AXIS2_PLACEMENT_3D ( 'NONE', #55, #54, #53 ) ;
#57 = CIRCLE ( 'NONE', #56, 13.15000000000000000 ) ;
#58 = CARTESIAN_POINT ( 'NONE',  ( -13.15000000000000000, 1.610357355276426200E-015, 0.0000000000000000000 ) ) ;
#59 = DIRECTION ( 'NONE',  ( -0.0000000000000000000, -0.0000000000000000000, 1.000000000000000000 ) ) ;
#60 = VECTOR ( 'NONE', #59, 1000.000000000000000 ) ;
#61 = CARTESIAN_POINT ( 'NONE',  ( -13.15000000000000000, 1.610357355276426200E-015, -4.336808689942017700E-016 ) ) ;
#62 = LINE ( 'NONE', #61, #60 ) ;
#63 = CARTESIAN_POINT ( 'NONE',  ( -10.47749999999999700, 0.0000000000000000000, -49.63411763765020600 ) ) ;
#64 = DIRECTION ( 'NONE',  ( 1.000000000000000000, 0.0000000000000000000, 0.0000000000000000000 ) ) ;
#65 = DIRECTION ( 'NONE',  ( -0.0000000000000000000, -0.0000000000000000000, 1.000000000000000000 ) ) ;
#66 = CARTESIAN_POINT ( 'NONE',  ( 0.0000000000000000000, 0.0000000000000000000, -49.63411763765020600 ) ) ;
#67 = AXIS2_PLACEMENT_3D ( 'NONE', #66, #65, #64 ) ;
#68 = CIRCLE ( 'NONE', #67, 10.47749999999999700 ) ;
#69 = DIRECTION ( 'NONE',  ( -0.7071067811865507900, 0.0000000000000000000, -0.7071067811865441300 ) ) ;
#70 = VECTOR ( 'NONE', #69, 1000.000000000000000 ) ;
#71 = CARTESIAN_POINT ( 'NONE',  ( -10.84338236234979500, 0.0000000000000000000, -50.00000000000000000 ) ) ;
#72 = LINE ( 'NONE', #71, #70 ) ;
#73 = ORIENTED_EDGE ( 'NONE', *, *, #74, .T. ) ;
#74 = EDGE_CURVE ( 'NONE', #136, #75, #62, .T. ) ;
#75 = VERTEX_POINT ( 'NONE', #58 ) ;
#76 = ORIENTED_EDGE ( 'NONE', *, *, #77, .F. ) ;
#77 = EDGE_CURVE ( 'NONE', #78, #75, #57, .T. ) ;
#78 = VERTEX_POINT ( 'NONE', #52 ) ;
#79 = ORIENTED_EDGE ( 'NONE', *, *, #80, .F. ) ;
#80 = EDGE_CURVE ( 'NONE', #135, #78, #51, .T. ) ;
#81 = EDGE_LOOP ( 'NONE', ( #114, #117, #118, #120, #121, #82 ) ) ;
#82 = ORIENTED_EDGE ( 'NONE', *, *, #83, .F. ) ;
#83 = EDGE_CURVE ( 'NONE', #116, #123, #47, .T. ) ;
#84 = ADVANCED_FACE ( 'NONE', ( #42 ), #32, .F. ) ;
#85 = EDGE_LOOP ( 'NONE', ( #86, #87, #88, #90, #91, #93 ) ) ;
#86 = ORIENTED_EDGE ( 'NONE', *, *, #119, .F. ) ;
#87 = ORIENTED_EDGE ( 'NONE', *, *, #131, .T. ) ;
#88 = ORIENTED_EDGE ( 'NONE', *, *, #89, .T. ) ;
#89 = EDGE_CURVE ( 'NONE', #127, #116, #31, .T. ) ;
#90 = ORIENTED_EDGE ( 'NONE', *, *, #83, .T. ) ;
#91 = ORIENTED_EDGE ( 'NONE', *, *, #92, .F. ) ;
#92 = EDGE_CURVE ( 'NONE', #203, #123, #23, .T. ) ;
#93 = ORIENTED_EDGE ( 'NONE', *, *, #201, .F. ) ;
#94 = ADVANCED_FACE ( 'NONE', ( #18, #17 ), #16, .F. ) ;
#95 = EDGE_LOOP ( 'NONE', ( #96, #97 ) ) ;
#96 = ORIENTED_EDGE ( 'NONE', *, *, #134, .F. ) ;
#97 = ORIENTED_EDGE ( 'NONE', *, *, #98, .F. ) ;
#98 = EDGE_CURVE ( 'NONE', #136, #135, #14, .T. ) ;
#99 = EDGE_LOOP ( 'NONE', ( #100, #101 ) ) ;
#100 = ORIENTED_EDGE ( 'NONE', *, *, #195, .T. ) ;
#101 = ORIENTED_EDGE ( 'NONE', *, *, #102, .T. ) ;
#102 = EDGE_CURVE ( 'NONE', #199, #194, #5, .T. ) ;
#103 = ADVANCED_FACE ( 'NONE', ( #6, #158 ), #157, .F. ) ;
#104 = EDGE_LOOP ( 'NONE', ( #105, #106 ) ) ;
#105 = ORIENTED_EDGE ( 'NONE', *, *, #77, .T. ) ;
#106 = ORIENTED_EDGE ( 'NONE', *, *, #107, .T. ) ;
#107 = EDGE_CURVE ( 'NONE', #75, #78, #151, .T. ) ;
#108 = EDGE_LOOP ( 'NONE', ( #176, #178 ) ) ;
#109 = ORIENTED_EDGE ( 'NONE', *, *, #110, .T. ) ;
#110 = EDGE_CURVE ( 'NONE', #36, #197, #147, .T. ) ;
#111 = EDGE_CURVE ( 'NONE', #36, #112, #143, .T. ) ;
#112 = VERTEX_POINT ( 'NONE', #138 ) ;
#113 = ADVANCED_FACE ( 'NONE', ( #137 ), #209, .F. ) ;
#114 = ORIENTED_EDGE ( 'NONE', *, *, #115, .T. ) ;
#115 = EDGE_CURVE ( 'NONE', #116, #36, #206, .T. ) ;
#116 = VERTEX_POINT ( 'NONE', #215 ) ;
#117 = ORIENTED_EDGE ( 'NONE', *, *, #111, .T. ) ;
#118 = ORIENTED_EDGE ( 'NONE', *, *, #119, .T. ) ;
#119 = EDGE_CURVE ( 'NONE', #112, #202, #214, .T. ) ;
#120 = ORIENTED_EDGE ( 'NONE', *, *, #39, .F. ) ;
#121 = ORIENTED_EDGE ( 'NONE', *, *, #122, .F. ) ;
#122 = EDGE_CURVE ( 'NONE', #123, #40, #255, .T. ) ;
#123 = VERTEX_POINT ( 'NONE', #225 ) ;
#124 = EDGE_CURVE ( 'NONE', #197, #130, #231, .T. ) ;
#125 = ORIENTED_EDGE ( 'NONE', *, *, #126, .F. ) ;
#126 = EDGE_CURVE ( 'NONE', #127, #130, #232, .T. ) ;
#127 = VERTEX_POINT ( 'NONE', #247 ) ;
#128 = ORIENTED_EDGE ( 'NONE', *, *, #131, .F. ) ;
#129 = EDGE_LOOP ( 'NONE', ( #133, #73, #76, #79 ) ) ;
#130 = VERTEX_POINT ( 'NONE', #254 ) ;
#131 = EDGE_CURVE ( 'NONE', #112, #127, #250, .T. ) ;
#132 = ADVANCED_FACE ( 'NONE', ( #241 ), #238, .T. ) ;
#133 = ORIENTED_EDGE ( 'NONE', *, *, #134, .T. ) ;
#134 = EDGE_CURVE ( 'NONE', #135, #136, #222, .T. ) ;
#135 = VERTEX_POINT ( 'NONE', #235 ) ;
#136 = VERTEX_POINT ( 'NONE', #234 ) ;
#137 = FACE_OUTER_BOUND ( 'NONE', #81, .T. ) ;
#138 = CARTESIAN_POINT ( 'NONE',  ( 1.283081307217396000E-015, -10.47749999999999700, -0.3658823623497114400 ) ) ;
#139 = DIRECTION ( 'NONE',  ( 1.000000000000000000, 0.0000000000000000000, 0.0000000000000000000 ) ) ;
#140 = DIRECTION ( 'NONE',  ( -0.0000000000000000000, -0.0000000000000000000, 1.000000000000000000 ) ) ;
#141 = CARTESIAN_POINT ( 'NONE',  ( 0.0000000000000000000, 0.0000000000000000000, -0.3658823623497114400 ) ) ;
#142 = AXIS2_PLACEMENT_3D ( 'NONE', #141, #140, #139 ) ;
#143 = CIRCLE ( 'NONE', #142, 10.47749999999999700 ) ;
#144 = DIRECTION ( 'NONE',  ( -0.7071067811865519000, 8.659274570719408400E-017, 0.7071067811865431300 ) ) ;
#145 = VECTOR ( 'NONE', #144, 1000.000000000000000 ) ;
#146 = CARTESIAN_POINT ( 'NONE',  ( -10.47749999999999700, 1.283081307217395400E-015, -0.3658823623497114400 ) ) ;
#147 = LINE ( 'NONE', #146, #145 ) ;
#148 = DIRECTION ( 'NONE',  ( 1.000000000000000000, 0.0000000000000000000, 0.0000000000000000000 ) ) ;
#149 = DIRECTION ( 'NONE',  ( -0.0000000000000000000, -0.0000000000000000000, 1.000000000000000000 ) ) ;
#150 = AXIS2_PLACEMENT_3D ( 'NONE', #156, #149, #148 ) ;
#151 = CIRCLE ( 'NONE', #150, 13.15000000000000000 ) ;
#152 = DIRECTION ( 'NONE',  ( -1.000000000000000000, 0.0000000000000000000, -0.0000000000000000000 ) ) ;
#153 = DIRECTION ( 'NONE',  ( 0.0000000000000000000, 0.0000000000000000000, -1.000000000000000000 ) ) ;
#154 = CARTESIAN_POINT ( 'NONE',  ( 0.0000000000000000000, 13.15000000000000000, -2.168404344971008900E-016 ) ) ;
#155 = AXIS2_PLACEMENT_3D ( 'NONE', #154, #153, #152 ) ;
#156 = CARTESIAN_POINT ( 'NONE',  ( 0.0000000000000000000, 0.0000000000000000000, 0.0000000000000000000 ) ) ;
#157 = PLANE ( 'NONE',  #155 ) ;
#158 = FACE_BOUND ( 'NONE', #108, .T. ) ;
#159 = DIRECTION ( 'NONE',  ( 1.000000000000000000, 0.0000000000000000000, 0.0000000000000000000 ) ) ;
#160 = DIRECTION ( 'NONE',  ( -0.0000000000000000000, -0.0000000000000000000, 1.000000000000000000 ) ) ;
#161 = AXIS2_PLACEMENT_3D ( 'NONE', #164, #160, #159 ) ;
#162 = CONICAL_SURFACE ( 'NONE', #161, 10.47749999999999700, 0.7853981633974545000 ) ;
#163 = CARTESIAN_POINT ( 'NONE',  ( -10.47749999999999700, 1.305484400501645600E-015, -0.3658823623497114400 ) ) ;
#164 = CARTESIAN_POINT ( 'NONE',  ( 0.0000000000000000000, 0.0000000000000000000, -0.3658823623497114400 ) ) ;
#165 = FACE_OUTER_BOUND ( 'NONE', #34, .T. ) ;
#166 = ADVANCED_FACE ( 'NONE', ( #233 ), #353, .F. ) ;
#167 = ORIENTED_EDGE ( 'NONE', *, *, #198, .F. ) ;
#168 = ORIENTED_EDGE ( 'NONE', *, *, #92, .T. ) ;
#169 = ORIENTED_EDGE ( 'NONE', *, *, #122, .T. ) ;
#170 = ORIENTED_EDGE ( 'NONE', *, *, #37, .T. ) ;
#171 = ORIENTED_EDGE ( 'NONE', *, *, #102, .F. ) ;
#172 = CLOSED_SHELL ( 'NONE', ( #191, #33, #132, #113, #84, #94, #103, #180, #186, #166 ) ) ;
#173 = ORIENTED_EDGE ( 'NONE', *, *, #126, .T. ) ;
#174 = ORIENTED_EDGE ( 'NONE', *, *, #177, .T. ) ;
#175 = EDGE_LOOP ( 'NONE', ( #167, #168, #169, #170, #171 ) ) ;
#176 = ORIENTED_EDGE ( 'NONE', *, *, #177, .F. ) ;
#177 = EDGE_CURVE ( 'NONE', #130, #197, #348, .T. ) ;
#178 = ORIENTED_EDGE ( 'NONE', *, *, #124, .F. ) ;
#179 = ORIENTED_EDGE ( 'NONE', *, *, #124, .T. ) ;
#180 = ADVANCED_FACE ( 'NONE', ( #350 ), #365, .T. ) ;
#181 = EDGE_LOOP ( 'NONE', ( #182, #183, #184, #185 ) ) ;
#182 = ORIENTED_EDGE ( 'NONE', *, *, #74, .F. ) ;
#183 = ORIENTED_EDGE ( 'NONE', *, *, #98, .T. ) ;
#184 = ORIENTED_EDGE ( 'NONE', *, *, #80, .T. ) ;
#185 = ORIENTED_EDGE ( 'NONE', *, *, #107, .F. ) ;
#186 = ADVANCED_FACE ( 'NONE', ( #362 ), #355, .F. ) ;
#187 = EDGE_LOOP ( 'NONE', ( #188, #189, #190, #173, #174 ) ) ;
#188 = ORIENTED_EDGE ( 'NONE', *, *, #110, .F. ) ;
#189 = ORIENTED_EDGE ( 'NONE', *, *, #115, .F. ) ;
#190 = ORIENTED_EDGE ( 'NONE', *, *, #89, .F. ) ;
#191 = ADVANCED_FACE ( 'NONE', ( #334 ), #340, .F. ) ;
#192 = EDGE_LOOP ( 'NONE', ( #204, #200, #196, #193, #38 ) ) ;
#193 = ORIENTED_EDGE ( 'NONE', *, *, #37, .F. ) ;
#194 = VERTEX_POINT ( 'NONE', #329 ) ;
#195 = EDGE_CURVE ( 'NONE', #194, #199, #344, .T. ) ;
#196 = ORIENTED_EDGE ( 'NONE', *, *, #195, .F. ) ;
#197 = VERTEX_POINT ( 'NONE', #366 ) ;
#198 = EDGE_CURVE ( 'NONE', #203, #199, #369, .T. ) ;
#199 = VERTEX_POINT ( 'NONE', #371 ) ;
#200 = ORIENTED_EDGE ( 'NONE', *, *, #198, .T. ) ;
#201 = EDGE_CURVE ( 'NONE', #202, #203, #370, .T. ) ;
#202 = VERTEX_POINT ( 'NONE', #374 ) ;
#203 = VERTEX_POINT ( 'NONE', #373 ) ;
#204 = ORIENTED_EDGE ( 'NONE', *, *, #201, .T. ) ;
#205 = AXIS2_PLACEMENT_3D ( 'NONE', #218, #217, #216 ) ;
#206 = CIRCLE ( 'NONE', #205, 10.47749999999999700 ) ;
#207 = DIRECTION ( 'NONE',  ( 0.0000000000000000000, 1.000000000000000000, 0.0000000000000000000 ) ) ;
#208 = DIRECTION ( 'NONE',  ( -0.0000000000000000000, 1.085776366117879100E-016, -1.000000000000000000 ) ) ;
#209 = CYLINDRICAL_SURFACE ( 'NONE', #210, 10.47750000000000400 ) ;
#210 = AXIS2_PLACEMENT_3D ( 'NONE', #219, #208, #207 ) ;
#211 = DIRECTION ( 'NONE',  ( -0.0000000000000000000, 1.085776366117879100E-016, -1.000000000000000000 ) ) ;
#212 = VECTOR ( 'NONE', #211, 1000.000000000000000 ) ;
#213 = CARTESIAN_POINT ( 'NONE',  ( 1.283081307217396400E-015, -10.47750000000000300, -50.00000000000004300 ) ) ;
#214 = LINE ( 'NONE', #213, #212 ) ;
#215 = CARTESIAN_POINT ( 'NONE',  ( 0.0000000000000000000, 10.47749999999999700, -0.3658823623497114400 ) ) ;
#216 = DIRECTION ( 'NONE',  ( 1.000000000000000000, 0.0000000000000000000, 0.0000000000000000000 ) ) ;
#217 = DIRECTION ( 'NONE',  ( -0.0000000000000000000, -0.0000000000000000000, 1.000000000000000000 ) ) ;
#218 = CARTESIAN_POINT ( 'NONE',  ( 0.0000000000000000000, 0.0000000000000000000, -0.3658823623497114400 ) ) ;
#219 = CARTESIAN_POINT ( 'NONE',  ( 0.0000000000000000000, 1.959434878635785200E-015, -50.00000000000004300 ) ) ;
#220 = AXIS2_PLACEMENT_3D ( 'NONE', #226, #224, #223 ) ;
#221 = AXIS2_PLACEMENT_3D ( 'NONE', #227, #237, #236 ) ;
#222 = CIRCLE ( 'NONE', #221, 13.15000000000000000 ) ;
#223 = DIRECTION ( 'NONE',  ( 1.000000000000000000, 0.0000000000000000000, 0.0000000000000000000 ) ) ;
#224 = DIRECTION ( 'NONE',  ( -0.0000000000000000000, -0.0000000000000000000, 1.000000000000000000 ) ) ;
#225 = CARTESIAN_POINT ( 'NONE',  ( 0.0000000000000000000, 10.47749999999999700, -49.63411763765020600 ) ) ;
#226 = CARTESIAN_POINT ( 'NONE',  ( 0.0000000000000000000, 0.0000000000000000000, -49.63411763765020600 ) ) ;
#227 = CARTESIAN_POINT ( 'NONE',  ( 0.0000000000000000000, 0.0000000000000000000, -50.00000000000000000 ) ) ;
#228 = DIRECTION ( 'NONE',  ( 1.000000000000000000, 0.0000000000000000000, 0.0000000000000000000 ) ) ;
#229 = DIRECTION ( 'NONE',  ( -0.0000000000000000000, -0.0000000000000000000, 1.000000000000000000 ) ) ;
#230 = CARTESIAN_POINT ( 'NONE',  ( 0.0000000000000000000, 0.0000000000000000000, -5.454052677674197400E-017 ) ) ;
#231 = CIRCLE ( 'NONE', #253, 10.84338236234971300 ) ;
#232 = LINE ( 'NONE', #246, #245 ) ;
#233 = FACE_OUTER_BOUND ( 'NONE', #175, .T. ) ;
#234 = CARTESIAN_POINT ( 'NONE',  ( -13.15000000000000000, 1.610357355276426200E-015, -50.00000000000000000 ) ) ;
#235 = CARTESIAN_POINT ( 'NONE',  ( 13.15000000000000000, 0.0000000000000000000, -50.00000000000000000 ) ) ;
#236 = DIRECTION ( 'NONE',  ( 1.000000000000000000, 0.0000000000000000000, 0.0000000000000000000 ) ) ;
#237 = DIRECTION ( 'NONE',  ( -0.0000000000000000000, -0.0000000000000000000, 1.000000000000000000 ) ) ;
#238 = CYLINDRICAL_SURFACE ( 'NONE', #240, 13.15000000000000000 ) ;
#239 = CARTESIAN_POINT ( 'NONE',  ( 0.0000000000000000000, 0.0000000000000000000, -4.336808689942017700E-016 ) ) ;
#240 = AXIS2_PLACEMENT_3D ( 'NONE', #239, #229, #228 ) ;
#241 = FACE_OUTER_BOUND ( 'NONE', #129, .T. ) ;
#242 = DIRECTION ( 'NONE',  ( 1.000000000000000000, 0.0000000000000000000, 0.0000000000000000000 ) ) ;
#243 = DIRECTION ( 'NONE',  ( -0.0000000000000000000, -0.0000000000000000000, 1.000000000000000000 ) ) ;
#244 = DIRECTION ( 'NONE',  ( 0.7071067811865519000, 0.0000000000000000000, 0.7071067811865431300 ) ) ;
#245 = VECTOR ( 'NONE', #244, 1000.000000000000000 ) ;
#246 = CARTESIAN_POINT ( 'NONE',  ( 10.47749999999999700, 0.0000000000000000000, -0.3658823623497114400 ) ) ;
#247 = CARTESIAN_POINT ( 'NONE',  ( 10.47749999999999700, 0.0000000000000000000, -0.3658823623497114400 ) ) ;
#248 = CARTESIAN_POINT ( 'NONE',  ( 0.0000000000000000000, 0.0000000000000000000, -0.3658823623497114400 ) ) ;
#249 = AXIS2_PLACEMENT_3D ( 'NONE', #248, #243, #242 ) ;
#250 = CIRCLE ( 'NONE', #249, 10.47749999999999700 ) ;
#251 = DIRECTION ( 'NONE',  ( 1.000000000000000000, 0.0000000000000000000, 0.0000000000000000000 ) ) ;
#252 = DIRECTION ( 'NONE',  ( -0.0000000000000000000, -0.0000000000000000000, 1.000000000000000000 ) ) ;
#253 = AXIS2_PLACEMENT_3D ( 'NONE', #230, #252, #251 ) ;
#254 = CARTESIAN_POINT ( 'NONE',  ( 10.84338236234971300, 0.0000000000000000000, -5.454052677674197400E-017 ) ) ;
#255 = CIRCLE ( 'NONE', #220, 10.47749999999999700 ) ;
#256 = ORGANIZATION ( 'UNSPECIFIED', 'UNSPECIFIED', '' ) ;
#257 = CC_DESIGN_PERSON_AND_ORGANIZATION_ASSIGNMENT ( #259, #258, ( #387 ) ) ;
#258 = PERSON_AND_ORGANIZATION_ROLE ( 'design_owner' ) ;
#259 = PERSON_AND_ORGANIZATION ( #389, #256 ) ;
#260 = DATE_AND_TIME ( #264, #277 ) ;
#261 = CALENDAR_DATE ( 2015, 11, 8 ) ;
#262 = APPROVAL_DATE_TIME ( #260, #270 ) ;
#263 = LOCAL_TIME ( 11, 25, 3.000000000000000000, #306 ) ;
#264 = CALENDAR_DATE ( 2015, 11, 8 ) ;
#265 = CC_DESIGN_APPROVAL ( #270, ( #275 ) ) ;
#266 = DATE_TIME_ROLE ( 'classification_date' ) ;
#267 = CC_DESIGN_DATE_AND_TIME_ASSIGNMENT ( #268, #266, ( #313 ) ) ;
#268 = DATE_AND_TIME ( #261, #263 ) ;
#269 = COORDINATED_UNIVERSAL_TIME_OFFSET ( 1, 0, .AHEAD. ) ;
#270 = APPROVAL ( #276, 'UNSPECIFIED' ) ;
#271 = APPLICATION_CONTEXT ( 'configuration controlled 3d designs of mechanical parts and assemblies' ) ;
#272 = DESIGN_CONTEXT ( 'detailed design', #271, 'design' ) ;
#273 = APPLICATION_PROTOCOL_DEFINITION ( 'international standard', 'config_control_design', 1994, #271 ) ;
#274 = PERSON_AND_ORGANIZATION ( #389, #256 ) ;
#275 = PRODUCT_DEFINITION ( 'UNKNOWN', '', #293, #272 ) ;
#276 = APPROVAL_STATUS ( 'not_yet_approved' ) ;
#277 = LOCAL_TIME ( 11, 25, 3.000000000000000000, #278 ) ;
#278 = COORDINATED_UNIVERSAL_TIME_OFFSET ( 1, 0, .AHEAD. ) ;
#279 = APPROVAL_PERSON_ORGANIZATION ( #274, #270, #280 ) ;
#280 = APPROVAL_ROLE ( '' ) ;
#281 = APPROVAL ( #282, 'UNSPECIFIED' ) ;
#282 = APPROVAL_STATUS ( 'not_yet_approved' ) ;
#283 = DATE_AND_TIME ( #297, #301 ) ;
#284 = LOCAL_TIME ( 11, 25, 3.000000000000000000, #285 ) ;
#285 = COORDINATED_UNIVERSAL_TIME_OFFSET ( 1, 0, .AHEAD. ) ;
#286 = DATE_AND_TIME ( #287, #284 ) ;
#287 = CALENDAR_DATE ( 2015, 11, 8 ) ;
#288 = APPROVAL_PERSON_ORGANIZATION ( #292, #281, #289 ) ;
#289 = APPROVAL_ROLE ( '' ) ;
#290 = CC_DESIGN_PERSON_AND_ORGANIZATION_ASSIGNMENT ( #291, #302, ( #275 ) ) ;
#291 = PERSON_AND_ORGANIZATION ( #389, #256 ) ;
#292 = PERSON_AND_ORGANIZATION ( #389, #256 ) ;
#293 = PRODUCT_DEFINITION_FORMATION_WITH_SPECIFIED_SOURCE ( 'ANY', '', #387, .NOT_KNOWN. ) ;
#294 = COORDINATED_UNIVERSAL_TIME_OFFSET ( 1, 0, .AHEAD. ) ;
#295 = CC_DESIGN_DATE_AND_TIME_ASSIGNMENT ( #283, #296, ( #275 ) ) ;
#296 = DATE_TIME_ROLE ( 'creation_date' ) ;
#297 = CALENDAR_DATE ( 2015, 11, 8 ) ;
#298 = LOCAL_TIME ( 11, 25, 3.000000000000000000, #269 ) ;
#299 = CC_DESIGN_APPROVAL ( #281, ( #293 ) ) ;
#300 = APPROVAL_DATE_TIME ( #286, #281 ) ;
#301 = LOCAL_TIME ( 11, 25, 3.000000000000000000, #294 ) ;
#302 = PERSON_AND_ORGANIZATION_ROLE ( 'creator' ) ;
#303 = CC_DESIGN_PERSON_AND_ORGANIZATION_ASSIGNMENT ( #308, #307, ( #293 ) ) ;
#304 = CC_DESIGN_PERSON_AND_ORGANIZATION_ASSIGNMENT ( #305, #309, ( #293 ) ) ;
#305 = PERSON_AND_ORGANIZATION ( #389, #256 ) ;
#306 = COORDINATED_UNIVERSAL_TIME_OFFSET ( 1, 0, .AHEAD. ) ;
#307 = PERSON_AND_ORGANIZATION_ROLE ( 'design_supplier' ) ;
#308 = PERSON_AND_ORGANIZATION ( #389, #256 ) ;
#309 = PERSON_AND_ORGANIZATION_ROLE ( 'creator' ) ;
#310 = CC_DESIGN_PERSON_AND_ORGANIZATION_ASSIGNMENT ( #312, #311, ( #313 ) ) ;
#311 = PERSON_AND_ORGANIZATION_ROLE ( 'classification_officer' ) ;
#312 = PERSON_AND_ORGANIZATION ( #389, #256 ) ;
#313 = SECURITY_CLASSIFICATION ( '', '', #314 ) ;
#314 = SECURITY_CLASSIFICATION_LEVEL ( 'unclassified' ) ;
#315 = APPROVAL_DATE_TIME ( #316, #321 ) ;
#316 = DATE_AND_TIME ( #317, #298 ) ;
#317 = CALENDAR_DATE ( 2015, 11, 8 ) ;
#318 = APPROVAL_PERSON_ORGANIZATION ( #320, #321, #319 ) ;
#319 = APPROVAL_ROLE ( '' ) ;
#320 = PERSON_AND_ORGANIZATION ( #389, #256 ) ;
#321 = APPROVAL ( #322, 'UNSPECIFIED' ) ;
#322 = APPROVAL_STATUS ( 'not_yet_approved' ) ;
#323 = PRODUCT_RELATED_PRODUCT_CATEGORY ( 'detail', '', ( #387 ) ) ;
#324 = CC_DESIGN_APPROVAL ( #321, ( #313 ) ) ;
#325 = CC_DESIGN_SECURITY_CLASSIFICATION ( #313, ( #293 ) ) ;
#326 = PRODUCT_DEFINITION_SHAPE ( 'NONE', 'NONE',  #275 ) ;
#327 = SHAPE_DEFINITION_REPRESENTATION ( #326, #379 ) ;
#328 = AXIS2_PLACEMENT_3D ( 'NONE', #335, #343, #345 ) ;
#329 = CARTESIAN_POINT ( 'NONE',  ( -10.84338236234979500, 0.0000000000000000000, -50.00000000000000000 ) ) ;
#330 = DIRECTION ( 'NONE',  ( -0.0000000000000000000, -0.0000000000000000000, 1.000000000000000000 ) ) ;
#331 = DIRECTION ( 'NONE',  ( 1.000000000000000000, 0.0000000000000000000, 0.0000000000000000000 ) ) ;
#332 = CARTESIAN_POINT ( 'NONE',  ( 0.0000000000000000000, 0.0000000000000000000, -0.3658823623497114400 ) ) ;
#333 = AXIS2_PLACEMENT_3D ( 'NONE', #332, #330, #331 ) ;
#334 = FACE_OUTER_BOUND ( 'NONE', #192, .T. ) ;
#335 = CARTESIAN_POINT ( 'NONE',  ( 0.0000000000000000000, 0.0000000000000000000, -50.00000000000000000 ) ) ;
#336 = DIRECTION ( 'NONE',  ( -1.000000000000000000, 0.0000000000000000000, 0.0000000000000000000 ) ) ;
#337 = DIRECTION ( 'NONE',  ( 0.0000000000000000000, 0.0000000000000000000, -1.000000000000000000 ) ) ;
#338 = CARTESIAN_POINT ( 'NONE',  ( 0.0000000000000000000, 0.0000000000000000000, -50.00000000000000000 ) ) ;
#339 = AXIS2_PLACEMENT_3D ( 'NONE', #338, #337, #336 ) ;
#340 = CONICAL_SURFACE ( 'NONE', #339, 10.84338236234979500, 0.7853981633974530500 ) ;
#341 = CARTESIAN_POINT ( 'NONE',  ( 0.0000000000000000000, 0.0000000000000000000, -49.63411763765020600 ) ) ;
#342 = AXIS2_PLACEMENT_3D ( 'NONE', #341, #361, #356 ) ;
#343 = DIRECTION ( 'NONE',  ( -0.0000000000000000000, -0.0000000000000000000, 1.000000000000000000 ) ) ;
#344 = CIRCLE ( 'NONE', #328, 10.84338236234979500 ) ;
#345 = DIRECTION ( 'NONE',  ( 1.000000000000000000, 0.0000000000000000000, 0.0000000000000000000 ) ) ;
#346 = CARTESIAN_POINT ( 'NONE',  ( 0.0000000000000000000, 0.0000000000000000000, -5.454052677674197400E-017 ) ) ;
#347 = AXIS2_PLACEMENT_3D ( 'NONE', #346, #364, #363 ) ;
#348 = CIRCLE ( 'NONE', #347, 10.84338236234971300 ) ;
#349 = CARTESIAN_POINT ( 'NONE',  ( 0.0000000000000000000, 0.0000000000000000000, -50.00000000000000000 ) ) ;
#350 = FACE_OUTER_BOUND ( 'NONE', #181, .T. ) ;
#351 = AXIS2_PLACEMENT_3D ( 'NONE', #349, #352, #354 ) ;
#352 = DIRECTION ( 'NONE',  ( 0.0000000000000000000, 0.0000000000000000000, -1.000000000000000000 ) ) ;
#353 = CONICAL_SURFACE ( 'NONE', #351, 10.84338236234979500, 0.7853981633974530500 ) ;
#354 = DIRECTION ( 'NONE',  ( -1.000000000000000000, 0.0000000000000000000, 0.0000000000000000000 ) ) ;
#355 = CONICAL_SURFACE ( 'NONE', #333, 10.47749999999999700, 0.7853981633974545000 ) ;
#356 = DIRECTION ( 'NONE',  ( 1.000000000000000000, 0.0000000000000000000, 0.0000000000000000000 ) ) ;
#357 = DIRECTION ( 'NONE',  ( 1.000000000000000000, 0.0000000000000000000, 0.0000000000000000000 ) ) ;
#358 = DIRECTION ( 'NONE',  ( -0.0000000000000000000, -0.0000000000000000000, 1.000000000000000000 ) ) ;
#359 = CARTESIAN_POINT ( 'NONE',  ( 0.0000000000000000000, 0.0000000000000000000, -4.336808689942017700E-016 ) ) ;
#360 = AXIS2_PLACEMENT_3D ( 'NONE', #359, #358, #357 ) ;
#361 = DIRECTION ( 'NONE',  ( -0.0000000000000000000, -0.0000000000000000000, 1.000000000000000000 ) ) ;
#362 = FACE_OUTER_BOUND ( 'NONE', #187, .T. ) ;
#363 = DIRECTION ( 'NONE',  ( 1.000000000000000000, 0.0000000000000000000, 0.0000000000000000000 ) ) ;
#364 = DIRECTION ( 'NONE',  ( -0.0000000000000000000, -0.0000000000000000000, 1.000000000000000000 ) ) ;
#365 = CYLINDRICAL_SURFACE ( 'NONE', #360, 13.15000000000000000 ) ;
#366 = CARTESIAN_POINT ( 'NONE',  ( -10.84338236234971300, 1.327887493785895800E-015, -5.454052677674197400E-017 ) ) ;
#367 = VECTOR ( 'NONE', #372, 1000.000000000000000 ) ;
#368 = CARTESIAN_POINT ( 'NONE',  ( 10.84338236234979500, 1.327887493785905800E-015, -50.00000000000000000 ) ) ;
#369 = LINE ( 'NONE', #368, #367 ) ;
#370 = CIRCLE ( 'NONE', #342, 10.47749999999999700 ) ;
#371 = CARTESIAN_POINT ( 'NONE',  ( 10.84338236234979500, 1.327887493785905800E-015, -50.00000000000000000 ) ) ;
#372 = DIRECTION ( 'NONE',  ( 0.7071067811865507900, 8.659274570719396100E-017, -0.7071067811865441300 ) ) ;
#373 = CARTESIAN_POINT ( 'NONE',  ( 10.47749999999999700, 1.305484400501650500E-015, -49.63411763765020600 ) ) ;
#374 = CARTESIAN_POINT ( 'NONE',  ( 1.283081307217396000E-015, -10.47749999999999700, -49.63411763765020600 ) ) ;
#375 =( GEOMETRIC_REPRESENTATION_CONTEXT ( 3 ) GLOBAL_UNCERTAINTY_ASSIGNED_CONTEXT ( ( #376 ) ) GLOBAL_UNIT_ASSIGNED_CONTEXT ( ( #377, #381, #380 ) ) REPRESENTATION_CONTEXT ( 'NONE', 'WORKASPACE' ) );
#376 = UNCERTAINTY_MEASURE_WITH_UNIT (LENGTH_MEASURE( 1.000000000000000100E-005 ), #377, 'distance_accuracy_value', 'NONE');
#377 =( LENGTH_UNIT ( ) NAMED_UNIT ( * ) SI_UNIT ( .MILLI., .METRE. ) );
#378 = APPLICATION_PROTOCOL_DEFINITION ( 'international standard', 'config_control_design', 1994, #384 ) ;
#379 = ADVANCED_BREP_SHAPE_REPRESENTATION ( '19-0402-24_outokumpu', ( #41, #383 ), #375 ) ;
#380 =( NAMED_UNIT ( * ) SI_UNIT ( $, .STERADIAN. ) SOLID_ANGLE_UNIT ( ) );
#381 =( NAMED_UNIT ( * ) PLANE_ANGLE_UNIT ( ) SI_UNIT ( $, .RADIAN. ) );
#382 = DIRECTION ( 'NONE',  ( 1.000000000000000000, 0.0000000000000000000, 0.0000000000000000000 ) ) ;
#383 = AXIS2_PLACEMENT_3D ( 'NONE', #386, #385, #382 ) ;
#384 = APPLICATION_CONTEXT ( 'configuration controlled 3d designs of mechanical parts and assemblies' ) ;
#385 = DIRECTION ( 'NONE',  ( 0.0000000000000000000, 0.0000000000000000000, 1.000000000000000000 ) ) ;
#386 = CARTESIAN_POINT ( 'NONE',  ( 0.0000000000000000000, 0.0000000000000000000, 0.0000000000000000000 ) ) ;
#387 = PRODUCT ( '19-0402-24_outokumpu', '19-0402-24_outokumpu', '', ( #388 ) ) ;
#388 = MECHANICAL_CONTEXT ( 'NONE', #384, 'mechanical' ) ;
#389 = PERSON ( 'UNSPECIFIED', 'UNSPECIFIED', 'UNSPECIFIED', ('UNSPECIFIED'), ('UNSPECIFIED'), ('UNSPECIFIED') ) ;
ENDSEC;
END-ISO-10303-21;
