ISO-10303-21;
HEADER;
FILE_DESCRIPTION (( 'STEP AP203' ),
    '1' );
FILE_NAME ('3D_GR1392_DN28x1.5_18380140.STEP',
    '2024-09-21T10:14:41',
    ( '' ),
    ( '' ),
    'SwSTEP 2.0',
    'SolidWorks 2024',
    '' );
FILE_SCHEMA (( 'CONFIG_CONTROL_DESIGN' ));
ENDSEC;

DATA;
#1 = DIRECTION ( 'NONE',  ( -1.000000000000000000, -0.000000000000000000, -0.000000000000000000 ) ) ;
#2 = DIRECTION ( 'NONE',  ( -1.000000000000000000, -0.000000000000000000, -0.000000000000000000 ) ) ;
#3 = DIRECTION ( 'NONE',  ( -1.000000000000000000, -0.000000000000000000, -0.000000000000000000 ) ) ;
#4 = ADVANCED_FACE ( 'NONE', ( #222 ), #253, .T. ) ;
#5 = CONICAL_SURFACE ( 'NONE', #29, 11.50000000000002132, 0.7853981633974473908 ) ;
#6 = DIRECTION ( 'NONE',  ( -1.000000000000000000, -0.000000000000000000, -0.000000000000000000 ) ) ;
#7 = DIRECTION ( 'NONE',  ( 0.000000000000000000, 1.000000000000000000, 1.224646799147353207E-16 ) ) ;
#8 = DATE_TIME_ROLE ( 'classification_date' ) ;
#9 = ADVANCED_FACE ( 'NONE', ( #169 ), #204, .F. ) ;
#10 = DIRECTION ( 'NONE',  ( -1.000000000000000000, -0.000000000000000000, -0.000000000000000000 ) ) ;
#11 = COORDINATED_UNIVERSAL_TIME_OFFSET ( 1, 0, .AHEAD. ) ;
#12 = CIRCLE ( 'NONE', #53, 14.00000000000001954 ) ;
#13 = ORIENTED_EDGE ( 'NONE', *, *, #129, .T. ) ;
#14 = APPROVAL_DATE_TIME ( #218, #84 ) ;
#15 = EDGE_CURVE ( 'NONE', #338, #304, #142, .T. ) ;
#16 = SPHERICAL_SURFACE ( 'NONE', #297, 22.09999999999997300 ) ;
#17 = AXIS2_PLACEMENT_3D ( 'NONE', #286, #125, #149 ) ;
#18 = ORIENTED_EDGE ( 'NONE', *, *, #215, .T. ) ;
#19 = DIRECTION ( 'NONE',  ( 0.000000000000000000, 0.000000000000000000, 1.000000000000000000 ) ) ;
#20 = ORIENTED_EDGE ( 'NONE', *, *, #15, .F. ) ;
#21 = CC_DESIGN_PERSON_AND_ORGANIZATION_ASSIGNMENT ( #179, #322, ( #336 ) ) ;
#22 = ORIENTED_EDGE ( 'NONE', *, *, #224, .T. ) ;
#23 = EDGE_LOOP ( 'NONE', ( #87, #249 ) ) ;
#24 = AXIS2_PLACEMENT_3D ( 'NONE', #163, #193, #305 ) ;
#25 = CC_DESIGN_SECURITY_CLASSIFICATION ( #301, ( #162 ) ) ;
#26 = CARTESIAN_POINT ( 'NONE',  ( -2.000000000000001776, 0.000000000000000000, 14.00000000000002309 ) ) ;
#27 = EDGE_CURVE ( 'NONE', #94, #282, #233, .T. ) ;
#28 = CARTESIAN_POINT ( 'NONE',  ( -2.000000000000001776, 1.714505518806297202E-15, -14.00000000000002309 ) ) ;
#29 = AXIS2_PLACEMENT_3D ( 'NONE', #321, #335, #166 ) ;
#30 = CALENDAR_DATE ( 2024, 21, 9 ) ;
#31 = CYLINDRICAL_SURFACE ( 'NONE', #172, 12.50000000000001954 ) ;
#32 = APPROVAL_DATE_TIME ( #260, #307 ) ;
#33 = CARTESIAN_POINT ( 'NONE',  ( -154.8395502972293230, 1.714505518806296807E-15, -14.00000000000001954 ) ) ;
#34 = LINE ( 'NONE', #183, #71 ) ;
#35 = ORIENTED_EDGE ( 'NONE', *, *, #160, .F. ) ;
#36 = CARTESIAN_POINT ( 'NONE',  ( 0.000000000000000000, 1.714505518806296807E-15, -14.00000000000001954 ) ) ;
#37 = EDGE_CURVE ( 'NONE', #118, #304, #75, .T. ) ;
#38 = AXIS2_PLACEMENT_3D ( 'NONE', #228, #196, #320 ) ;
#39 = DATE_AND_TIME ( #274, #342 ) ;
#40 = VERTEX_POINT ( 'NONE', #28 ) ;
#41 = LINE ( 'NONE', #103, #267 ) ;
#42 = ORIENTED_EDGE ( 'NONE', *, *, #349, .T. ) ;
#43 = DIRECTION ( 'NONE',  ( -1.000000000000000000, 0.000000000000000000, -0.000000000000000000 ) ) ;
#44 = AXIS2_PLACEMENT_3D ( 'NONE', #293, #81, #250 ) ;
#45 = EDGE_LOOP ( 'NONE', ( #111, #337, #197, #247, #131 ) ) ;
#46 = EDGE_CURVE ( 'NONE', #139, #115, #319, .T. ) ;
#47 = ORIENTED_EDGE ( 'NONE', *, *, #215, .F. ) ;
#48 = VERTEX_POINT ( 'NONE', #50 ) ;
#49 = DIRECTION ( 'NONE',  ( 0.000000000000000000, 0.000000000000000000, 1.000000000000000000 ) ) ;
#50 = CARTESIAN_POINT ( 'NONE',  ( 0.000000000000000000, 0.000000000000000000, 14.00000000000001954 ) ) ;
#51 = CYLINDRICAL_SURFACE ( 'NONE', #98, 14.00000000000001954 ) ;
#52 = PERSON ( 'UNSPECIFIED', 'UNSPECIFIED', 'UNSPECIFIED', ('UNSPECIFIED'), ('UNSPECIFIED'), ('UNSPECIFIED') ) ;
#53 = AXIS2_PLACEMENT_3D ( 'NONE', #85, #62, #88 ) ;
#54 = CC_DESIGN_PERSON_AND_ORGANIZATION_ASSIGNMENT ( #107, #328, ( #162 ) ) ;
#55 = CARTESIAN_POINT ( 'NONE',  ( -154.8395502972293230, 0.000000000000000000, 0.000000000000000000 ) ) ;
#56 = CARTESIAN_POINT ( 'NONE',  ( -154.8395502972293230, 1.530808498934193888E-15, -12.50000000000001954 ) ) ;
#57 = FACE_OUTER_BOUND ( 'NONE', #276, .T. ) ;
#58 = ADVANCED_FACE ( 'NONE', ( #230 ), #258, .T. ) ;
#59 = CALENDAR_DATE ( 2024, 21, 9 ) ;
#60 = SECURITY_CLASSIFICATION_LEVEL ( 'unclassified' ) ;
#61 = CIRCLE ( 'NONE', #161, 14.00000000000002132 ) ;
#62 = DIRECTION ( 'NONE',  ( -1.000000000000000000, -0.000000000000000000, -0.000000000000000000 ) ) ;
#63 = ORIENTED_EDGE ( 'NONE', *, *, #340, .T. ) ;
#64 = DIRECTION ( 'NONE',  ( -1.000000000000000000, -0.000000000000000000, -0.000000000000000000 ) ) ;
#65 = ORIENTED_EDGE ( 'NONE', *, *, #129, .F. ) ;
#66 = CIRCLE ( 'NONE', #44, 11.50000000000002132 ) ;
#67 = ORIENTED_EDGE ( 'NONE', *, *, #27, .F. ) ;
#68 = ORIENTED_EDGE ( 'NONE', *, *, #327, .T. ) ;
#69 = EDGE_CURVE ( 'NONE', #170, #48, #309, .T. ) ;
#70 = DIRECTION ( 'NONE',  ( 0.000000000000000000, 0.000000000000000000, 1.000000000000000000 ) ) ;
#71 = VECTOR ( 'NONE', #64, 1000.000000000000000 ) ;
#72 = CARTESIAN_POINT ( 'NONE',  ( -2.000000000000001776, 0.000000000000000000, 0.000000000000000000 ) ) ;
#73 = PERSON_AND_ORGANIZATION ( #52, #86 ) ;
#74 = CARTESIAN_POINT ( 'NONE',  ( -2.775557561562891351E-14, 0.000000000000000000, 0.000000000000000000 ) ) ;
#75 = LINE ( 'NONE', #259, #256 ) ;
#76 = AXIS2_PLACEMENT_3D ( 'NONE', #184, #2, #100 ) ;
#77 = CALENDAR_DATE ( 2024, 21, 9 ) ;
#78 = DIRECTION ( 'NONE',  ( 0.000000000000000000, 1.000000000000000000, 0.000000000000000000 ) ) ;
#79 = CARTESIAN_POINT ( 'NONE',  ( 15.09999999999995346, 8.673617379884035472E-16, 0.000000000000000000 ) ) ;
#80 = DATE_AND_TIME ( #30, #190 ) ;
#81 = DIRECTION ( 'NONE',  ( -1.000000000000000000, -0.000000000000000000, -0.000000000000000000 ) ) ;
#82 = PERSON_AND_ORGANIZATION ( #52, #86 ) ;
#83 = CIRCLE ( 'NONE', #290, 11.50000000000002132 ) ;
#84 = APPROVAL ( #109, 'UNSPECIFIED' ) ;
#85 = CARTESIAN_POINT ( 'NONE',  ( 0.000000000000000000, 0.000000000000000000, 0.000000000000000000 ) ) ;
#86 = ORGANIZATION ( 'UNSPECIFIED', 'UNSPECIFIED', '' ) ;
#87 = ORIENTED_EDGE ( 'NONE', *, *, #317, .F. ) ;
#88 = DIRECTION ( 'NONE',  ( 0.000000000000000000, 0.000000000000000000, 1.000000000000000000 ) ) ;
#89 = VERTEX_POINT ( 'NONE', #96 ) ;
#90 = ORIENTED_EDGE ( 'NONE', *, *, #287, .F. ) ;
#91 = CC_DESIGN_PERSON_AND_ORGANIZATION_ASSIGNMENT ( #73, #289, ( #205 ) ) ;
#92 = UNCERTAINTY_MEASURE_WITH_UNIT (LENGTH_MEASURE( 1.000000000000000082E-05 ), #235, 'distance_accuracy_value', 'NONE');
#93 = EDGE_LOOP ( 'NONE', ( #90, #120, #13, #22 ) ) ;
#94 = VERTEX_POINT ( 'NONE', #318 ) ;
#95 = EDGE_CURVE ( 'NONE', #338, #282, #288, .T. ) ;
#96 = CARTESIAN_POINT ( 'NONE',  ( 7.999999999999979572, 0.000000000000000000, 11.50000000000002132 ) ) ;
#97 = CARTESIAN_POINT ( 'NONE',  ( -2.000000000000001776, 0.000000000000000000, 0.000000000000000000 ) ) ;
#98 = AXIS2_PLACEMENT_3D ( 'NONE', #152, #261, #275 ) ;
#99 = DIRECTION ( 'NONE',  ( -1.000000000000000000, -0.000000000000000000, -0.000000000000000000 ) ) ;
#100 = DIRECTION ( 'NONE',  ( 0.000000000000000000, 0.000000000000000000, 1.000000000000000000 ) ) ;
#101 = DIRECTION ( 'NONE',  ( 0.000000000000000000, 0.000000000000000000, 1.000000000000000000 ) ) ;
#102 = LOCAL_TIME ( 12, 14, 41.00000000000000000, #214 ) ;
#103 = CARTESIAN_POINT ( 'NONE',  ( 7.999999999999979572, 0.000000000000000000, 11.50000000000002132 ) ) ;
#104 = APPLICATION_PROTOCOL_DEFINITION ( 'international standard', 'config_control_design', 1994, #198 ) ;
#105 = LINE ( 'NONE', #33, #300 ) ;
#106 = ORIENTED_EDGE ( 'NONE', *, *, #224, .F. ) ;
#107 = PERSON_AND_ORGANIZATION ( #52, #86 ) ;
#108 = CIRCLE ( 'NONE', #325, 14.00000000000002132 ) ;
#109 = APPROVAL_STATUS ( 'not_yet_approved' ) ;
#110 = DIRECTION ( 'NONE',  ( 0.000000000000000000, 0.000000000000000000, 1.000000000000000000 ) ) ;
#111 = ORIENTED_EDGE ( 'NONE', *, *, #252, .F. ) ;
#112 = PERSON_AND_ORGANIZATION ( #52, #86 ) ;
#113 = PLANE ( 'NONE',  #186 ) ;
#114 = CIRCLE ( 'NONE', #213, 22.09999999999997300 ) ;
#115 = VERTEX_POINT ( 'NONE', #26 ) ;
#116 = APPLICATION_CONTEXT ( 'configuration controlled 3d designs of mechanical parts and assemblies' ) ;
#117 = VERTEX_POINT ( 'NONE', #312 ) ;
#118 = VERTEX_POINT ( 'NONE', #236 ) ;
#119 = CARTESIAN_POINT ( 'NONE',  ( 6.999999999999978684, 0.000000000000000000, 12.50000000000001954 ) ) ;
#120 = ORIENTED_EDGE ( 'NONE', *, *, #46, .T. ) ;
#121 = ADVANCED_FACE ( 'NONE', ( #285 ), #31, .T. ) ;
#122 = DIRECTION ( 'NONE',  ( -0.7071067811865482389, 8.659560562354925463E-17, -0.7071067811865469066 ) ) ;
#123 = CARTESIAN_POINT ( 'NONE',  ( 15.09999999999995346, 8.673617379884035472E-16, 0.000000000000000000 ) ) ;
#124 = CONICAL_SURFACE ( 'NONE', #341, 11.50000000000002132, 0.7853981633974473908 ) ;
#125 = DIRECTION ( 'NONE',  ( -1.000000000000000000, 0.000000000000000000, -0.000000000000000000 ) ) ;
#126 = DATE_TIME_ROLE ( 'creation_date' ) ;
#127 = DIRECTION ( 'NONE',  ( -0.7071067811865482389, 0.000000000000000000, 0.7071067811865469066 ) ) ;
#128 = AXIS2_PLACEMENT_3D ( 'NONE', #123, #234, #78 ) ;
#129 = EDGE_CURVE ( 'NONE', #115, #242, #61, .T. ) ;
#130 = CARTESIAN_POINT ( 'NONE',  ( 15.09999999999995346, 8.673617379884035472E-16, 0.000000000000000000 ) ) ;
#131 = ORIENTED_EDGE ( 'NONE', *, *, #295, .F. ) ;
#132 = MECHANICAL_CONTEXT ( 'NONE', #116, 'mechanical' ) ;
#133 = DIRECTION ( 'NONE',  ( 0.000000000000000000, 0.000000000000000000, 1.000000000000000000 ) ) ;
#134 = PERSON_AND_ORGANIZATION_ROLE ( 'classification_officer' ) ;
#135 = APPROVAL_PERSON_ORGANIZATION ( #262, #307, #175 ) ;
#136 = COORDINATED_UNIVERSAL_TIME_OFFSET ( 1, 0, .AHEAD. ) ;
#137 = EDGE_LOOP ( 'NONE', ( #194, #343, #171, #333 ) ) ;
#138 = FACE_OUTER_BOUND ( 'NONE', #254, .T. ) ;
#139 = VERTEX_POINT ( 'NONE', #176 ) ;
#140 = ADVANCED_FACE ( 'NONE', ( #291 ), #51, .T. ) ;
#141 = DIRECTION ( 'NONE',  ( -0.000000000000000000, 0.000000000000000000, 1.000000000000000000 ) ) ;
#142 = CIRCLE ( 'NONE', #189, 12.50000000000001954 ) ;
#143 = EDGE_LOOP ( 'NONE', ( #68, #268 ) ) ;
#144 = ORIENTED_EDGE ( 'NONE', *, *, #95, .T. ) ;
#145 = EDGE_LOOP ( 'NONE', ( #195, #251, #217, #310 ) ) ;
#146 = DESIGN_CONTEXT ( 'detailed design', #198, 'design' ) ;
#147 =( GEOMETRIC_REPRESENTATION_CONTEXT ( 3 ) GLOBAL_UNCERTAINTY_ASSIGNED_CONTEXT ( ( #92 ) ) GLOBAL_UNIT_ASSIGNED_CONTEXT ( ( #235, #270, #315 ) ) REPRESENTATION_CONTEXT ( 'NONE', 'WORKASPACE' ) );
#148 = DIRECTION ( 'NONE',  ( 0.000000000000000000, 0.000000000000000000, 1.000000000000000000 ) ) ;
#149 = DIRECTION ( 'NONE',  ( -0.000000000000000000, 0.000000000000000000, 1.000000000000000000 ) ) ;
#150 = DIRECTION ( 'NONE',  ( -1.000000000000000000, -0.000000000000000000, -0.000000000000000000 ) ) ;
#151 = ADVANCED_FACE ( 'NONE', ( #57 ), #16, .T. ) ;
#152 = CARTESIAN_POINT ( 'NONE',  ( -154.8395502972293230, 0.000000000000000000, 0.000000000000000000 ) ) ;
#153 = AXIS2_PLACEMENT_3D ( 'NONE', #72, #174, #70 ) ;
#154 = APPLICATION_PROTOCOL_DEFINITION ( 'international standard', 'config_control_design', 1994, #116 ) ;
#155 = FACE_OUTER_BOUND ( 'NONE', #23, .T. ) ;
#156 = DIRECTION ( 'NONE',  ( -0.000000000000000000, 0.000000000000000000, 1.000000000000000000 ) ) ;
#157 = AXIS2_PLACEMENT_3D ( 'NONE', #316, #344, #49 ) ;
#158 = DIRECTION ( 'NONE',  ( 1.000000000000000000, 0.000000000000000000, 0.000000000000000000 ) ) ;
#159 = DATE_AND_TIME ( #59, #348 ) ;
#160 = EDGE_CURVE ( 'NONE', #304, #94, #181, .T. ) ;
#161 = AXIS2_PLACEMENT_3D ( 'NONE', #97, #150, #101 ) ;
#162 = PRODUCT_DEFINITION_FORMATION_WITH_SPECIFIED_SOURCE ( 'ANY', '', #205, .NOT_KNOWN. ) ;
#163 = CARTESIAN_POINT ( 'NONE',  ( -2.775557561562891351E-14, 0.000000000000000000, 0.000000000000000000 ) ) ;
#164 = ORIENTED_EDGE ( 'NONE', *, *, #340, .F. ) ;
#165 = EDGE_CURVE ( 'NONE', #118, #89, #66, .T. ) ;
#166 = DIRECTION ( 'NONE',  ( 0.000000000000000000, 0.000000000000000000, 1.000000000000000000 ) ) ;
#167 = ORIENTED_EDGE ( 'NONE', *, *, #295, .T. ) ;
#168 = CIRCLE ( 'NONE', #219, 22.09999999999997300 ) ;
#169 = FACE_OUTER_BOUND ( 'NONE', #199, .T. ) ;
#170 = VERTEX_POINT ( 'NONE', #36 ) ;
#171 = ORIENTED_EDGE ( 'NONE', *, *, #327, .F. ) ;
#172 = AXIS2_PLACEMENT_3D ( 'NONE', #232, #99, #345 ) ;
#173 = ADVANCED_BREP_SHAPE_REPRESENTATION ( '3D_GR1392_DN28x1.5_18380140', ( #313, #239 ), #147 ) ;
#174 = DIRECTION ( 'NONE',  ( -1.000000000000000000, -0.000000000000000000, -0.000000000000000000 ) ) ;
#175 = APPROVAL_ROLE ( '' ) ;
#176 = CARTESIAN_POINT ( 'NONE',  ( -2.000000000000001776, -14.00000000000001599, -1.714505518806296413E-15 ) ) ;
#177 = CIRCLE ( 'NONE', #38, 14.00000000000002132 ) ;
#178 = CC_DESIGN_APPROVAL ( #180, ( #301 ) ) ;
#179 = PERSON_AND_ORGANIZATION ( #52, #86 ) ;
#180 = APPROVAL ( #188, 'UNSPECIFIED' ) ;
#181 = LINE ( 'NONE', #56, #346 ) ;
#182 = DIRECTION ( 'NONE',  ( 1.000000000000000000, 0.000000000000000000, 0.000000000000000000 ) ) ;
#183 = CARTESIAN_POINT ( 'NONE',  ( -154.8395502972293230, 0.000000000000000000, 14.00000000000001954 ) ) ;
#184 = CARTESIAN_POINT ( 'NONE',  ( 6.999999999999978684, 0.000000000000000000, 0.000000000000000000 ) ) ;
#185 = DIRECTION ( 'NONE',  ( -1.000000000000000000, -0.000000000000000000, -0.000000000000000000 ) ) ;
#186 = AXIS2_PLACEMENT_3D ( 'NONE', #271, #43, #156 ) ;
#187 = CC_DESIGN_APPROVAL ( #84, ( #162 ) ) ;
#188 = APPROVAL_STATUS ( 'not_yet_approved' ) ;
#189 = AXIS2_PLACEMENT_3D ( 'NONE', #202, #3, #148 ) ;
#190 = LOCAL_TIME ( 12, 14, 41.00000000000000000, #292 ) ;
#191 = CYLINDRICAL_SURFACE ( 'NONE', #279, 12.50000000000001954 ) ;
#192 = ORIENTED_EDGE ( 'NONE', *, *, #317, .T. ) ;
#193 = DIRECTION ( 'NONE',  ( -1.000000000000000000, -0.000000000000000000, -0.000000000000000000 ) ) ;
#194 = ORIENTED_EDGE ( 'NONE', *, *, #15, .T. ) ;
#195 = ORIENTED_EDGE ( 'NONE', *, *, #37, .F. ) ;
#196 = DIRECTION ( 'NONE',  ( -1.000000000000000000, -0.000000000000000000, -0.000000000000000000 ) ) ;
#197 = ORIENTED_EDGE ( 'NONE', *, *, #284, .T. ) ;
#198 = APPLICATION_CONTEXT ( 'configuration controlled 3d designs of mechanical parts and assemblies' ) ;
#199 = EDGE_LOOP ( 'NONE', ( #47, #283 ) ) ;
#200 = CARTESIAN_POINT ( 'NONE',  ( -154.8395502972293230, 0.000000000000000000, 12.50000000000001954 ) ) ;
#201 = VECTOR ( 'NONE', #350, 1000.000000000000000 ) ;
#202 = CARTESIAN_POINT ( 'NONE',  ( 6.999999999999978684, 0.000000000000000000, 0.000000000000000000 ) ) ;
#203 = CARTESIAN_POINT ( 'NONE',  ( -154.8395502972293230, 0.000000000000000000, 0.000000000000000000 ) ) ;
#204 = PLANE ( 'NONE',  #17 ) ;
#205 = PRODUCT ( '3D_GR1392_DN28x1.5_18380140', '3D_GR1392_DN28x1.5_18380140', '', ( #132 ) ) ;
#206 = CC_DESIGN_DATE_AND_TIME_ASSIGNMENT ( #39, #8, ( #301 ) ) ;
#207 = COORDINATED_UNIVERSAL_TIME_OFFSET ( 1, 0, .AHEAD. ) ;
#208 = APPROVAL_PERSON_ORGANIZATION ( #82, #180, #302 ) ;
#209 = DIRECTION ( 'NONE',  ( -1.000000000000000000, -0.000000000000000000, -0.000000000000000000 ) ) ;
#210 = DIRECTION ( 'NONE',  ( 0.000000000000000000, 0.000000000000000000, 1.000000000000000000 ) ) ;
#211 = PERSON_AND_ORGANIZATION_ROLE ( 'creator' ) ;
#212 = EDGE_CURVE ( 'NONE', #89, #338, #41, .T. ) ;
#213 = AXIS2_PLACEMENT_3D ( 'NONE', #130, #241, #7 ) ;
#214 = COORDINATED_UNIVERSAL_TIME_OFFSET ( 1, 0, .AHEAD. ) ;
#215 = EDGE_CURVE ( 'NONE', #89, #118, #83, .T. ) ;
#216 = CARTESIAN_POINT ( 'NONE',  ( 6.999999999999978684, 1.530808498934193888E-15, -12.50000000000001954 ) ) ;
#217 = ORIENTED_EDGE ( 'NONE', *, *, #212, .T. ) ;
#218 = DATE_AND_TIME ( #245, #102 ) ;
#219 = AXIS2_PLACEMENT_3D ( 'NONE', #79, #141, #158 ) ;
#220 = DIRECTION ( 'NONE',  ( 0.000000000000000000, 1.000000000000000000, 0.000000000000000000 ) ) ;
#221 = PRODUCT_DEFINITION_SHAPE ( 'NONE', 'NONE',  #336 ) ;
#222 = FACE_OUTER_BOUND ( 'NONE', #93, .T. ) ;
#223 = CARTESIAN_POINT ( 'NONE',  ( 15.09999999999995346, 8.673617379884035472E-16, 0.000000000000000000 ) ) ;
#224 = EDGE_CURVE ( 'NONE', #242, #117, #168, .T. ) ;
#225 = ORIENTED_EDGE ( 'NONE', *, *, #284, .F. ) ;
#226 = ORIENTED_EDGE ( 'NONE', *, *, #212, .F. ) ;
#227 = CLOSED_SHELL ( 'NONE', ( #280, #121, #58, #151, #4, #140, #246, #231, #269, #9 ) ) ;
#228 = CARTESIAN_POINT ( 'NONE',  ( -2.000000000000001776, 0.000000000000000000, 0.000000000000000000 ) ) ;
#229 = CIRCLE ( 'NONE', #76, 12.50000000000001954 ) ;
#230 = FACE_OUTER_BOUND ( 'NONE', #308, .T. ) ;
#231 = ADVANCED_FACE ( 'NONE', ( #138 ), #191, .T. ) ;
#232 = CARTESIAN_POINT ( 'NONE',  ( -154.8395502972293230, 0.000000000000000000, 0.000000000000000000 ) ) ;
#233 = CIRCLE ( 'NONE', #244, 12.50000000000001954 ) ;
#234 = DIRECTION ( 'NONE',  ( -0.000000000000000000, 0.000000000000000000, -1.000000000000000000 ) ) ;
#235 =( LENGTH_UNIT ( ) NAMED_UNIT ( * ) SI_UNIT ( .MILLI., .METRE. ) );
#236 = CARTESIAN_POINT ( 'NONE',  ( 7.999999999999979572, 1.469576158976826314E-15, -11.50000000000002132 ) ) ;
#237 = CC_DESIGN_PERSON_AND_ORGANIZATION_ASSIGNMENT ( #334, #211, ( #162 ) ) ;
#238 = DIRECTION ( 'NONE',  ( -1.000000000000000000, -0.000000000000000000, -0.000000000000000000 ) ) ;
#239 = AXIS2_PLACEMENT_3D ( 'NONE', #347, #351, #182 ) ;
#240 = CC_DESIGN_APPROVAL ( #307, ( #336 ) ) ;
#241 = DIRECTION ( 'NONE',  ( 0.000000000000000000, 1.224646799147353207E-16, -1.000000000000000000 ) ) ;
#242 = VERTEX_POINT ( 'NONE', #296 ) ;
#243 = CARTESIAN_POINT ( 'NONE',  ( -2.000000000000001776, 0.000000000000000000, 0.000000000000000000 ) ) ;
#244 = AXIS2_PLACEMENT_3D ( 'NONE', #74, #257, #314 ) ;
#245 = CALENDAR_DATE ( 2024, 21, 9 ) ;
#246 = ADVANCED_FACE ( 'NONE', ( #155, #265 ), #113, .F. ) ;
#247 = ORIENTED_EDGE ( 'NONE', *, *, #46, .F. ) ;
#248 = FACE_OUTER_BOUND ( 'NONE', #339, .T. ) ;
#249 = ORIENTED_EDGE ( 'NONE', *, *, #69, .F. ) ;
#250 = DIRECTION ( 'NONE',  ( 0.000000000000000000, 0.000000000000000000, 1.000000000000000000 ) ) ;
#251 = ORIENTED_EDGE ( 'NONE', *, *, #165, .T. ) ;
#252 = EDGE_CURVE ( 'NONE', #170, #40, #105, .T. ) ;
#253 = SPHERICAL_SURFACE ( 'NONE', #128, 22.09999999999997300 ) ;
#254 = EDGE_LOOP ( 'NONE', ( #35, #42, #144, #67 ) ) ;
#255 = CIRCLE ( 'NONE', #24, 12.50000000000001954 ) ;
#256 = VECTOR ( 'NONE', #122, 1000.000000000000000 ) ;
#257 = DIRECTION ( 'NONE',  ( -1.000000000000000000, -0.000000000000000000, -0.000000000000000000 ) ) ;
#258 = CYLINDRICAL_SURFACE ( 'NONE', #332, 14.00000000000001954 ) ;
#259 = CARTESIAN_POINT ( 'NONE',  ( 7.999999999999979572, 1.408343819019458740E-15, -11.50000000000002132 ) ) ;
#260 = DATE_AND_TIME ( #77, #326 ) ;
#261 = DIRECTION ( 'NONE',  ( -1.000000000000000000, -0.000000000000000000, -0.000000000000000000 ) ) ;
#262 = PERSON_AND_ORGANIZATION ( #52, #86 ) ;
#263 = DIRECTION ( 'NONE',  ( 0.000000000000000000, 0.000000000000000000, 1.000000000000000000 ) ) ;
#264 = APPROVAL_STATUS ( 'not_yet_approved' ) ;
#265 = FACE_BOUND ( 'NONE', #143, .T. ) ;
#266 = CARTESIAN_POINT ( 'NONE',  ( -2.775557561562891351E-14, 0.000000000000000000, 12.50000000000001954 ) ) ;
#267 = VECTOR ( 'NONE', #127, 1000.000000000000000 ) ;
#268 = ORIENTED_EDGE ( 'NONE', *, *, #27, .T. ) ;
#269 = ADVANCED_FACE ( 'NONE', ( #303 ), #124, .T. ) ;
#270 =( NAMED_UNIT ( * ) PLANE_ANGLE_UNIT ( ) SI_UNIT ( $, .RADIAN. ) );
#271 = CARTESIAN_POINT ( 'NONE',  ( -8.017941115868251155E-15, 12.50000000000001954, 0.000000000000000000 ) ) ;
#272 = APPROVAL_DATE_TIME ( #159, #180 ) ;
#273 = CC_DESIGN_PERSON_AND_ORGANIZATION_ASSIGNMENT ( #324, #134, ( #301 ) ) ;
#274 = CALENDAR_DATE ( 2024, 21, 9 ) ;
#275 = DIRECTION ( 'NONE',  ( 0.000000000000000000, 0.000000000000000000, 1.000000000000000000 ) ) ;
#276 = EDGE_LOOP ( 'NONE', ( #63, #167, #306, #106 ) ) ;
#277 = DIRECTION ( 'NONE',  ( -1.000000000000000000, -0.000000000000000000, -0.000000000000000000 ) ) ;
#278 = ORIENTED_EDGE ( 'NONE', *, *, #252, .T. ) ;
#279 = AXIS2_PLACEMENT_3D ( 'NONE', #55, #185, #19 ) ;
#280 = ADVANCED_FACE ( 'NONE', ( #248 ), #5, .T. ) ;
#281 = APPROVAL_PERSON_ORGANIZATION ( #112, #84, #298 ) ;
#282 = VERTEX_POINT ( 'NONE', #266 ) ;
#283 = ORIENTED_EDGE ( 'NONE', *, *, #165, .F. ) ;
#284 = EDGE_CURVE ( 'NONE', #48, #115, #34, .T. ) ;
#285 = FACE_OUTER_BOUND ( 'NONE', #137, .T. ) ;
#286 = CARTESIAN_POINT ( 'NONE',  ( 7.999999999999983125, 8.875796951589162995E-16, 0.000000000000000000 ) ) ;
#287 = EDGE_CURVE ( 'NONE', #139, #117, #114, .T. ) ;
#288 = LINE ( 'NONE', #200, #201 ) ;
#289 = PERSON_AND_ORGANIZATION_ROLE ( 'design_owner' ) ;
#290 = AXIS2_PLACEMENT_3D ( 'NONE', #331, #277, #210 ) ;
#291 = FACE_OUTER_BOUND ( 'NONE', #45, .T. ) ;
#292 = COORDINATED_UNIVERSAL_TIME_OFFSET ( 1, 0, .AHEAD. ) ;
#293 = CARTESIAN_POINT ( 'NONE',  ( 7.999999999999979572, 0.000000000000000000, 0.000000000000000000 ) ) ;
#294 = CARTESIAN_POINT ( 'NONE',  ( 7.999999999999979572, 0.000000000000000000, 0.000000000000000000 ) ) ;
#295 = EDGE_CURVE ( 'NONE', #40, #139, #108, .T. ) ;
#296 = CARTESIAN_POINT ( 'NONE',  ( -2.000000000000001776, 14.00000000000001599, 0.000000000000000000 ) ) ;
#297 = AXIS2_PLACEMENT_3D ( 'NONE', #223, #323, #220 ) ;
#298 = APPROVAL_ROLE ( '' ) ;
#299 = CC_DESIGN_DATE_AND_TIME_ASSIGNMENT ( #80, #126, ( #336 ) ) ;
#300 = VECTOR ( 'NONE', #238, 1000.000000000000000 ) ;
#301 = SECURITY_CLASSIFICATION ( '', '', #60 ) ;
#302 = APPROVAL_ROLE ( '' ) ;
#303 = FACE_OUTER_BOUND ( 'NONE', #145, .T. ) ;
#304 = VERTEX_POINT ( 'NONE', #216 ) ;
#305 = DIRECTION ( 'NONE',  ( 0.000000000000000000, 0.000000000000000000, 1.000000000000000000 ) ) ;
#306 = ORIENTED_EDGE ( 'NONE', *, *, #287, .T. ) ;
#307 = APPROVAL ( #264, 'UNSPECIFIED' ) ;
#308 = EDGE_LOOP ( 'NONE', ( #192, #278, #164, #65, #225 ) ) ;
#309 = CIRCLE ( 'NONE', #157, 14.00000000000001954 ) ;
#310 = ORIENTED_EDGE ( 'NONE', *, *, #349, .F. ) ;
#311 = ORIENTED_EDGE ( 'NONE', *, *, #37, .T. ) ;
#312 = CARTESIAN_POINT ( 'NONE',  ( -7.000000000000020428, 2.220596451046227250E-15, 0.000000000000000000 ) ) ;
#313 = MANIFOLD_SOLID_BREP ( 'Rotation1', #227 ) ;
#314 = DIRECTION ( 'NONE',  ( 0.000000000000000000, 0.000000000000000000, 1.000000000000000000 ) ) ;
#315 =( NAMED_UNIT ( * ) SI_UNIT ( $, .STERADIAN. ) SOLID_ANGLE_UNIT ( ) );
#316 = CARTESIAN_POINT ( 'NONE',  ( 0.000000000000000000, 0.000000000000000000, 0.000000000000000000 ) ) ;
#317 = EDGE_CURVE ( 'NONE', #48, #170, #12, .T. ) ;
#318 = CARTESIAN_POINT ( 'NONE',  ( -2.775557561562891351E-14, 1.530808498934193888E-15, -12.50000000000001954 ) ) ;
#319 = CIRCLE ( 'NONE', #153, 14.00000000000002132 ) ;
#320 = DIRECTION ( 'NONE',  ( 0.000000000000000000, 0.000000000000000000, 1.000000000000000000 ) ) ;
#321 = CARTESIAN_POINT ( 'NONE',  ( 7.999999999999979572, 0.000000000000000000, 0.000000000000000000 ) ) ;
#322 = PERSON_AND_ORGANIZATION_ROLE ( 'creator' ) ;
#323 = DIRECTION ( 'NONE',  ( -0.000000000000000000, 0.000000000000000000, -1.000000000000000000 ) ) ;
#324 = PERSON_AND_ORGANIZATION ( #52, #86 ) ;
#325 = AXIS2_PLACEMENT_3D ( 'NONE', #243, #10, #110 ) ;
#326 = LOCAL_TIME ( 12, 14, 41.00000000000000000, #207 ) ;
#327 = EDGE_CURVE ( 'NONE', #282, #94, #255, .T. ) ;
#328 = PERSON_AND_ORGANIZATION_ROLE ( 'design_supplier' ) ;
#329 = PRODUCT_RELATED_PRODUCT_CATEGORY ( 'detail', '', ( #205 ) ) ;
#330 = SHAPE_DEFINITION_REPRESENTATION ( #221, #173 ) ;
#331 = CARTESIAN_POINT ( 'NONE',  ( 7.999999999999979572, 0.000000000000000000, 0.000000000000000000 ) ) ;
#332 = AXIS2_PLACEMENT_3D ( 'NONE', #203, #1, #263 ) ;
#333 = ORIENTED_EDGE ( 'NONE', *, *, #95, .F. ) ;
#334 = PERSON_AND_ORGANIZATION ( #52, #86 ) ;
#335 = DIRECTION ( 'NONE',  ( -1.000000000000000000, -0.000000000000000000, -0.000000000000000000 ) ) ;
#336 = PRODUCT_DEFINITION ( 'UNKNOWN', '', #162, #146 ) ;
#337 = ORIENTED_EDGE ( 'NONE', *, *, #69, .T. ) ;
#338 = VERTEX_POINT ( 'NONE', #119 ) ;
#339 = EDGE_LOOP ( 'NONE', ( #18, #311, #20, #226 ) ) ;
#340 = EDGE_CURVE ( 'NONE', #242, #40, #177, .T. ) ;
#341 = AXIS2_PLACEMENT_3D ( 'NONE', #294, #209, #133 ) ;
#342 = LOCAL_TIME ( 12, 14, 41.00000000000000000, #11 ) ;
#343 = ORIENTED_EDGE ( 'NONE', *, *, #160, .T. ) ;
#344 = DIRECTION ( 'NONE',  ( -1.000000000000000000, -0.000000000000000000, -0.000000000000000000 ) ) ;
#345 = DIRECTION ( 'NONE',  ( 0.000000000000000000, 0.000000000000000000, 1.000000000000000000 ) ) ;
#346 = VECTOR ( 'NONE', #6, 1000.000000000000000 ) ;
#347 = CARTESIAN_POINT ( 'NONE',  ( 0.000000000000000000, 0.000000000000000000, 0.000000000000000000 ) ) ;
#348 = LOCAL_TIME ( 12, 14, 41.00000000000000000, #136 ) ;
#349 = EDGE_CURVE ( 'NONE', #304, #338, #229, .T. ) ;
#350 = DIRECTION ( 'NONE',  ( -1.000000000000000000, -0.000000000000000000, -0.000000000000000000 ) ) ;
#351 = DIRECTION ( 'NONE',  ( 0.000000000000000000, 0.000000000000000000, 1.000000000000000000 ) ) ;
ENDSEC;
END-ISO-10303-21;
