ISO-10303-21;
HEADER;
FILE_DESCRIPTION (( 'STEP AP203' ),
    '1' );
FILE_NAME ('11-0216-11_outokumpu.step',
    '2015-08-11T14:14:46',
    ( '' ),
    ( '' ),
    'SwSTEP 2.0',
    'SolidWorks 2008',
    '' );
FILE_SCHEMA (( 'CONFIG_CONTROL_DESIGN' ));
ENDSEC;

DATA;
#1 = CALENDAR_DATE ( 2015, 11, 8 ) ;
#2 = DATE_AND_TIME ( #1, #293 ) ;
#3 = CC_DESIGN_APPROVAL ( #297, ( #300 ) ) ;
#4 = APPROVAL_DATE_TIME ( #2, #297 ) ;
#5 = PERSON_AND_ORGANIZATION ( #285, #284 ) ;
#6 = CC_DESIGN_PERSON_AND_ORGANIZATION_ASSIGNMENT ( #5, #7, ( #129 ) ) ;
#7 = PERSON_AND_ORGANIZATION_ROLE ( 'classification_officer' ) ;
#8 = CC_DESIGN_PERSON_AND_ORGANIZATION_ASSIGNMENT ( #15, #14, ( #300 ) ) ;
#9 = DIRECTION ( 'NONE',  ( 0.0000000000000000000, -1.000000000000000000, 0.0000000000000000000 ) ) ;
#10 = DIRECTION ( 'NONE',  ( -0.0000000000000000000, -7.703719777548943400E-033, 1.000000000000000000 ) ) ;
#11 = CARTESIAN_POINT ( 'NONE',  ( 0.0000000000000000000, 1.925929944387236700E-031, -25.00000000000000700 ) ) ;
#12 = AXIS2_PLACEMENT_3D ( 'NONE', #11, #10, #9 ) ;
#13 = CIRCLE ( 'NONE', #12, 45.47648845300643200 ) ;
#14 = PERSON_AND_ORGANIZATION_ROLE ( 'creator' ) ;
#15 = PERSON_AND_ORGANIZATION ( #285, #284 ) ;
#16 = CARTESIAN_POINT ( 'NONE',  ( 5.381165239966291100E-015, -43.94200000000000000, -23.46551154699358900 ) ) ;
#17 = CARTESIAN_POINT ( 'NONE',  ( 5.569079670908164500E-015, -45.47648845300643200, -25.00000000000000700 ) ) ;
#18 = DIRECTION ( 'NONE',  ( 8.659274570719393600E-017, -0.7071067811865506800, -0.7071067811865443500 ) ) ;
#19 = VECTOR ( 'NONE', #18, 1000.000000000000000 ) ;
#20 = CARTESIAN_POINT ( 'NONE',  ( 5.569079670908164500E-015, -45.47648845300643200, -25.00000000000000700 ) ) ;
#21 = LINE ( 'NONE', #20, #19 ) ;
#22 = CARTESIAN_POINT ( 'NONE',  ( 0.0000000000000000000, 43.94200000000000000, -23.46551154699358900 ) ) ;
#23 = DIRECTION ( 'NONE',  ( 0.0000000000000000000, -1.000000000000000000, 0.0000000000000000000 ) ) ;
#24 = DIRECTION ( 'NONE',  ( -0.0000000000000000000, -7.703719777548943400E-033, 1.000000000000000000 ) ) ;
#25 = CARTESIAN_POINT ( 'NONE',  ( 0.0000000000000000000, 1.807717253948776100E-031, -23.46551154699358900 ) ) ;
#26 = AXIS2_PLACEMENT_3D ( 'NONE', #25, #24, #23 ) ;
#27 = CIRCLE ( 'NONE', #26, 43.94200000000000000 ) ;
#28 = ADVANCED_FACE ( 'NONE', ( #67 ), #128, .F. ) ;
#29 = EDGE_LOOP ( 'NONE', ( #30, #154, #156, #157 ) ) ;
#30 = ORIENTED_EDGE ( 'NONE', *, *, #38, .F. ) ;
#31 = EDGE_LOOP ( 'NONE', ( #152, #103, #146, #39 ) ) ;
#32 = ADVANCED_FACE ( 'NONE', ( #127 ), #121, .F. ) ;
#33 = EDGE_LOOP ( 'NONE', ( #36, #37, #150, #151 ) ) ;
#34 = EDGE_LOOP ( 'NONE', ( #35, #51 ) ) ;
#35 = ORIENTED_EDGE ( 'NONE', *, *, #102, .F. ) ;
#36 = ORIENTED_EDGE ( 'NONE', *, *, #55, .T. ) ;
#37 = ORIENTED_EDGE ( 'NONE', *, *, #38, .T. ) ;
#38 = EDGE_CURVE ( 'NONE', #186, #64, #117, .T. ) ;
#39 = ORIENTED_EDGE ( 'NONE', *, *, #40, .F. ) ;
#40 = EDGE_CURVE ( 'NONE', #149, #148, #113, .T. ) ;
#41 = EDGE_CURVE ( 'NONE', #101, #42, #109, .T. ) ;
#42 = VERTEX_POINT ( 'NONE', #105 ) ;
#43 = ORIENTED_EDGE ( 'NONE', *, *, #48, .T. ) ;
#44 = VERTEX_POINT ( 'NONE', #104 ) ;
#45 = EDGE_CURVE ( 'NONE', #50, #44, #145, .T. ) ;
#46 = ORIENTED_EDGE ( 'NONE', *, *, #45, .T. ) ;
#47 = ORIENTED_EDGE ( 'NONE', *, *, #182, .F. ) ;
#48 = EDGE_CURVE ( 'NONE', #44, #49, #141, .T. ) ;
#49 = VERTEX_POINT ( 'NONE', #136 ) ;
#50 = VERTEX_POINT ( 'NONE', #135 ) ;
#51 = ORIENTED_EDGE ( 'NONE', *, *, #95, .F. ) ;
#52 = ADVANCED_FACE ( 'NONE', ( #134 ), #132, .F. ) ;
#53 = EDGE_LOOP ( 'NONE', ( #54, #46, #43, #47 ) ) ;
#54 = ORIENTED_EDGE ( 'NONE', *, *, #55, .F. ) ;
#55 = EDGE_CURVE ( 'NONE', #50, #186, #175, .T. ) ;
#56 = EDGE_CURVE ( 'NONE', #61, #59, #170, .T. ) ;
#57 = ORIENTED_EDGE ( 'NONE', *, *, #58, .F. ) ;
#58 = EDGE_CURVE ( 'NONE', #59, #63, #166, .T. ) ;
#59 = VERTEX_POINT ( 'NONE', #161 ) ;
#60 = EDGE_CURVE ( 'NONE', #61, #64, #27, .T. ) ;
#61 = VERTEX_POINT ( 'NONE', #22 ) ;
#62 = EDGE_CURVE ( 'NONE', #64, #63, #21, .T. ) ;
#63 = VERTEX_POINT ( 'NONE', #17 ) ;
#64 = VERTEX_POINT ( 'NONE', #16 ) ;
#65 = ORIENTED_EDGE ( 'NONE', *, *, #62, .T. ) ;
#66 = ORIENTED_EDGE ( 'NONE', *, *, #60, .T. ) ;
#67 = FACE_OUTER_BOUND ( 'NONE', #29, .T. ) ;
#68 = ORIENTED_EDGE ( 'NONE', *, *, #69, .T. ) ;
#69 = EDGE_CURVE ( 'NONE', #63, #59, #13, .T. ) ;
#70 = EDGE_CURVE ( 'NONE', #42, #148, #278, .T. ) ;
#71 = EDGE_LOOP ( 'NONE', ( #72, #74 ) ) ;
#72 = ORIENTED_EDGE ( 'NONE', *, *, #73, .F. ) ;
#73 = EDGE_CURVE ( 'NONE', #49, #44, #229, .T. ) ;
#74 = ORIENTED_EDGE ( 'NONE', *, *, #48, .F. ) ;
#75 = ADVANCED_FACE ( 'NONE', ( #230 ), #187, .T. ) ;
#76 = EDGE_LOOP ( 'NONE', ( #77, #78, #79, #96 ) ) ;
#77 = ORIENTED_EDGE ( 'NONE', *, *, #41, .F. ) ;
#78 = ORIENTED_EDGE ( 'NONE', *, *, #95, .T. ) ;
#79 = ORIENTED_EDGE ( 'NONE', *, *, #40, .T. ) ;
#80 = ORIENTED_EDGE ( 'NONE', *, *, #182, .T. ) ;
#81 = ORIENTED_EDGE ( 'NONE', *, *, #73, .T. ) ;
#82 = ADVANCED_FACE ( 'NONE', ( #188 ), #212, .F. ) ;
#83 = EDGE_LOOP ( 'NONE', ( #84, #85, #86, #87 ) ) ;
#84 = ORIENTED_EDGE ( 'NONE', *, *, #62, .F. ) ;
#85 = ORIENTED_EDGE ( 'NONE', *, *, #158, .T. ) ;
#86 = ORIENTED_EDGE ( 'NONE', *, *, #56, .T. ) ;
#87 = ORIENTED_EDGE ( 'NONE', *, *, #69, .F. ) ;
#88 = CLOSED_SHELL ( 'NONE', ( #181, #52, #153, #32, #28, #159, #91, #75, #97, #82 ) ) ;
#89 = ORIENTED_EDGE ( 'NONE', *, *, #70, .T. ) ;
#90 = EDGE_LOOP ( 'NONE', ( #94, #68 ) ) ;
#91 = ADVANCED_FACE ( 'NONE', ( #268, #264 ), #263, .F. ) ;
#92 = EDGE_LOOP ( 'NONE', ( #93, #89 ) ) ;
#93 = ORIENTED_EDGE ( 'NONE', *, *, #147, .T. ) ;
#94 = ORIENTED_EDGE ( 'NONE', *, *, #58, .T. ) ;
#95 = EDGE_CURVE ( 'NONE', #101, #149, #254, .T. ) ;
#96 = ORIENTED_EDGE ( 'NONE', *, *, #70, .F. ) ;
#97 = ADVANCED_FACE ( 'NONE', ( #240 ), #239, .F. ) ;
#98 = EDGE_LOOP ( 'NONE', ( #99, #100, #80, #81 ) ) ;
#99 = ORIENTED_EDGE ( 'NONE', *, *, #45, .F. ) ;
#100 = ORIENTED_EDGE ( 'NONE', *, *, #155, .F. ) ;
#101 = VERTEX_POINT ( 'NONE', #233 ) ;
#102 = EDGE_CURVE ( 'NONE', #149, #101, #221, .T. ) ;
#103 = ORIENTED_EDGE ( 'NONE', *, *, #41, .T. ) ;
#104 = CARTESIAN_POINT ( 'NONE',  ( 5.569079670908122700E-015, 45.47648845300608400, -2.171708526495664800E-016 ) ) ;
#105 = CARTESIAN_POINT ( 'NONE',  ( 5.816880180656292000E-015, 47.50000000000000000, -1.925929944387237500E-032 ) ) ;
#106 = DIRECTION ( 'NONE',  ( -0.0000000000000000000, -7.703719777548943400E-033, 1.000000000000000000 ) ) ;
#107 = VECTOR ( 'NONE', #106, 1000.000000000000000 ) ;
#108 = CARTESIAN_POINT ( 'NONE',  ( 5.816880180656292000E-015, 47.50000000000000000, -4.336808689942013800E-016 ) ) ;
#109 = LINE ( 'NONE', #108, #107 ) ;
#110 = DIRECTION ( 'NONE',  ( -0.0000000000000000000, -7.703719777548943400E-033, 1.000000000000000000 ) ) ;
#111 = VECTOR ( 'NONE', #110, 1000.000000000000000 ) ;
#112 = CARTESIAN_POINT ( 'NONE',  ( 0.0000000000000000000, -47.50000000000000000, -4.336808689942021700E-016 ) ) ;
#113 = LINE ( 'NONE', #112, #111 ) ;
#114 = DIRECTION ( 'NONE',  ( -0.0000000000000000000, 2.171552732235745800E-016, -1.000000000000000000 ) ) ;
#115 = VECTOR ( 'NONE', #114, 1000.000000000000000 ) ;
#116 = CARTESIAN_POINT ( 'NONE',  ( 5.381165239966289500E-015, -43.94199999999999300, -25.00000000000017400 ) ) ;
#117 = LINE ( 'NONE', #116, #115 ) ;
#118 = DIRECTION ( 'NONE',  ( 0.0000000000000000000, 1.000000000000000000, 2.368654329766702600E-016 ) ) ;
#119 = DIRECTION ( 'NONE',  ( -0.0000000000000000000, 2.171552732235745800E-016, -1.000000000000000000 ) ) ;
#120 = AXIS2_PLACEMENT_3D ( 'NONE', #126, #119, #118 ) ;
#121 = CYLINDRICAL_SURFACE ( 'NONE', #120, 43.94199999999999300 ) ;
#122 = DIRECTION ( 'NONE',  ( 0.0000000000000000000, 1.000000000000000000, 2.368654329766702600E-016 ) ) ;
#123 = DIRECTION ( 'NONE',  ( -0.0000000000000000000, 2.171552732235745800E-016, -1.000000000000000000 ) ) ;
#124 = CARTESIAN_POINT ( 'NONE',  ( 0.0000000000000000000, 1.959434878635785200E-015, -25.00000000000016300 ) ) ;
#125 = AXIS2_PLACEMENT_3D ( 'NONE', #124, #123, #122 ) ;
#126 = CARTESIAN_POINT ( 'NONE',  ( 0.0000000000000000000, 1.959434878635785200E-015, -25.00000000000016300 ) ) ;
#127 = FACE_OUTER_BOUND ( 'NONE', #33, .T. ) ;
#128 = CYLINDRICAL_SURFACE ( 'NONE', #125, 43.94199999999999300 ) ;
#129 = SECURITY_CLASSIFICATION ( '', '', #130 ) ;
#130 = SECURITY_CLASSIFICATION_LEVEL ( 'unclassified' ) ;
#131 = CC_DESIGN_PERSON_AND_ORGANIZATION_ASSIGNMENT ( #185, #184, ( #300 ) ) ;
#132 = CONICAL_SURFACE ( 'NONE', #178, 43.94200000000000000, 0.7853981633974553800 ) ;
#133 = CARTESIAN_POINT ( 'NONE',  ( 0.0000000000000000000, 1.182126904384328800E-032, -1.534488453006063200 ) ) ;
#134 = FACE_OUTER_BOUND ( 'NONE', #53, .T. ) ;
#135 = CARTESIAN_POINT ( 'NONE',  ( 0.0000000000000000000, 43.94200000000000000, -1.534488453006063200 ) ) ;
#136 = CARTESIAN_POINT ( 'NONE',  ( 0.0000000000000000000, -45.47648845300608400, -2.171708526495664800E-016 ) ) ;
#137 = DIRECTION ( 'NONE',  ( 0.0000000000000000000, -1.000000000000000000, -7.411252533626250700E-033 ) ) ;
#138 = DIRECTION ( 'NONE',  ( -0.0000000000000000000, -7.703719777548943400E-033, 1.000000000000000000 ) ) ;
#139 = CARTESIAN_POINT ( 'NONE',  ( 0.0000000000000000000, -1.667932494951612300E-048, -2.171708526495664800E-016 ) ) ;
#140 = AXIS2_PLACEMENT_3D ( 'NONE', #139, #138, #137 ) ;
#141 = CIRCLE ( 'NONE', #140, 45.47648845300608400 ) ;
#142 = DIRECTION ( 'NONE',  ( 8.659274570719417000E-017, 0.7071067811865525700, 0.7071067811865425800 ) ) ;
#143 = VECTOR ( 'NONE', #142, 1000.000000000000000 ) ;
#144 = CARTESIAN_POINT ( 'NONE',  ( 5.381165239966290300E-015, 43.94200000000000000, -1.534488453006063200 ) ) ;
#145 = LINE ( 'NONE', #144, #143 ) ;
#146 = ORIENTED_EDGE ( 'NONE', *, *, #147, .F. ) ;
#147 = EDGE_CURVE ( 'NONE', #148, #42, #260, .T. ) ;
#148 = VERTEX_POINT ( 'NONE', #256 ) ;
#149 = VERTEX_POINT ( 'NONE', #236 ) ;
#150 = ORIENTED_EDGE ( 'NONE', *, *, #60, .F. ) ;
#151 = ORIENTED_EDGE ( 'NONE', *, *, #160, .F. ) ;
#152 = ORIENTED_EDGE ( 'NONE', *, *, #102, .T. ) ;
#153 = ADVANCED_FACE ( 'NONE', ( #235 ), #277, .T. ) ;
#154 = ORIENTED_EDGE ( 'NONE', *, *, #155, .T. ) ;
#155 = EDGE_CURVE ( 'NONE', #186, #50, #273, .T. ) ;
#156 = ORIENTED_EDGE ( 'NONE', *, *, #160, .T. ) ;
#157 = ORIENTED_EDGE ( 'NONE', *, *, #158, .F. ) ;
#158 = EDGE_CURVE ( 'NONE', #64, #61, #250, .T. ) ;
#159 = ADVANCED_FACE ( 'NONE', ( #251, #245 ), #244, .F. ) ;
#160 = EDGE_CURVE ( 'NONE', #50, #61, #208, .T. ) ;
#161 = CARTESIAN_POINT ( 'NONE',  ( 0.0000000000000000000, 45.47648845300643200, -25.00000000000000700 ) ) ;
#162 = DIRECTION ( 'NONE',  ( 0.0000000000000000000, -1.000000000000000000, 0.0000000000000000000 ) ) ;
#163 = DIRECTION ( 'NONE',  ( -0.0000000000000000000, -7.703719777548943400E-033, 1.000000000000000000 ) ) ;
#164 = CARTESIAN_POINT ( 'NONE',  ( 0.0000000000000000000, 1.925929944387236700E-031, -25.00000000000000700 ) ) ;
#165 = AXIS2_PLACEMENT_3D ( 'NONE', #164, #163, #162 ) ;
#166 = CIRCLE ( 'NONE', #165, 45.47648845300643200 ) ;
#167 = DIRECTION ( 'NONE',  ( 0.0000000000000000000, 0.7071067811865506800, -0.7071067811865443500 ) ) ;
#168 = VECTOR ( 'NONE', #167, 1000.000000000000000 ) ;
#169 = CARTESIAN_POINT ( 'NONE',  ( 0.0000000000000000000, 45.47648845300643200, -25.00000000000000700 ) ) ;
#170 = LINE ( 'NONE', #169, #168 ) ;
#171 = DIRECTION ( 'NONE',  ( 0.0000000000000000000, -1.000000000000000000, 0.0000000000000000000 ) ) ;
#172 = DIRECTION ( 'NONE',  ( -0.0000000000000000000, -7.703719777548943400E-033, 1.000000000000000000 ) ) ;
#173 = CARTESIAN_POINT ( 'NONE',  ( 0.0000000000000000000, 1.182126904384328800E-032, -1.534488453006063200 ) ) ;
#174 = AXIS2_PLACEMENT_3D ( 'NONE', #173, #172, #171 ) ;
#175 = CIRCLE ( 'NONE', #174, 43.94200000000000000 ) ;
#176 = DIRECTION ( 'NONE',  ( 0.0000000000000000000, -1.000000000000000000, 0.0000000000000000000 ) ) ;
#177 = DIRECTION ( 'NONE',  ( -0.0000000000000000000, -7.703719777548943400E-033, 1.000000000000000000 ) ) ;
#178 = AXIS2_PLACEMENT_3D ( 'NONE', #133, #177, #176 ) ;
#179 = ORIENTED_EDGE ( 'NONE', *, *, #56, .F. ) ;
#180 = EDGE_LOOP ( 'NONE', ( #66, #65, #57, #179 ) ) ;
#181 = ADVANCED_FACE ( 'NONE', ( #204 ), #203, .F. ) ;
#182 = EDGE_CURVE ( 'NONE', #186, #49, #198, .T. ) ;
#183 = MANIFOLD_SOLID_BREP ( 'NONE', #88 ) ;
#184 = PERSON_AND_ORGANIZATION_ROLE ( 'design_supplier' ) ;
#185 = PERSON_AND_ORGANIZATION ( #285, #284 ) ;
#186 = VERTEX_POINT ( 'NONE', #194 ) ;
#187 = CYLINDRICAL_SURFACE ( 'NONE', #224, 47.50000000000000000 ) ;
#188 = FACE_OUTER_BOUND ( 'NONE', #83, .T. ) ;
#189 = APPLICATION_PROTOCOL_DEFINITION ( 'international standard', 'config_control_design', 1994, #190 ) ;
#190 = APPLICATION_CONTEXT ( 'configuration controlled 3d designs of mechanical parts and assemblies' ) ;
#191 = CC_DESIGN_PERSON_AND_ORGANIZATION_ASSIGNMENT ( #193, #192, ( #286 ) ) ;
#192 = PERSON_AND_ORGANIZATION_ROLE ( 'design_owner' ) ;
#193 = PERSON_AND_ORGANIZATION ( #285, #284 ) ;
#194 = CARTESIAN_POINT ( 'NONE',  ( 5.381165239966291100E-015, -43.94200000000000000, -1.534488453006063200 ) ) ;
#195 = DIRECTION ( 'NONE',  ( 0.0000000000000000000, -0.7071067811865525700, 0.7071067811865425800 ) ) ;
#196 = VECTOR ( 'NONE', #195, 1000.000000000000000 ) ;
#197 = CARTESIAN_POINT ( 'NONE',  ( 0.0000000000000000000, -43.94200000000000000, -1.534488453006063200 ) ) ;
#198 = LINE ( 'NONE', #197, #196 ) ;
#199 = DIRECTION ( 'NONE',  ( 0.0000000000000000000, 1.000000000000000000, 0.0000000000000000000 ) ) ;
#200 = DIRECTION ( 'NONE',  ( 0.0000000000000000000, 7.703719777548943400E-033, -1.000000000000000000 ) ) ;
#201 = CARTESIAN_POINT ( 'NONE',  ( 0.0000000000000000000, 1.925929944387236700E-031, -25.00000000000000700 ) ) ;
#202 = AXIS2_PLACEMENT_3D ( 'NONE', #201, #200, #199 ) ;
#203 = CONICAL_SURFACE ( 'NONE', #202, 45.47648845300643200, 0.7853981633974528300 ) ;
#204 = FACE_OUTER_BOUND ( 'NONE', #180, .T. ) ;
#205 = DIRECTION ( 'NONE',  ( -0.0000000000000000000, 2.171552732235745800E-016, -1.000000000000000000 ) ) ;
#206 = VECTOR ( 'NONE', #205, 1000.000000000000000 ) ;
#207 = CARTESIAN_POINT ( 'NONE',  ( 0.0000000000000000000, 43.94199999999999300, -25.00000000000015300 ) ) ;
#208 = LINE ( 'NONE', #207, #206 ) ;
#209 = DIRECTION ( 'NONE',  ( 0.0000000000000000000, -1.000000000000000000, -7.703719777548943400E-033 ) ) ;
#210 = DIRECTION ( 'NONE',  ( 0.0000000000000000000, -7.703719777548943400E-033, 1.000000000000000000 ) ) ;
#211 = CARTESIAN_POINT ( 'NONE',  ( 0.0000000000000000000, 47.50000000000000000, -25.00000000000000400 ) ) ;
#212 = CONICAL_SURFACE ( 'NONE', #213, 45.47648845300643200, 0.7853981633974528300 ) ;
#213 = AXIS2_PLACEMENT_3D ( 'NONE', #267, #266, #265 ) ;
#214 = DIRECTION ( 'NONE',  ( 0.0000000000000000000, -1.000000000000000000, -8.109178713209414700E-033 ) ) ;
#215 = DIRECTION ( 'NONE',  ( 0.0000000000000000000, 7.703719777548943400E-033, -1.000000000000000000 ) ) ;
#216 = AXIS2_PLACEMENT_3D ( 'NONE', #262, #215, #255 ) ;
#217 = DIRECTION ( 'NONE',  ( 0.0000000000000000000, -1.000000000000000000, 0.0000000000000000000 ) ) ;
#218 = DIRECTION ( 'NONE',  ( -0.0000000000000000000, -7.703719777548943400E-033, 1.000000000000000000 ) ) ;
#219 = CARTESIAN_POINT ( 'NONE',  ( 0.0000000000000000000, 1.925929944387236700E-031, -25.00000000000000700 ) ) ;
#220 = AXIS2_PLACEMENT_3D ( 'NONE', #219, #218, #217 ) ;
#221 = CIRCLE ( 'NONE', #220, 47.50000000000000000 ) ;
#222 = CARTESIAN_POINT ( 'NONE',  ( 0.0000000000000000000, -3.340955887615241500E-048, -3.851859888774471700E-031 ) ) ;
#223 = DIRECTION ( 'NONE',  ( -0.0000000000000000000, -7.703719777548943400E-033, 1.000000000000000000 ) ) ;
#224 = AXIS2_PLACEMENT_3D ( 'NONE', #225, #223, #214 ) ;
#225 = CARTESIAN_POINT ( 'NONE',  ( 0.0000000000000000000, 0.0000000000000000000, -4.336808689942017700E-016 ) ) ;
#226 = DIRECTION ( 'NONE',  ( 0.0000000000000000000, -1.000000000000000000, -7.703719777548943400E-033 ) ) ;
#227 = DIRECTION ( 'NONE',  ( -0.0000000000000000000, -7.703719777548943400E-033, 1.000000000000000000 ) ) ;
#228 = CARTESIAN_POINT ( 'NONE',  ( 0.0000000000000000000, -3.340955887615241500E-048, -3.851859888774471700E-031 ) ) ;
#229 = CIRCLE ( 'NONE', #282, 45.47648845300608400 ) ;
#230 = FACE_OUTER_BOUND ( 'NONE', #76, .T. ) ;
#231 = DIRECTION ( 'NONE',  ( 0.0000000000000000000, -1.000000000000000000, 0.0000000000000000000 ) ) ;
#232 = DIRECTION ( 'NONE',  ( -0.0000000000000000000, -7.703719777548943400E-033, 1.000000000000000000 ) ) ;
#233 = CARTESIAN_POINT ( 'NONE',  ( 5.816880180656292000E-015, 47.50000000000000000, -25.00000000000000700 ) ) ;
#234 = CARTESIAN_POINT ( 'NONE',  ( 0.0000000000000000000, 0.0000000000000000000, -4.336808689942017700E-016 ) ) ;
#235 = FACE_OUTER_BOUND ( 'NONE', #31, .T. ) ;
#236 = CARTESIAN_POINT ( 'NONE',  ( 0.0000000000000000000, -47.50000000000000000, -25.00000000000000700 ) ) ;
#237 = CARTESIAN_POINT ( 'NONE',  ( 0.0000000000000000000, 1.182126904384328800E-032, -1.534488453006063200 ) ) ;
#238 = AXIS2_PLACEMENT_3D ( 'NONE', #237, #232, #231 ) ;
#239 = CONICAL_SURFACE ( 'NONE', #238, 43.94200000000000000, 0.7853981633974553800 ) ;
#240 = FACE_OUTER_BOUND ( 'NONE', #98, .T. ) ;
#241 = DIRECTION ( 'NONE',  ( 0.0000000000000000000, -1.000000000000000000, 0.0000000000000000000 ) ) ;
#242 = DIRECTION ( 'NONE',  ( -0.0000000000000000000, -7.703719777548943400E-033, 1.000000000000000000 ) ) ;
#243 = AXIS2_PLACEMENT_3D ( 'NONE', #211, #210, #209 ) ;
#244 = PLANE ( 'NONE',  #243 ) ;
#245 = FACE_BOUND ( 'NONE', #90, .T. ) ;
#246 = DIRECTION ( 'NONE',  ( 0.0000000000000000000, -1.000000000000000000, 0.0000000000000000000 ) ) ;
#247 = DIRECTION ( 'NONE',  ( -0.0000000000000000000, -7.703719777548943400E-033, 1.000000000000000000 ) ) ;
#248 = CARTESIAN_POINT ( 'NONE',  ( 0.0000000000000000000, 1.807717253948776100E-031, -23.46551154699358900 ) ) ;
#249 = AXIS2_PLACEMENT_3D ( 'NONE', #248, #247, #246 ) ;
#250 = CIRCLE ( 'NONE', #249, 43.94200000000000000 ) ;
#251 = FACE_OUTER_BOUND ( 'NONE', #34, .T. ) ;
#252 = CARTESIAN_POINT ( 'NONE',  ( 0.0000000000000000000, 1.925929944387236700E-031, -25.00000000000000700 ) ) ;
#253 = AXIS2_PLACEMENT_3D ( 'NONE', #252, #242, #241 ) ;
#254 = CIRCLE ( 'NONE', #253, 47.50000000000000000 ) ;
#255 = DIRECTION ( 'NONE',  ( 0.0000000000000000000, 1.000000000000000000, 7.703719777548943400E-033 ) ) ;
#256 = CARTESIAN_POINT ( 'NONE',  ( 0.0000000000000000000, -47.50000000000000000, -7.511126783110219800E-031 ) ) ;
#257 = DIRECTION ( 'NONE',  ( 0.0000000000000000000, -1.000000000000000000, -7.703719777548943400E-033 ) ) ;
#258 = DIRECTION ( 'NONE',  ( -0.0000000000000000000, -7.703719777548943400E-033, 1.000000000000000000 ) ) ;
#259 = AXIS2_PLACEMENT_3D ( 'NONE', #222, #258, #257 ) ;
#260 = CIRCLE ( 'NONE', #259, 47.50000000000000000 ) ;
#261 = AXIS2_PLACEMENT_3D ( 'NONE', #228, #227, #226 ) ;
#262 = CARTESIAN_POINT ( 'NONE',  ( 0.0000000000000000000, 47.50000000000000000, -2.168404344971006900E-016 ) ) ;
#263 = PLANE ( 'NONE',  #216 ) ;
#264 = FACE_BOUND ( 'NONE', #71, .T. ) ;
#265 = DIRECTION ( 'NONE',  ( 0.0000000000000000000, 1.000000000000000000, 0.0000000000000000000 ) ) ;
#266 = DIRECTION ( 'NONE',  ( 0.0000000000000000000, 7.703719777548943400E-033, -1.000000000000000000 ) ) ;
#267 = CARTESIAN_POINT ( 'NONE',  ( 0.0000000000000000000, 1.925929944387236700E-031, -25.00000000000000700 ) ) ;
#268 = FACE_OUTER_BOUND ( 'NONE', #92, .T. ) ;
#269 = DIRECTION ( 'NONE',  ( 0.0000000000000000000, -1.000000000000000000, 0.0000000000000000000 ) ) ;
#270 = DIRECTION ( 'NONE',  ( -0.0000000000000000000, -7.703719777548943400E-033, 1.000000000000000000 ) ) ;
#271 = CARTESIAN_POINT ( 'NONE',  ( 0.0000000000000000000, 1.182126904384328800E-032, -1.534488453006063200 ) ) ;
#272 = AXIS2_PLACEMENT_3D ( 'NONE', #271, #270, #269 ) ;
#273 = CIRCLE ( 'NONE', #272, 43.94200000000000000 ) ;
#274 = DIRECTION ( 'NONE',  ( 0.0000000000000000000, -1.000000000000000000, -8.109178713209414700E-033 ) ) ;
#275 = DIRECTION ( 'NONE',  ( -0.0000000000000000000, -7.703719777548943400E-033, 1.000000000000000000 ) ) ;
#276 = AXIS2_PLACEMENT_3D ( 'NONE', #234, #275, #274 ) ;
#277 = CYLINDRICAL_SURFACE ( 'NONE', #276, 47.50000000000000000 ) ;
#278 = CIRCLE ( 'NONE', #261, 47.50000000000000000 ) ;
#279 = DIRECTION ( 'NONE',  ( 0.0000000000000000000, -1.000000000000000000, -7.411252533626250700E-033 ) ) ;
#280 = DIRECTION ( 'NONE',  ( -0.0000000000000000000, -7.703719777548943400E-033, 1.000000000000000000 ) ) ;
#281 = CARTESIAN_POINT ( 'NONE',  ( 0.0000000000000000000, -1.667932494951612300E-048, -2.171708526495664800E-016 ) ) ;
#282 = AXIS2_PLACEMENT_3D ( 'NONE', #281, #280, #279 ) ;
#283 = DIRECTION ( 'NONE',  ( 1.000000000000000000, 0.0000000000000000000, 0.0000000000000000000 ) ) ;
#284 = ORGANIZATION ( 'UNSPECIFIED', 'UNSPECIFIED', '' ) ;
#285 = PERSON ( 'UNSPECIFIED', 'UNSPECIFIED', 'UNSPECIFIED', ('UNSPECIFIED'), ('UNSPECIFIED'), ('UNSPECIFIED') ) ;
#286 = PRODUCT ( '11-0216-11_outokumpu', '11-0216-11_outokumpu', '', ( #287 ) ) ;
#287 = MECHANICAL_CONTEXT ( 'NONE', #325, 'mechanical' ) ;
#288 = APPLICATION_PROTOCOL_DEFINITION ( 'international standard', 'config_control_design', 1994, #325 ) ;
#289 =( NAMED_UNIT ( * ) SI_UNIT ( $, .STERADIAN. ) SOLID_ANGLE_UNIT ( ) );
#290 =( NAMED_UNIT ( * ) PLANE_ANGLE_UNIT ( ) SI_UNIT ( $, .RADIAN. ) );
#291 =( LENGTH_UNIT ( ) NAMED_UNIT ( * ) SI_UNIT ( .MILLI., .METRE. ) );
#292 = CARTESIAN_POINT ( 'NONE',  ( 0.0000000000000000000, 0.0000000000000000000, 0.0000000000000000000 ) ) ;
#293 = LOCAL_TIME ( 16, 14, 46.00000000000000000, #294 ) ;
#294 = COORDINATED_UNIVERSAL_TIME_OFFSET ( 1, 0, .AHEAD. ) ;
#295 = APPROVAL_PERSON_ORGANIZATION ( #299, #297, #296 ) ;
#296 = APPROVAL_ROLE ( '' ) ;
#297 = APPROVAL ( #298, 'UNSPECIFIED' ) ;
#298 = APPROVAL_STATUS ( 'not_yet_approved' ) ;
#299 = PERSON_AND_ORGANIZATION ( #285, #284 ) ;
#300 = PRODUCT_DEFINITION_FORMATION_WITH_SPECIFIED_SOURCE ( 'ANY', '', #286, .NOT_KNOWN. ) ;
#301 = CC_DESIGN_DATE_AND_TIME_ASSIGNMENT ( #303, #302, ( #321 ) ) ;
#302 = DATE_TIME_ROLE ( 'creation_date' ) ;
#303 = DATE_AND_TIME ( #304, #305 ) ;
#304 = CALENDAR_DATE ( 2015, 11, 8 ) ;
#305 = LOCAL_TIME ( 16, 14, 46.00000000000000000, #306 ) ;
#306 = COORDINATED_UNIVERSAL_TIME_OFFSET ( 1, 0, .AHEAD. ) ;
#307 = CC_DESIGN_PERSON_AND_ORGANIZATION_ASSIGNMENT ( #309, #308, ( #321 ) ) ;
#308 = PERSON_AND_ORGANIZATION_ROLE ( 'creator' ) ;
#309 = PERSON_AND_ORGANIZATION ( #285, #284 ) ;
#310 = CC_DESIGN_APPROVAL ( #318, ( #321 ) ) ;
#311 = APPROVAL_DATE_TIME ( #312, #318 ) ;
#312 = DATE_AND_TIME ( #313, #314 ) ;
#313 = CALENDAR_DATE ( 2015, 11, 8 ) ;
#314 = LOCAL_TIME ( 16, 14, 46.00000000000000000, #315 ) ;
#315 = COORDINATED_UNIVERSAL_TIME_OFFSET ( 1, 0, .AHEAD. ) ;
#316 = APPROVAL_PERSON_ORGANIZATION ( #320, #318, #317 ) ;
#317 = APPROVAL_ROLE ( '' ) ;
#318 = APPROVAL ( #319, 'UNSPECIFIED' ) ;
#319 = APPROVAL_STATUS ( 'not_yet_approved' ) ;
#320 = PERSON_AND_ORGANIZATION ( #285, #284 ) ;
#321 = PRODUCT_DEFINITION ( 'UNKNOWN', '', #300, #322 ) ;
#322 = DESIGN_CONTEXT ( 'detailed design', #190, 'design' ) ;
#323 = DIRECTION ( 'NONE',  ( 0.0000000000000000000, 0.0000000000000000000, 1.000000000000000000 ) ) ;
#324 = AXIS2_PLACEMENT_3D ( 'NONE', #292, #323, #283 ) ;
#325 = APPLICATION_CONTEXT ( 'configuration controlled 3d designs of mechanical parts and assemblies' ) ;
#326 = ADVANCED_BREP_SHAPE_REPRESENTATION ( '11-0216-11_outokumpu', ( #183, #324 ), #327 ) ;
#327 =( GEOMETRIC_REPRESENTATION_CONTEXT ( 3 ) GLOBAL_UNCERTAINTY_ASSIGNED_CONTEXT ( ( #328 ) ) GLOBAL_UNIT_ASSIGNED_CONTEXT ( ( #291, #290, #289 ) ) REPRESENTATION_CONTEXT ( 'NONE', 'WORKASPACE' ) );
#328 = UNCERTAINTY_MEASURE_WITH_UNIT (LENGTH_MEASURE( 1.000000000000000100E-005 ), #291, 'distance_accuracy_value', 'NONE');
#329 = LOCAL_TIME ( 16, 14, 46.00000000000000000, #330 ) ;
#330 = COORDINATED_UNIVERSAL_TIME_OFFSET ( 1, 0, .AHEAD. ) ;
#331 = APPROVAL_PERSON_ORGANIZATION ( #349, #336, #335 ) ;
#332 = DATE_AND_TIME ( #333, #343 ) ;
#333 = CALENDAR_DATE ( 2015, 11, 8 ) ;
#334 = DATE_AND_TIME ( #339, #329 ) ;
#335 = APPROVAL_ROLE ( '' ) ;
#336 = APPROVAL ( #348, 'UNSPECIFIED' ) ;
#337 = CC_DESIGN_APPROVAL ( #336, ( #129 ) ) ;
#338 = APPROVAL_DATE_TIME ( #334, #336 ) ;
#339 = CALENDAR_DATE ( 2015, 11, 8 ) ;
#340 = PRODUCT_DEFINITION_SHAPE ( 'NONE', 'NONE',  #321 ) ;
#341 = DATE_TIME_ROLE ( 'classification_date' ) ;
#342 = PRODUCT_RELATED_PRODUCT_CATEGORY ( 'detail', '', ( #286 ) ) ;
#343 = LOCAL_TIME ( 16, 14, 46.00000000000000000, #345 ) ;
#344 = CC_DESIGN_DATE_AND_TIME_ASSIGNMENT ( #332, #341, ( #129 ) ) ;
#345 = COORDINATED_UNIVERSAL_TIME_OFFSET ( 1, 0, .AHEAD. ) ;
#346 = SHAPE_DEFINITION_REPRESENTATION ( #340, #326 ) ;
#347 = CC_DESIGN_SECURITY_CLASSIFICATION ( #129, ( #300 ) ) ;
#348 = APPROVAL_STATUS ( 'not_yet_approved' ) ;
#349 = PERSON_AND_ORGANIZATION ( #285, #284 ) ;
ENDSEC;
END-ISO-10303-21;
