ISO-10303-21;
HEADER;
FILE_DESCRIPTION (( 'STEP AP203' ),
    '1' );
FILE_NAME ('3D_R175_DN26.9x2_17336170.STEP',
    '2024-07-18T10:00:27',
    ( '' ),
    ( '' ),
    'SwSTEP 2.0',
    'SolidWorks 2024',
    '' );
FILE_SCHEMA (( 'CONFIG_CONTROL_DESIGN' ));
ENDSEC;

DATA;
#1 = SPHERICAL_SURFACE ( 'NONE', #132, 17.51999999999999247 ) ;
#2 = PERSON_AND_ORGANIZATION ( #81, #369 ) ;
#3 = DIRECTION ( 'NONE',  ( -1.000000000000000000, 0.000000000000000000, 0.000000000000000000 ) ) ;
#4 = EDGE_CURVE ( 'NONE', #145, #115, #185, .T. ) ;
#5 = APPROVAL_STATUS ( 'not_yet_approved' ) ;
#6 = DIRECTION ( 'NONE',  ( 4.596983092540343816E-18, 1.000000000000000000, -0.000000000000000000 ) ) ;
#7 = VECTOR ( 'NONE', #97, 1000.000000000000000 ) ;
#8 = AXIS2_PLACEMENT_3D ( 'NONE', #9, #395, #10 ) ;
#9 = CARTESIAN_POINT ( 'NONE',  ( -1.421144051446094685E-34, -3.091471129733380708E-17, 0.000000000000000000 ) ) ;
#10 = DIRECTION ( 'NONE',  ( 1.000000000000000000, -4.596983092540343816E-18, 0.000000000000000000 ) ) ;
#11 = CARTESIAN_POINT ( 'NONE',  ( 1.162523706019506408E-15, 13.99999999999999645, 0.000000000000000000 ) ) ;
#12 = DIRECTION ( 'NONE',  ( 4.596983092540343816E-18, 1.000000000000000000, -0.000000000000000000 ) ) ;
#13 = CARTESIAN_POINT ( 'NONE',  ( 11.41500000000000270, 7.724734802932069933, 1.397934321226703783E-15 ) ) ;
#14 = ADVANCED_FACE ( 'NONE', ( #285 ), #187, .T. ) ;
#15 = CARTESIAN_POINT ( 'NONE',  ( 9.236488298952508525E-16, 0.000000000000000000, 0.000000000000000000 ) ) ;
#16 = EDGE_CURVE ( 'NONE', #332, #111, #173, .T. ) ;
#17 = APPROVAL_PERSON_ORGANIZATION ( #34, #54, #61 ) ;
#18 = DIRECTION ( 'NONE',  ( -1.000000000000000000, 0.000000000000000000, 0.000000000000000000 ) ) ;
#19 = EDGE_LOOP ( 'NONE', ( #213, #211, #90, #56 ) ) ;
#20 = FACE_OUTER_BOUND ( 'NONE', #175, .T. ) ;
#21 = ORIENTED_EDGE ( 'NONE', *, *, #126, .F. ) ;
#22 = ORIENTED_EDGE ( 'NONE', *, *, #284, .T. ) ;
#23 = CIRCLE ( 'NONE', #92, 13.44999999999999929 ) ;
#24 = FACE_OUTER_BOUND ( 'NONE', #366, .T. ) ;
#25 = AXIS2_PLACEMENT_3D ( 'NONE', #118, #110, #371 ) ;
#26 = ORIENTED_EDGE ( 'NONE', *, *, #163, .T. ) ;
#27 = DIRECTION ( 'NONE',  ( 0.000000000000000000, 0.000000000000000000, 1.000000000000000000 ) ) ;
#28 = ORIENTED_EDGE ( 'NONE', *, *, #155, .T. ) ;
#29 = PRODUCT ( '3D_R175_DN26.9x2_17336170', '3D_R175_DN26.9x2_17336170', '', ( #365 ) ) ;
#30 = DATE_AND_TIME ( #95, #108 ) ;
#31 = CARTESIAN_POINT ( 'NONE',  ( -11.44999999999998685, 2817.965330118411202, 0.000000000000000000 ) ) ;
#32 = AXIS2_PLACEMENT_3D ( 'NONE', #45, #208, #239 ) ;
#33 = DIRECTION ( 'NONE',  ( -1.000000000000000000, 0.000000000000000000, 0.000000000000000000 ) ) ;
#34 = PERSON_AND_ORGANIZATION ( #81, #369 ) ;
#35 = FACE_OUTER_BOUND ( 'NONE', #233, .T. ) ;
#36 = PRODUCT_DEFINITION_SHAPE ( 'NONE', 'NONE',  #221 ) ;
#37 = AXIS2_PLACEMENT_3D ( 'NONE', #13, #133, #229 ) ;
#38 = AXIS2_PLACEMENT_3D ( 'NONE', #217, #315, #3 ) ;
#39 = EDGE_CURVE ( 'NONE', #196, #84, #318, .T. ) ;
#40 = DIRECTION ( 'NONE',  ( -1.224646799147353207E-16, 5.629680630014033300E-34, 1.000000000000000000 ) ) ;
#41 = DIRECTION ( 'NONE',  ( 4.596983092540343816E-18, 1.000000000000000000, -0.000000000000000000 ) ) ;
#42 = CARTESIAN_POINT ( 'NONE',  ( 2.329053570084339879E-15, 7.751246997275952566, 0.000000000000000000 ) ) ;
#43 = CARTESIAN_POINT ( 'NONE',  ( 11.43784958535886176, 7.751246997275952566, 1.401476586703790135E-15 ) ) ;
#44 = EDGE_CURVE ( 'NONE', #51, #271, #382, .T. ) ;
#45 = CARTESIAN_POINT ( 'NONE',  ( 1.387778780781445676E-14, 2817.965330118411202, 0.000000000000000000 ) ) ;
#46 = APPLICATION_PROTOCOL_DEFINITION ( 'international standard', 'config_control_design', 1994, #263 ) ;
#47 = VERTEX_POINT ( 'NONE', #215 ) ;
#48 = CIRCLE ( 'NONE', #37, 0.03499999999999683920 ) ;
#49 = DIRECTION ( 'NONE',  ( -1.000000000000000000, 0.000000000000000000, 0.000000000000000000 ) ) ;
#50 = ADVANCED_FACE ( 'NONE', ( #35 ), #313, .T. ) ;
#51 = VERTEX_POINT ( 'NONE', #67 ) ;
#52 =( NAMED_UNIT ( * ) SI_UNIT ( $, .STERADIAN. ) SOLID_ANGLE_UNIT ( ) );
#53 = ORIENTED_EDGE ( 'NONE', *, *, #66, .T. ) ;
#54 = APPROVAL ( #186, 'UNSPECIFIED' ) ;
#55 = CARTESIAN_POINT ( 'NONE',  ( -13.44999999999999929, 7.724734802931898514, 0.000000000000000000 ) ) ;
#56 = ORIENTED_EDGE ( 'NONE', *, *, #16, .F. ) ;
#57 = CIRCLE ( 'NONE', #363, 13.44999999999999929 ) ;
#58 = AXIS2_PLACEMENT_3D ( 'NONE', #170, #273, #374 ) ;
#59 = ORIENTED_EDGE ( 'NONE', *, *, #184, .T. ) ;
#60 = CIRCLE ( 'NONE', #199, 2.034999999999997033 ) ;
#61 = APPROVAL_ROLE ( '' ) ;
#62 = CARTESIAN_POINT ( 'NONE',  ( -11.44999999999999751, 7.724734802932067268, 0.000000000000000000 ) ) ;
#63 = PERSON_AND_ORGANIZATION ( #81, #369 ) ;
#64 = EDGE_LOOP ( 'NONE', ( #26, #142, #21, #327 ) ) ;
#65 = SECURITY_CLASSIFICATION_LEVEL ( 'unclassified' ) ;
#66 = EDGE_CURVE ( 'NONE', #115, #84, #410, .T. ) ;
#67 = CARTESIAN_POINT ( 'NONE',  ( 13.45000000000000107, -6.182942259466762648E-17, 1.647149944853189991E-15 ) ) ;
#68 = CARTESIAN_POINT ( 'NONE',  ( 9.591593051786869709E-16, 7.724734802931898514, 0.000000000000000000 ) ) ;
#69 = CARTESIAN_POINT ( 'NONE',  ( 11.45000000000000107, -5.263545640958693885E-17, 1.402220585023719497E-15 ) ) ;
#70 = DIRECTION ( 'NONE',  ( 4.596983092540343816E-18, 1.000000000000000000, -0.000000000000000000 ) ) ;
#71 = TOROIDAL_SURFACE ( 'NONE', #25, 11.41500000000000092, 2.034999999999997478 ) ;
#72 = DIRECTION ( 'NONE',  ( -1.000000000000000000, 0.000000000000000000, 0.000000000000000000 ) ) ;
#73 = ORIENTED_EDGE ( 'NONE', *, *, #106, .T. ) ;
#74 = CARTESIAN_POINT ( 'NONE',  ( 1.734723475976807094E-15, 7.724734802932069933, 0.000000000000000000 ) ) ;
#75 = DIRECTION ( 'NONE',  ( -1.000000000000000000, 4.596983092540344586E-18, 0.000000000000000000 ) ) ;
#76 = ADVANCED_FACE ( 'NONE', ( #128 ), #1, .F. ) ;
#77 = TOROIDAL_SURFACE ( 'NONE', #308, 11.41500000000000092, 2.034999999999997478 ) ;
#78 = TOROIDAL_SURFACE ( 'NONE', #93, 11.41500000000000092, 0.03499999999999726941 ) ;
#79 = CLOSED_SHELL ( 'NONE', ( #76, #295, #319, #50, #268, #119, #209, #403, #299, #14, #329, #224, #254 ) ) ;
#80 = CARTESIAN_POINT ( 'NONE',  ( 11.41500000000000270, 7.724734802932069933, 1.397934321226703783E-15 ) ) ;
#81 = PERSON ( 'UNSPECIFIED', 'UNSPECIFIED', 'UNSPECIFIED', ('UNSPECIFIED'), ('UNSPECIFIED'), ('UNSPECIFIED') ) ;
#82 = PERSON_AND_ORGANIZATION_ROLE ( 'design_owner' ) ;
#83 = ORIENTED_EDGE ( 'NONE', *, *, #235, .T. ) ;
#84 = VERTEX_POINT ( 'NONE', #62 ) ;
#85 = AXIS2_PLACEMENT_3D ( 'NONE', #192, #154, #387 ) ;
#86 =( NAMED_UNIT ( * ) PLANE_ANGLE_UNIT ( ) SI_UNIT ( $, .RADIAN. ) );
#87 = ORIENTED_EDGE ( 'NONE', *, *, #126, .T. ) ;
#88 = EDGE_LOOP ( 'NONE', ( #364, #183 ) ) ;
#89 = COORDINATED_UNIVERSAL_TIME_OFFSET ( 1, 0, .AHEAD. ) ;
#90 = ORIENTED_EDGE ( 'NONE', *, *, #259, .T. ) ;
#91 = CC_DESIGN_DATE_AND_TIME_ASSIGNMENT ( #30, #314, ( #221 ) ) ;
#92 = AXIS2_PLACEMENT_3D ( 'NONE', #257, #392, #294 ) ;
#93 = AXIS2_PLACEMENT_3D ( 'NONE', #253, #102, #223 ) ;
#94 = DIRECTION ( 'NONE',  ( -1.000000000000000000, 0.000000000000000000, 0.000000000000000000 ) ) ;
#95 = CALENDAR_DATE ( 2024, 18, 7 ) ;
#96 = ORIENTED_EDGE ( 'NONE', *, *, #149, .F. ) ;
#97 = DIRECTION ( 'NONE',  ( 4.596983092540343816E-18, 1.000000000000000000, -0.000000000000000000 ) ) ;
#98 = CALENDAR_DATE ( 2024, 18, 7 ) ;
#99 = CARTESIAN_POINT ( 'NONE',  ( 1.387778780781445676E-14, 2817.965330118411202, 0.000000000000000000 ) ) ;
#100 = CC_DESIGN_APPROVAL ( #113, ( #207 ) ) ;
#101 = DIRECTION ( 'NONE',  ( 1.000000000000000000, -4.596983092540344586E-18, 0.000000000000000000 ) ) ;
#102 = DIRECTION ( 'NONE',  ( 4.596983092540343816E-18, 1.000000000000000000, -0.000000000000000000 ) ) ;
#103 = DIRECTION ( 'NONE',  ( 0.000000000000000000, 0.000000000000000000, 1.000000000000000000 ) ) ;
#104 = AXIS2_PLACEMENT_3D ( 'NONE', #288, #381, #101 ) ;
#105 = AXIS2_PLACEMENT_3D ( 'NONE', #331, #178, #151 ) ;
#106 = EDGE_CURVE ( 'NONE', #177, #409, #230, .T. ) ;
#107 = DIRECTION ( 'NONE',  ( 4.596983092540343816E-18, 1.000000000000000000, -0.000000000000000000 ) ) ;
#108 = LOCAL_TIME ( 12, 0, 27.00000000000000000, #181 ) ;
#109 = AXIS2_PLACEMENT_3D ( 'NONE', #134, #41, #168 ) ;
#110 = DIRECTION ( 'NONE',  ( 4.596983092540343816E-18, 1.000000000000000000, -0.000000000000000000 ) ) ;
#111 = VERTEX_POINT ( 'NONE', #131 ) ;
#112 = ORIENTED_EDGE ( 'NONE', *, *, #346, .F. ) ;
#113 = APPROVAL ( #129, 'UNSPECIFIED' ) ;
#114 = DIRECTION ( 'NONE',  ( 1.000000000000000000, -4.596983092540344586E-18, 0.000000000000000000 ) ) ;
#115 = VERTEX_POINT ( 'NONE', #386 ) ;
#116 = DIRECTION ( 'NONE',  ( -1.000000000000000000, 0.000000000000000000, 0.000000000000000000 ) ) ;
#117 = EDGE_LOOP ( 'NONE', ( #120, #238 ) ) ;
#118 = CARTESIAN_POINT ( 'NONE',  ( 1.734723475976807094E-15, 7.724734802932069933, 0.000000000000000000 ) ) ;
#119 = ADVANCED_FACE ( 'NONE', ( #383 ), #352, .T. ) ;
#120 = ORIENTED_EDGE ( 'NONE', *, *, #163, .F. ) ;
#121 = DATE_AND_TIME ( #241, #309 ) ;
#122 = DIRECTION ( 'NONE',  ( -1.000000000000000000, 0.000000000000000000, 0.000000000000000000 ) ) ;
#123 = DATE_AND_TIME ( #98, #368 ) ;
#124 = CC_DESIGN_APPROVAL ( #54, ( #343 ) ) ;
#125 = DIRECTION ( 'NONE',  ( -0.000000000000000000, 0.000000000000000000, -1.000000000000000000 ) ) ;
#126 = EDGE_CURVE ( 'NONE', #307, #271, #57, .T. ) ;
#127 = DIRECTION ( 'NONE',  ( -1.000000000000000000, 0.000000000000000000, 0.000000000000000000 ) ) ;
#128 = FACE_OUTER_BOUND ( 'NONE', #159, .T. ) ;
#129 = APPROVAL_STATUS ( 'not_yet_approved' ) ;
#130 = CIRCLE ( 'NONE', #85, 19.51999999999999602 ) ;
#131 = CARTESIAN_POINT ( 'NONE',  ( -12.74354017729482180, 9.266229531211589432, 0.000000000000000000 ) ) ;
#132 = AXIS2_PLACEMENT_3D ( 'NONE', #189, #280, #127 ) ;
#133 = DIRECTION ( 'NONE',  ( -1.224646799147353207E-16, 5.629680630014033300E-34, 1.000000000000000000 ) ) ;
#134 = CARTESIAN_POINT ( 'NONE',  ( 9.662455303818288816E-16, 9.266229531211589432, 0.000000000000000000 ) ) ;
#135 = PLANE ( 'NONE',  #8 ) ;
#136 = CIRCLE ( 'NONE', #344, 17.51999999999999247 ) ;
#137 = EDGE_CURVE ( 'NONE', #145, #196, #281, .T. ) ;
#138 = LINE ( 'NONE', #198, #180 ) ;
#139 = APPROVAL ( #5, 'UNSPECIFIED' ) ;
#140 = DIRECTION ( 'NONE',  ( -1.000000000000000000, 0.000000000000000000, 0.000000000000000000 ) ) ;
#141 =( LENGTH_UNIT ( ) NAMED_UNIT ( * ) SI_UNIT ( .MILLI., .METRE. ) );
#142 = ORIENTED_EDGE ( 'NONE', *, *, #44, .T. ) ;
#143 = CIRCLE ( 'NONE', #232, 13.44999999999999929 ) ;
#144 = AXIS2_PLACEMENT_3D ( 'NONE', #42, #258, #140 ) ;
#145 = VERTEX_POINT ( 'NONE', #69 ) ;
#146 = CYLINDRICAL_SURFACE ( 'NONE', #378, 13.44999999999999929 ) ;
#147 = ORIENTED_EDGE ( 'NONE', *, *, #16, .T. ) ;
#148 = ORIENTED_EDGE ( 'NONE', *, *, #284, .F. ) ;
#149 = EDGE_CURVE ( 'NONE', #332, #206, #130, .T. ) ;
#150 = CC_DESIGN_PERSON_AND_ORGANIZATION_ASSIGNMENT ( #320, #190, ( #221 ) ) ;
#151 = DIRECTION ( 'NONE',  ( -1.000000000000000000, 0.000000000000000000, 0.000000000000000000 ) ) ;
#152 = ORIENTED_EDGE ( 'NONE', *, *, #231, .T. ) ;
#153 = CALENDAR_DATE ( 2024, 18, 7 ) ;
#154 = DIRECTION ( 'NONE',  ( -1.224646799147353207E-16, 5.629680630014033300E-34, 1.000000000000000000 ) ) ;
#155 = EDGE_CURVE ( 'NONE', #267, #409, #136, .T. ) ;
#156 = ORIENTED_EDGE ( 'NONE', *, *, #379, .F. ) ;
#157 = APPROVAL_DATE_TIME ( #161, #54 ) ;
#158 = AXIS2_PLACEMENT_3D ( 'NONE', #176, #203, #306 ) ;
#159 = EDGE_LOOP ( 'NONE', ( #304, #28, #204 ) ) ;
#160 = CARTESIAN_POINT ( 'NONE',  ( 11.45000000000001350, 2817.965330118411202, 1.402220585023719497E-15 ) ) ;
#161 = DATE_AND_TIME ( #347, #350 ) ;
#162 = CARTESIAN_POINT ( 'NONE',  ( 2.268045872020935223E-15, -5.519999999999998685, 0.000000000000000000 ) ) ;
#163 = EDGE_CURVE ( 'NONE', #47, #51, #310, .T. ) ;
#164 = TOROIDAL_SURFACE ( 'NONE', #291, 11.41500000000000092, 0.03499999999999726941 ) ;
#165 = FACE_OUTER_BOUND ( 'NONE', #19, .T. ) ;
#166 = CC_DESIGN_SECURITY_CLASSIFICATION ( #207, ( #343 ) ) ;
#167 = FACE_BOUND ( 'NONE', #88, .T. ) ;
#168 = DIRECTION ( 'NONE',  ( -1.000000000000000000, 0.000000000000000000, 0.000000000000000000 ) ) ;
#169 = CARTESIAN_POINT ( 'NONE',  ( 9.591593051786869709E-16, 7.724734802931898514, 0.000000000000000000 ) ) ;
#170 = CARTESIAN_POINT ( 'NONE',  ( -11.41499999999999915, 7.724734802932069933, 0.000000000000000000 ) ) ;
#171 = CARTESIAN_POINT ( 'NONE',  ( 12.74354017729482713, 9.266229531211589432, 1.603891756823085158E-15 ) ) ;
#172 = ORIENTED_EDGE ( 'NONE', *, *, #44, .F. ) ;
#173 = CIRCLE ( 'NONE', #38, 12.74354017729482358 ) ;
#174 = CARTESIAN_POINT ( 'NONE',  ( 2.268045872020935223E-15, -5.519999999999998685, 0.000000000000000000 ) ) ;
#175 = EDGE_LOOP ( 'NONE', ( #172, #83, #302, #336 ) ) ;
#176 = CARTESIAN_POINT ( 'NONE',  ( 1.387778780781445676E-14, 2817.965330118411202, 0.000000000000000000 ) ) ;
#177 = VERTEX_POINT ( 'NONE', #290 ) ;
#178 = DIRECTION ( 'NONE',  ( 4.596983092540343816E-18, 1.000000000000000000, -0.000000000000000000 ) ) ;
#179 = ORIENTED_EDGE ( 'NONE', *, *, #39, .F. ) ;
#180 = VECTOR ( 'NONE', #107, 1000.000000000000000 ) ;
#181 = COORDINATED_UNIVERSAL_TIME_OFFSET ( 1, 0, .AHEAD. ) ;
#182 = CIRCLE ( 'NONE', #144, 11.43784958535885998 ) ;
#183 = ORIENTED_EDGE ( 'NONE', *, *, #137, .T. ) ;
#184 = EDGE_CURVE ( 'NONE', #177, #267, #182, .T. ) ;
#185 = LINE ( 'NONE', #160, #300 ) ;
#186 = APPROVAL_STATUS ( 'not_yet_approved' ) ;
#187 = SPHERICAL_SURFACE ( 'NONE', #355, 19.51999999999999602 ) ;
#188 = COORDINATED_UNIVERSAL_TIME_OFFSET ( 1, 0, .AHEAD. ) ;
#189 = CARTESIAN_POINT ( 'NONE',  ( 2.268045872020935223E-15, -5.519999999999998685, 0.000000000000000000 ) ) ;
#190 = PERSON_AND_ORGANIZATION_ROLE ( 'creator' ) ;
#191 = DIRECTION ( 'NONE',  ( 0.000000000000000000, 0.000000000000000000, 1.000000000000000000 ) ) ;
#192 = CARTESIAN_POINT ( 'NONE',  ( 2.268045872020935223E-15, -5.519999999999998685, 0.000000000000000000 ) ) ;
#193 = AXIS2_PLACEMENT_3D ( 'NONE', #243, #191, #33 ) ;
#194 = DIRECTION ( 'NONE',  ( 1.000000000000000000, 0.000000000000000000, 1.224646799147352961E-16 ) ) ;
#195 = DIRECTION ( 'NONE',  ( -1.000000000000000000, 4.596983092540343816E-18, 0.000000000000000000 ) ) ;
#196 = VERTEX_POINT ( 'NONE', #293 ) ;
#197 = CARTESIAN_POINT ( 'NONE',  ( 13.45000000000000107, 7.724734802931898514, 1.647149944853189991E-15 ) ) ;
#198 = CARTESIAN_POINT ( 'NONE',  ( -13.44999999999998685, 2817.965330118411202, 0.000000000000000000 ) ) ;
#199 = AXIS2_PLACEMENT_3D ( 'NONE', #80, #40, #194 ) ;
#200 = APPROVAL_PERSON_ORGANIZATION ( #63, #113, #340 ) ;
#201 = DESIGN_CONTEXT ( 'detailed design', #263, 'design' ) ;
#202 = FACE_OUTER_BOUND ( 'NONE', #305, .T. ) ;
#203 = DIRECTION ( 'NONE',  ( 4.596983092540343816E-18, 1.000000000000000000, -0.000000000000000000 ) ) ;
#204 = ORIENTED_EDGE ( 'NONE', *, *, #106, .F. ) ;
#205 = CYLINDRICAL_SURFACE ( 'NONE', #158, 11.44999999999999929 ) ;
#206 = VERTEX_POINT ( 'NONE', #11 ) ;
#207 = SECURITY_CLASSIFICATION ( '', '', #65 ) ;
#208 = DIRECTION ( 'NONE',  ( 4.596983092540343816E-18, 1.000000000000000000, -0.000000000000000000 ) ) ;
#209 = ADVANCED_FACE ( 'NONE', ( #167, #394 ), #135, .T. ) ;
#210 = EDGE_LOOP ( 'NONE', ( #87, #407, #400, #377 ) ) ;
#211 = ORIENTED_EDGE ( 'NONE', *, *, #277, .T. ) ;
#212 = DATE_AND_TIME ( #153, #301 ) ;
#213 = ORIENTED_EDGE ( 'NONE', *, *, #219, .F. ) ;
#214 = AXIS2_PLACEMENT_3D ( 'NONE', #357, #70, #75 ) ;
#215 = CARTESIAN_POINT ( 'NONE',  ( -13.44999999999999929, 6.182942259466762648E-17, 0.000000000000000000 ) ) ;
#216 = COORDINATED_UNIVERSAL_TIME_OFFSET ( 1, 0, .AHEAD. ) ;
#217 = CARTESIAN_POINT ( 'NONE',  ( 9.662455303818288816E-16, 9.266229531211589432, 0.000000000000000000 ) ) ;
#218 = DATE_TIME_ROLE ( 'classification_date' ) ;
#219 = EDGE_CURVE ( 'NONE', #271, #332, #60, .T. ) ;
#220 = DIRECTION ( 'NONE',  ( 4.596983092540343816E-18, 1.000000000000000000, -0.000000000000000000 ) ) ;
#221 = PRODUCT_DEFINITION ( 'UNKNOWN', '', #343, #201 ) ;
#222 = EDGE_LOOP ( 'NONE', ( #96, #147, #236 ) ) ;
#223 = DIRECTION ( 'NONE',  ( -1.000000000000000000, 4.596983092540343816E-18, 0.000000000000000000 ) ) ;
#224 = ADVANCED_FACE ( 'NONE', ( #325 ), #164, .F. ) ;
#225 = FACE_OUTER_BOUND ( 'NONE', #341, .T. ) ;
#226 = PRODUCT_RELATED_PRODUCT_CATEGORY ( 'detail', '', ( #29 ) ) ;
#227 = CARTESIAN_POINT ( 'NONE',  ( -11.41499999999999915, 7.724734802932069933, 0.000000000000000000 ) ) ;
#228 = DIRECTION ( 'NONE',  ( 4.596983092540343816E-18, 1.000000000000000000, -0.000000000000000000 ) ) ;
#229 = DIRECTION ( 'NONE',  ( 1.000000000000000000, 0.000000000000000000, 1.224646799147388459E-16 ) ) ;
#230 = CIRCLE ( 'NONE', #342, 17.51999999999999247 ) ;
#231 = EDGE_CURVE ( 'NONE', #111, #332, #396, .T. ) ;
#232 = AXIS2_PLACEMENT_3D ( 'NONE', #169, #228, #296 ) ;
#233 = EDGE_LOOP ( 'NONE', ( #152, #337, #156 ) ) ;
#234 = ORIENTED_EDGE ( 'NONE', *, *, #155, .F. ) ;
#235 = EDGE_CURVE ( 'NONE', #51, #47, #23, .T. ) ;
#236 = ORIENTED_EDGE ( 'NONE', *, *, #379, .T. ) ;
#237 = CIRCLE ( 'NONE', #251, 11.43784958535885998 ) ;
#238 = ORIENTED_EDGE ( 'NONE', *, *, #235, .F. ) ;
#239 = DIRECTION ( 'NONE',  ( -1.000000000000000000, 0.000000000000000000, 0.000000000000000000 ) ) ;
#240 = EDGE_LOOP ( 'NONE', ( #148, #112, #265, #59 ) ) ;
#241 = CALENDAR_DATE ( 2024, 18, 7 ) ;
#242 = APPLICATION_CONTEXT ( 'configuration controlled 3d designs of mechanical parts and assemblies' ) ;
#243 = CARTESIAN_POINT ( 'NONE',  ( 2.268045872020935223E-15, -5.519999999999998685, 0.000000000000000000 ) ) ;
#244 = CC_DESIGN_PERSON_AND_ORGANIZATION_ASSIGNMENT ( #287, #380, ( #207 ) ) ;
#245 = CIRCLE ( 'NONE', #411, 19.51999999999999602 ) ;
#246 = DIRECTION ( 'NONE',  ( 4.596983092540343816E-18, 1.000000000000000000, -0.000000000000000000 ) ) ;
#247 = CARTESIAN_POINT ( 'NONE',  ( 13.45000000000001350, 2817.965330118411202, 1.647149944853189991E-15 ) ) ;
#248 = PERSON_AND_ORGANIZATION_ROLE ( 'design_supplier' ) ;
#249 = DIRECTION ( 'NONE',  ( -1.000000000000000000, 0.000000000000000000, 0.000000000000000000 ) ) ;
#250 = AXIS2_PLACEMENT_3D ( 'NONE', #354, #103, #330 ) ;
#251 = AXIS2_PLACEMENT_3D ( 'NONE', #333, #297, #49 ) ;
#252 = CARTESIAN_POINT ( 'NONE',  ( 1.734723475976807094E-15, 7.724734802932067268, 0.000000000000000000 ) ) ;
#253 = CARTESIAN_POINT ( 'NONE',  ( 1.734723475976807094E-15, 7.724734802932069933, 0.000000000000000000 ) ) ;
#254 = ADVANCED_FACE ( 'NONE', ( #225 ), #255, .F. ) ;
#255 = SPHERICAL_SURFACE ( 'NONE', #250, 17.51999999999999247 ) ;
#256 = AXIS2_PLACEMENT_3D ( 'NONE', #99, #220, #351 ) ;
#257 = CARTESIAN_POINT ( 'NONE',  ( 9.236488298952508525E-16, 0.000000000000000000, 0.000000000000000000 ) ) ;
#258 = DIRECTION ( 'NONE',  ( 4.596983092540343816E-18, 1.000000000000000000, -0.000000000000000000 ) ) ;
#259 = EDGE_CURVE ( 'NONE', #307, #111, #323, .T. ) ;
#260 = FACE_OUTER_BOUND ( 'NONE', #210, .T. ) ;
#261 = CARTESIAN_POINT ( 'NONE',  ( 0.000000000000000000, 0.000000000000000000, 0.000000000000000000 ) ) ;
#262 = VECTOR ( 'NONE', #6, 1000.000000000000000 ) ;
#263 = APPLICATION_CONTEXT ( 'configuration controlled 3d designs of mechanical parts and assemblies' ) ;
#264 = CC_DESIGN_APPROVAL ( #139, ( #221 ) ) ;
#265 = ORIENTED_EDGE ( 'NONE', *, *, #385, .T. ) ;
#266 = PERSON_AND_ORGANIZATION ( #81, #369 ) ;
#267 = VERTEX_POINT ( 'NONE', #43 ) ;
#268 = ADVANCED_FACE ( 'NONE', ( #260 ), #77, .T. ) ;
#269 = CARTESIAN_POINT ( 'NONE',  ( 1.387778780781445676E-14, 2817.965330118411202, 0.000000000000000000 ) ) ;
#270 = ORIENTED_EDGE ( 'NONE', *, *, #66, .F. ) ;
#271 = VERTEX_POINT ( 'NONE', #197 ) ;
#272 = CIRCLE ( 'NONE', #105, 11.44999999999999751 ) ;
#273 = DIRECTION ( 'NONE',  ( -0.000000000000000000, 0.000000000000000000, -1.000000000000000000 ) ) ;
#274 = ORIENTED_EDGE ( 'NONE', *, *, #372, .T. ) ;
#275 = EDGE_CURVE ( 'NONE', #47, #307, #138, .T. ) ;
#276 = ORIENTED_EDGE ( 'NONE', *, *, #385, .F. ) ;
#277 = EDGE_CURVE ( 'NONE', #271, #307, #143, .T. ) ;
#278 = PERSON_AND_ORGANIZATION_ROLE ( 'creator' ) ;
#279 = ADVANCED_BREP_SHAPE_REPRESENTATION ( '3D_R175_DN26.9x2_17336170', ( #359, #289 ), #335 ) ;
#280 = DIRECTION ( 'NONE',  ( 0.000000000000000000, 0.000000000000000000, 1.000000000000000000 ) ) ;
#281 = CIRCLE ( 'NONE', #104, 11.44999999999999929 ) ;
#282 = PERSON_AND_ORGANIZATION ( #81, #369 ) ;
#283 = DIRECTION ( 'NONE',  ( 4.596983092540343816E-18, 1.000000000000000000, -0.000000000000000000 ) ) ;
#284 = EDGE_CURVE ( 'NONE', #115, #267, #48, .T. ) ;
#285 = FACE_OUTER_BOUND ( 'NONE', #222, .T. ) ;
#286 = CC_DESIGN_DATE_AND_TIME_ASSIGNMENT ( #212, #218, ( #207 ) ) ;
#287 = PERSON_AND_ORGANIZATION ( #81, #369 ) ;
#288 = CARTESIAN_POINT ( 'NONE',  ( 9.236488298952508525E-16, 0.000000000000000000, 0.000000000000000000 ) ) ;
#289 = AXIS2_PLACEMENT_3D ( 'NONE', #261, #406, #397 ) ;
#290 = CARTESIAN_POINT ( 'NONE',  ( -11.43784958535885821, 7.751246997275952566, 0.000000000000000000 ) ) ;
#291 = AXIS2_PLACEMENT_3D ( 'NONE', #328, #322, #326 ) ;
#292 = DIRECTION ( 'NONE',  ( 1.000000000000000000, 0.000000000000000000, 1.224646799147353454E-16 ) ) ;
#293 = CARTESIAN_POINT ( 'NONE',  ( -11.44999999999999751, 5.263545640958693885E-17, 0.000000000000000000 ) ) ;
#294 = DIRECTION ( 'NONE',  ( -1.000000000000000000, 4.596983092540344586E-18, 0.000000000000000000 ) ) ;
#295 = ADVANCED_FACE ( 'NONE', ( #362 ), #78, .F. ) ;
#296 = DIRECTION ( 'NONE',  ( -1.000000000000000000, 0.000000000000000000, 0.000000000000000000 ) ) ;
#297 = DIRECTION ( 'NONE',  ( 4.596983092540343816E-18, 1.000000000000000000, -0.000000000000000000 ) ) ;
#298 = DIRECTION ( 'NONE',  ( 4.596983092540343816E-18, 1.000000000000000000, -0.000000000000000000 ) ) ;
#299 = ADVANCED_FACE ( 'NONE', ( #165 ), #71, .T. ) ;
#300 = VECTOR ( 'NONE', #348, 1000.000000000000000 ) ;
#301 = LOCAL_TIME ( 12, 0, 27.00000000000000000, #89 ) ;
#302 = ORIENTED_EDGE ( 'NONE', *, *, #275, .T. ) ;
#303 = DIRECTION ( 'NONE',  ( -0.000000000000000000, 0.000000000000000000, -1.000000000000000000 ) ) ;
#304 = ORIENTED_EDGE ( 'NONE', *, *, #372, .F. ) ;
#305 = EDGE_LOOP ( 'NONE', ( #373, #398, #53, #179 ) ) ;
#306 = DIRECTION ( 'NONE',  ( -1.000000000000000000, 0.000000000000000000, 0.000000000000000000 ) ) ;
#307 = VERTEX_POINT ( 'NONE', #55 ) ;
#308 = AXIS2_PLACEMENT_3D ( 'NONE', #74, #12, #195 ) ;
#309 = LOCAL_TIME ( 12, 0, 27.00000000000000000, #311 ) ;
#310 = CIRCLE ( 'NONE', #214, 13.44999999999999929 ) ;
#311 = COORDINATED_UNIVERSAL_TIME_OFFSET ( 1, 0, .AHEAD. ) ;
#312 = ORIENTED_EDGE ( 'NONE', *, *, #184, .F. ) ;
#313 = SPHERICAL_SURFACE ( 'NONE', #193, 19.51999999999999602 ) ;
#314 = DATE_TIME_ROLE ( 'creation_date' ) ;
#315 = DIRECTION ( 'NONE',  ( 4.596983092540343816E-18, 1.000000000000000000, -0.000000000000000000 ) ) ;
#316 = CIRCLE ( 'NONE', #58, 0.03499999999999683920 ) ;
#317 = APPROVAL_DATE_TIME ( #121, #113 ) ;
#318 = LINE ( 'NONE', #31, #262 ) ;
#319 = ADVANCED_FACE ( 'NONE', ( #202 ), #205, .F. ) ;
#320 = PERSON_AND_ORGANIZATION ( #81, #369 ) ;
#321 = DIRECTION ( 'NONE',  ( -1.000000000000000000, 0.000000000000000000, 0.000000000000000000 ) ) ;
#322 = DIRECTION ( 'NONE',  ( 4.596983092540343816E-18, 1.000000000000000000, -0.000000000000000000 ) ) ;
#323 = CIRCLE ( 'NONE', #361, 2.034999999999997033 ) ;
#324 = CIRCLE ( 'NONE', #391, 11.44999999999999929 ) ;
#325 = FACE_OUTER_BOUND ( 'NONE', #240, .T. ) ;
#326 = DIRECTION ( 'NONE',  ( -1.000000000000000000, 4.596983092540343816E-18, 0.000000000000000000 ) ) ;
#327 = ORIENTED_EDGE ( 'NONE', *, *, #275, .F. ) ;
#328 = CARTESIAN_POINT ( 'NONE',  ( 1.734723475976807094E-15, 7.724734802932069933, 0.000000000000000000 ) ) ;
#329 = ADVANCED_FACE ( 'NONE', ( #24 ), #338, .F. ) ;
#330 = DIRECTION ( 'NONE',  ( -1.000000000000000000, 0.000000000000000000, 0.000000000000000000 ) ) ;
#331 = CARTESIAN_POINT ( 'NONE',  ( 1.734723475976807094E-15, 7.724734802932067268, 0.000000000000000000 ) ) ;
#332 = VERTEX_POINT ( 'NONE', #171 ) ;
#333 = CARTESIAN_POINT ( 'NONE',  ( 2.329053570084339879E-15, 7.751246997275952566, 0.000000000000000000 ) ) ;
#334 = CC_DESIGN_PERSON_AND_ORGANIZATION_ASSIGNMENT ( #282, #248, ( #343 ) ) ;
#335 =( GEOMETRIC_REPRESENTATION_CONTEXT ( 3 ) GLOBAL_UNCERTAINTY_ASSIGNED_CONTEXT ( ( #360 ) ) GLOBAL_UNIT_ASSIGNED_CONTEXT ( ( #141, #86, #52 ) ) REPRESENTATION_CONTEXT ( 'NONE', 'WORKASPACE' ) );
#336 = ORIENTED_EDGE ( 'NONE', *, *, #277, .F. ) ;
#337 = ORIENTED_EDGE ( 'NONE', *, *, #149, .T. ) ;
#338 = CYLINDRICAL_SURFACE ( 'NONE', #32, 11.44999999999999929 ) ;
#339 = EDGE_LOOP ( 'NONE', ( #270, #22, #274, #276 ) ) ;
#340 = APPROVAL_ROLE ( '' ) ;
#341 = EDGE_LOOP ( 'NONE', ( #234, #312, #73 ) ) ;
#342 = AXIS2_PLACEMENT_3D ( 'NONE', #162, #125, #249 ) ;
#343 = PRODUCT_DEFINITION_FORMATION_WITH_SPECIFIED_SOURCE ( 'ANY', '', #29, .NOT_KNOWN. ) ;
#344 = AXIS2_PLACEMENT_3D ( 'NONE', #358, #388, #292 ) ;
#345 = APPROVAL_DATE_TIME ( #123, #139 ) ;
#346 = EDGE_CURVE ( 'NONE', #84, #115, #272, .T. ) ;
#347 = CALENDAR_DATE ( 2024, 18, 7 ) ;
#348 = DIRECTION ( 'NONE',  ( 4.596983092540343816E-18, 1.000000000000000000, -0.000000000000000000 ) ) ;
#349 = APPROVAL_ROLE ( '' ) ;
#350 = LOCAL_TIME ( 12, 0, 27.00000000000000000, #216 ) ;
#351 = DIRECTION ( 'NONE',  ( -1.000000000000000000, 0.000000000000000000, 0.000000000000000000 ) ) ;
#352 = CYLINDRICAL_SURFACE ( 'NONE', #256, 13.44999999999999929 ) ;
#353 = CC_DESIGN_PERSON_AND_ORGANIZATION_ASSIGNMENT ( #266, #82, ( #29 ) ) ;
#354 = CARTESIAN_POINT ( 'NONE',  ( 2.268045872020935223E-15, -5.519999999999998685, 0.000000000000000000 ) ) ;
#355 = AXIS2_PLACEMENT_3D ( 'NONE', #408, #27, #94 ) ;
#356 = DIRECTION ( 'NONE',  ( -0.000000000000000000, 0.000000000000000000, -1.000000000000000000 ) ) ;
#357 = CARTESIAN_POINT ( 'NONE',  ( 9.236488298952508525E-16, 0.000000000000000000, 0.000000000000000000 ) ) ;
#358 = CARTESIAN_POINT ( 'NONE',  ( 2.268045872020935223E-15, -5.519999999999998685, 0.000000000000000000 ) ) ;
#359 = MANIFOLD_SOLID_BREP ( 'Wandung1', #79 ) ;
#360 = UNCERTAINTY_MEASURE_WITH_UNIT (LENGTH_MEASURE( 1.000000000000000082E-05 ), #141, 'distance_accuracy_value', 'NONE');
#361 = AXIS2_PLACEMENT_3D ( 'NONE', #227, #356, #72 ) ;
#362 = FACE_OUTER_BOUND ( 'NONE', #339, .T. ) ;
#363 = AXIS2_PLACEMENT_3D ( 'NONE', #68, #246, #321 ) ;
#364 = ORIENTED_EDGE ( 'NONE', *, *, #389, .T. ) ;
#365 = MECHANICAL_CONTEXT ( 'NONE', #242, 'mechanical' ) ;
#366 = EDGE_LOOP ( 'NONE', ( #375, #405, #402, #370 ) ) ;
#367 = DIRECTION ( 'NONE',  ( 4.596983092540343816E-18, 1.000000000000000000, -0.000000000000000000 ) ) ;
#368 = LOCAL_TIME ( 12, 0, 27.00000000000000000, #188 ) ;
#369 = ORGANIZATION ( 'UNSPECIFIED', 'UNSPECIFIED', '' ) ;
#370 = ORIENTED_EDGE ( 'NONE', *, *, #346, .T. ) ;
#371 = DIRECTION ( 'NONE',  ( -1.000000000000000000, 4.596983092540343816E-18, 0.000000000000000000 ) ) ;
#372 = EDGE_CURVE ( 'NONE', #267, #177, #237, .T. ) ;
#373 = ORIENTED_EDGE ( 'NONE', *, *, #137, .F. ) ;
#374 = DIRECTION ( 'NONE',  ( -1.000000000000000000, 0.000000000000000000, 0.000000000000000000 ) ) ;
#375 = ORIENTED_EDGE ( 'NONE', *, *, #4, .F. ) ;
#376 = SHAPE_DEFINITION_REPRESENTATION ( #36, #279 ) ;
#377 = ORIENTED_EDGE ( 'NONE', *, *, #259, .F. ) ;
#378 = AXIS2_PLACEMENT_3D ( 'NONE', #269, #367, #18 ) ;
#379 = EDGE_CURVE ( 'NONE', #111, #206, #245, .T. ) ;
#380 = PERSON_AND_ORGANIZATION_ROLE ( 'classification_officer' ) ;
#381 = DIRECTION ( 'NONE',  ( 4.596983092540343816E-18, 1.000000000000000000, -0.000000000000000000 ) ) ;
#382 = LINE ( 'NONE', #247, #7 ) ;
#383 = FACE_OUTER_BOUND ( 'NONE', #64, .T. ) ;
#384 = APPROVAL_PERSON_ORGANIZATION ( #399, #139, #349 ) ;
#385 = EDGE_CURVE ( 'NONE', #84, #177, #316, .T. ) ;
#386 = CARTESIAN_POINT ( 'NONE',  ( 11.44999999999999929, 7.724734802932067268, 1.402220585023719300E-15 ) ) ;
#387 = DIRECTION ( 'NONE',  ( 1.000000000000000000, 0.000000000000000000, 1.224646799147353207E-16 ) ) ;
#388 = DIRECTION ( 'NONE',  ( -1.224646799147353207E-16, 5.629680630014033300E-34, 1.000000000000000000 ) ) ;
#389 = EDGE_CURVE ( 'NONE', #196, #145, #324, .T. ) ;
#390 = AXIS2_PLACEMENT_3D ( 'NONE', #252, #283, #122 ) ;
#391 = AXIS2_PLACEMENT_3D ( 'NONE', #15, #298, #114 ) ;
#392 = DIRECTION ( 'NONE',  ( 4.596983092540343816E-18, 1.000000000000000000, -0.000000000000000000 ) ) ;
#393 = CC_DESIGN_PERSON_AND_ORGANIZATION_ASSIGNMENT ( #2, #278, ( #343 ) ) ;
#394 = FACE_OUTER_BOUND ( 'NONE', #117, .T. ) ;
#395 = DIRECTION ( 'NONE',  ( -4.596983092540343816E-18, -1.000000000000000000, 0.000000000000000000 ) ) ;
#396 = CIRCLE ( 'NONE', #109, 12.74354017729482358 ) ;
#397 = DIRECTION ( 'NONE',  ( 1.000000000000000000, 0.000000000000000000, 0.000000000000000000 ) ) ;
#398 = ORIENTED_EDGE ( 'NONE', *, *, #4, .T. ) ;
#399 = PERSON_AND_ORGANIZATION ( #81, #369 ) ;
#400 = ORIENTED_EDGE ( 'NONE', *, *, #231, .F. ) ;
#401 = CARTESIAN_POINT ( 'NONE',  ( 1.275794419749161128E-15, 11.99999999999999467, 0.000000000000000000 ) ) ;
#402 = ORIENTED_EDGE ( 'NONE', *, *, #39, .T. ) ;
#403 = ADVANCED_FACE ( 'NONE', ( #20 ), #146, .T. ) ;
#404 = APPLICATION_PROTOCOL_DEFINITION ( 'international standard', 'config_control_design', 1994, #242 ) ;
#405 = ORIENTED_EDGE ( 'NONE', *, *, #389, .F. ) ;
#406 = DIRECTION ( 'NONE',  ( 0.000000000000000000, 0.000000000000000000, 1.000000000000000000 ) ) ;
#407 = ORIENTED_EDGE ( 'NONE', *, *, #219, .T. ) ;
#408 = CARTESIAN_POINT ( 'NONE',  ( 2.268045872020935223E-15, -5.519999999999998685, 0.000000000000000000 ) ) ;
#409 = VERTEX_POINT ( 'NONE', #401 ) ;
#410 = CIRCLE ( 'NONE', #390, 11.44999999999999751 ) ;
#411 = AXIS2_PLACEMENT_3D ( 'NONE', #174, #303, #116 ) ;
ENDSEC;
END-ISO-10303-21;
