ISO-10303-21;
HEADER;
FILE_DESCRIPTION (( 'STEP AP203' ),
    '1' );
FILE_NAME ('3D_R175_DN42.4x2_17336210.STEP',
    '2024-07-18T10:07:16',
    ( '' ),
    ( '' ),
    'SwSTEP 2.0',
    'SolidWorks 2024',
    '' );
FILE_SCHEMA (( 'CONFIG_CONTROL_DESIGN' ));
ENDSEC;

DATA;
#1 = ORIENTED_EDGE ( 'NONE', *, *, #278, .F. ) ;
#2 = APPROVAL_PERSON_ORGANIZATION ( #211, #270, #86 ) ;
#3 = DIRECTION ( 'NONE',  ( 0.000000000000000000, 0.000000000000000000, 1.000000000000000000 ) ) ;
#4 = FACE_OUTER_BOUND ( 'NONE', #279, .T. ) ;
#5 = FACE_OUTER_BOUND ( 'NONE', #375, .T. ) ;
#6 = CARTESIAN_POINT ( 'NONE',  ( 21.19999999999999574, 6.896690858148257774, 2.596251214192388375E-15 ) ) ;
#7 = FACE_OUTER_BOUND ( 'NONE', #255, .T. ) ;
#8 = CARTESIAN_POINT ( 'NONE',  ( 9.236488298952508525E-16, 0.000000000000000000, 0.000000000000000000 ) ) ;
#9 = CARTESIAN_POINT ( 'NONE',  ( 3.541678543134110713E-15, -14.92000000000000348, 0.000000000000000000 ) ) ;
#10 = CARTESIAN_POINT ( 'NONE',  ( 1.387778780781445676E-14, 2817.965330118411202, 0.000000000000000000 ) ) ;
#11 = APPROVAL_PERSON_ORGANIZATION ( #50, #62, #181 ) ;
#12 = AXIS2_PLACEMENT_3D ( 'NONE', #228, #262, #267 ) ;
#13 = CIRCLE ( 'NONE', #109, 2.360000000000001208 ) ;
#14 = ADVANCED_FACE ( 'NONE', ( #4 ), #108, .F. ) ;
#15 = DIRECTION ( 'NONE',  ( 4.596983092540343816E-18, 1.000000000000000000, -0.000000000000000000 ) ) ;
#16 = AXIS2_PLACEMENT_3D ( 'NONE', #289, #179, #381 ) ;
#17 = CALENDAR_DATE ( 2024, 18, 7 ) ;
#18 = DATE_AND_TIME ( #17, #133 ) ;
#19 = ORIENTED_EDGE ( 'NONE', *, *, #332, .T. ) ;
#20 = ORIENTED_EDGE ( 'NONE', *, *, #293, .T. ) ;
#21 = CIRCLE ( 'NONE', #187, 19.50409288824382870 ) ;
#22 = FACE_OUTER_BOUND ( 'NONE', #229, .T. ) ;
#23 = ADVANCED_FACE ( 'NONE', ( #103 ), #105, .F. ) ;
#24 = TOROIDAL_SURFACE ( 'NONE', #265, 16.83999999999999631, 4.360000000000000320 ) ;
#25 = VERTEX_POINT ( 'NONE', #169 ) ;
#26 = DIRECTION ( 'NONE',  ( -4.596983092540343816E-18, -1.000000000000000000, 0.000000000000000000 ) ) ;
#27 = VERTEX_POINT ( 'NONE', #32 ) ;
#28 = FACE_OUTER_BOUND ( 'NONE', #134, .T. ) ;
#29 = CARTESIAN_POINT ( 'NONE',  ( 3.541678543134110713E-15, -14.92000000000000348, 0.000000000000000000 ) ) ;
#30 = CC_DESIGN_PERSON_AND_ORGANIZATION_ASSIGNMENT ( #239, #360, ( #256 ) ) ;
#31 = SPHERICAL_SURFACE ( 'NONE', #312, 31.92000000000000526 ) ;
#32 = CARTESIAN_POINT ( 'NONE',  ( -19.50409288824382870, 10.34809768476341318, 0.000000000000000000 ) ) ;
#33 = DIRECTION ( 'NONE',  ( -1.000000000000000000, 4.596983092540343816E-18, 0.000000000000000000 ) ) ;
#34 = EDGE_LOOP ( 'NONE', ( #223, #259, #153 ) ) ;
#35 = AXIS2_PLACEMENT_3D ( 'NONE', #222, #315, #224 ) ;
#36 = DIRECTION ( 'NONE',  ( -1.000000000000000000, 0.000000000000000000, 0.000000000000000000 ) ) ;
#37 = VERTEX_POINT ( 'NONE', #6 ) ;
#38 = CIRCLE ( 'NONE', #149, 31.92000000000000526 ) ;
#39 = CARTESIAN_POINT ( 'NONE',  ( 3.650557552335190339E-15, 8.764883544114196567, 0.000000000000000000 ) ) ;
#40 = CARTESIAN_POINT ( 'NONE',  ( 0.000000000000000000, 0.000000000000000000, 0.000000000000000000 ) ) ;
#41 = CC_DESIGN_PERSON_AND_ORGANIZATION_ASSIGNMENT ( #147, #154, ( #192 ) ) ;
#42 = LOCAL_TIME ( 12, 7, 16.00000000000000000, #244 ) ;
#43 = EDGE_CURVE ( 'NONE', #253, #126, #396, .T. ) ;
#44 = AXIS2_PLACEMENT_3D ( 'NONE', #9, #138, #67 ) ;
#45 = DIRECTION ( 'NONE',  ( 4.596983092540343816E-18, 1.000000000000000000, -0.000000000000000000 ) ) ;
#46 = CIRCLE ( 'NONE', #370, 31.92000000000000526 ) ;
#47 = CIRCLE ( 'NONE', #319, 19.19999999999999929 ) ;
#48 = CARTESIAN_POINT ( 'NONE',  ( 3.650557552335190339E-15, 8.764883544114196567, 0.000000000000000000 ) ) ;
#49 = CIRCLE ( 'NONE', #286, 4.359999999999999432 ) ;
#50 = PERSON_AND_ORGANIZATION ( #205, #76 ) ;
#51 = APPROVAL_STATUS ( 'not_yet_approved' ) ;
#52 = DIRECTION ( 'NONE',  ( -1.000000000000000000, 0.000000000000000000, 0.000000000000000000 ) ) ;
#53 = APPROVAL_STATUS ( 'not_yet_approved' ) ;
#54 = APPROVAL ( #53, 'UNSPECIFIED' ) ;
#55 = ORIENTED_EDGE ( 'NONE', *, *, #363, .F. ) ;
#56 = EDGE_CURVE ( 'NONE', #87, #248, #230, .T. ) ;
#57 = DIRECTION ( 'NONE',  ( 4.596983092540343816E-18, 1.000000000000000000, -0.000000000000000000 ) ) ;
#58 = ORIENTED_EDGE ( 'NONE', *, *, #94, .F. ) ;
#59 = CIRCLE ( 'NONE', #160, 2.360000000000001208 ) ;
#60 = CARTESIAN_POINT ( 'NONE',  ( 5.441176537264865592E-31, 6.896690858148157410, 0.000000000000000000 ) ) ;
#61 = ORIENTED_EDGE ( 'NONE', *, *, #225, .T. ) ;
#62 = APPROVAL ( #51, 'UNSPECIFIED' ) ;
#63 = CARTESIAN_POINT ( 'NONE',  ( -16.83999999999999631, 6.896690858148039283, 0.000000000000000000 ) ) ;
#64 = EDGE_CURVE ( 'NONE', #194, #226, #207, .T. ) ;
#65 = EDGE_LOOP ( 'NONE', ( #96, #294, #409 ) ) ;
#66 = CARTESIAN_POINT ( 'NONE',  ( 3.541678543134110713E-15, -14.92000000000000348, 0.000000000000000000 ) ) ;
#67 = DIRECTION ( 'NONE',  ( 1.000000000000000000, 0.000000000000000000, 1.224646799147353207E-16 ) ) ;
#68 = APPLICATION_CONTEXT ( 'configuration controlled 3d designs of mechanical parts and assemblies' ) ;
#69 = CARTESIAN_POINT ( 'NONE',  ( 9.236488298952508525E-16, 0.000000000000000000, 0.000000000000000000 ) ) ;
#70 = AXIS2_PLACEMENT_3D ( 'NONE', #106, #236, #362 ) ;
#71 = ORIENTED_EDGE ( 'NONE', *, *, #410, .F. ) ;
#72 = CARTESIAN_POINT ( 'NONE',  ( -19.19999999999999929, 6.896690858148157410, 0.000000000000000000 ) ) ;
#73 = CARTESIAN_POINT ( 'NONE',  ( 0.000000000000000000, 6.896690858148039283, 0.000000000000000000 ) ) ;
#74 = ADVANCED_FACE ( 'NONE', ( #7 ), #383, .F. ) ;
#75 = DIRECTION ( 'NONE',  ( -1.000000000000000000, 0.000000000000000000, 0.000000000000000000 ) ) ;
#76 = ORGANIZATION ( 'UNSPECIFIED', 'UNSPECIFIED', '' ) ;
#77 = CARTESIAN_POINT ( 'NONE',  ( -21.19999999999999574, 6.896690858148257774, 0.000000000000000000 ) ) ;
#78 = APPLICATION_PROTOCOL_DEFINITION ( 'international standard', 'config_control_design', 1994, #68 ) ;
#79 = DIRECTION ( 'NONE',  ( 1.000000000000000000, 0.000000000000000000, 0.000000000000000000 ) ) ;
#80 = APPLICATION_PROTOCOL_DEFINITION ( 'international standard', 'config_control_design', 1994, #92 ) ;
#81 = CALENDAR_DATE ( 2024, 18, 7 ) ;
#82 = CLOSED_SHELL ( 'NONE', ( #74, #304, #14, #139, #328, #322, #182, #144, #206, #148, #257, #23, #382 ) ) ;
#83 = CARTESIAN_POINT ( 'NONE',  ( -21.19999999999998153, 2817.965330118411202, 0.000000000000000000 ) ) ;
#84 = CIRCLE ( 'NONE', #145, 18.28203193033390761 ) ;
#85 = APPROVAL_ROLE ( '' ) ;
#86 = APPROVAL_ROLE ( '' ) ;
#87 = VERTEX_POINT ( 'NONE', #288 ) ;
#88 = AXIS2_PLACEMENT_3D ( 'NONE', #132, #220, #52 ) ;
#89 = CC_DESIGN_DATE_AND_TIME_ASSIGNMENT ( #334, #210, ( #192 ) ) ;
#90 = DIRECTION ( 'NONE',  ( -1.000000000000000000, 0.000000000000000000, 0.000000000000000000 ) ) ;
#91 = COORDINATED_UNIVERSAL_TIME_OFFSET ( 1, 0, .AHEAD. ) ;
#92 = APPLICATION_CONTEXT ( 'configuration controlled 3d designs of mechanical parts and assemblies' ) ;
#93 = ORIENTED_EDGE ( 'NONE', *, *, #56, .T. ) ;
#94 = EDGE_CURVE ( 'NONE', #407, #27, #21, .T. ) ;
#95 = CARTESIAN_POINT ( 'NONE',  ( 21.20000000000000995, 2817.965330118411202, 2.596251214192388375E-15 ) ) ;
#96 = ORIENTED_EDGE ( 'NONE', *, *, #195, .T. ) ;
#97 = DIRECTION ( 'NONE',  ( -1.000000000000000000, 0.000000000000000000, 0.000000000000000000 ) ) ;
#98 = CC_DESIGN_APPROVAL ( #54, ( #297 ) ) ;
#99 = EDGE_LOOP ( 'NONE', ( #101, #71 ) ) ;
#100 = FACE_OUTER_BOUND ( 'NONE', #274, .T. ) ;
#101 = ORIENTED_EDGE ( 'NONE', *, *, #43, .F. ) ;
#102 = DIRECTION ( 'NONE',  ( 1.000000000000000000, -4.596983092540343816E-18, 0.000000000000000000 ) ) ;
#103 = FACE_OUTER_BOUND ( 'NONE', #184, .T. ) ;
#104 = DIRECTION ( 'NONE',  ( 0.000000000000000000, 0.000000000000000000, 1.000000000000000000 ) ) ;
#105 = TOROIDAL_SURFACE ( 'NONE', #309, 16.83999999999999631, 2.360000000000000320 ) ;
#106 = CARTESIAN_POINT ( 'NONE',  ( 3.541678543134110713E-15, -14.92000000000000348, 0.000000000000000000 ) ) ;
#107 = AXIS2_PLACEMENT_3D ( 'NONE', #10, #173, #111 ) ;
#108 = CYLINDRICAL_SURFACE ( 'NONE', #295, 19.19999999999999574 ) ;
#109 = AXIS2_PLACEMENT_3D ( 'NONE', #123, #308, #408 ) ;
#110 = EDGE_CURVE ( 'NONE', #126, #37, #401, .T. ) ;
#111 = DIRECTION ( 'NONE',  ( -1.000000000000000000, 0.000000000000000000, 0.000000000000000000 ) ) ;
#112 = AXIS2_PLACEMENT_3D ( 'NONE', #411, #377, #368 ) ;
#113 = DIRECTION ( 'NONE',  ( -0.000000000000000000, 0.000000000000000000, -1.000000000000000000 ) ) ;
#114 = PRODUCT_RELATED_PRODUCT_CATEGORY ( 'detail', '', ( #256 ) ) ;
#115 = EDGE_CURVE ( 'NONE', #341, #25, #59, .T. ) ;
#116 = UNCERTAINTY_MEASURE_WITH_UNIT (LENGTH_MEASURE( 1.000000000000000082E-05 ), #243, 'distance_accuracy_value', 'NONE');
#117 = CARTESIAN_POINT ( 'NONE',  ( -16.83999999999999631, 6.896690858148039283, 0.000000000000000000 ) ) ;
#118 = PERSON_AND_ORGANIZATION ( #205, #76 ) ;
#119 = PERSON_AND_ORGANIZATION ( #205, #76 ) ;
#120 = APPROVAL_DATE_TIME ( #271, #270 ) ;
#121 = ORIENTED_EDGE ( 'NONE', *, *, #410, .T. ) ;
#122 = CC_DESIGN_APPROVAL ( #270, ( #180 ) ) ;
#123 = CARTESIAN_POINT ( 'NONE',  ( 16.83999999999999631, 6.896690858148039283, 2.062305209764142672E-15 ) ) ;
#124 = COORDINATED_UNIVERSAL_TIME_OFFSET ( 1, 0, .AHEAD. ) ;
#125 = EDGE_CURVE ( 'NONE', #276, #194, #13, .T. ) ;
#126 = VERTEX_POINT ( 'NONE', #345 ) ;
#127 = VECTOR ( 'NONE', #57, 1000.000000000000000 ) ;
#128 = CARTESIAN_POINT ( 'NONE',  ( -19.19999999999999574, 8.826207537677457415E-17, 0.000000000000000000 ) ) ;
#129 = ORIENTED_EDGE ( 'NONE', *, *, #278, .T. ) ;
#130 = DIRECTION ( 'NONE',  ( 4.596983092540343816E-18, 1.000000000000000000, -0.000000000000000000 ) ) ;
#131 = ORIENTED_EDGE ( 'NONE', *, *, #336, .F. ) ;
#132 = CARTESIAN_POINT ( 'NONE',  ( 3.541678543134110713E-15, -14.92000000000000348, 0.000000000000000000 ) ) ;
#133 = LOCAL_TIME ( 12, 7, 16.00000000000000000, #124 ) ;
#134 = EDGE_LOOP ( 'NONE', ( #282, #121, #20, #263 ) ) ;
#135 = DIRECTION ( 'NONE',  ( -0.000000000000000000, 0.000000000000000000, -1.000000000000000000 ) ) ;
#136 = DIRECTION ( 'NONE',  ( 4.596983092540343816E-18, 1.000000000000000000, -0.000000000000000000 ) ) ;
#137 = DIRECTION ( 'NONE',  ( -1.000000000000000000, 4.596983092540343816E-18, 0.000000000000000000 ) ) ;
#138 = DIRECTION ( 'NONE',  ( -1.224646799147353207E-16, 5.629680630014033300E-34, 1.000000000000000000 ) ) ;
#139 = ADVANCED_FACE ( 'NONE', ( #287 ), #31, .T. ) ;
#140 = DIRECTION ( 'NONE',  ( -1.000000000000000000, 4.596983092540343816E-18, 0.000000000000000000 ) ) ;
#141 = VECTOR ( 'NONE', #235, 1000.000000000000000 ) ;
#142 = DIRECTION ( 'NONE',  ( -1.000000000000000000, 4.596983092540343816E-18, 0.000000000000000000 ) ) ;
#143 = CARTESIAN_POINT ( 'NONE',  ( 0.000000000000000000, 6.896690858148039283, 0.000000000000000000 ) ) ;
#144 = ADVANCED_FACE ( 'NONE', ( #28 ), #190, .T. ) ;
#145 = AXIS2_PLACEMENT_3D ( 'NONE', #39, #260, #384 ) ;
#146 = CARTESIAN_POINT ( 'NONE',  ( 3.541678543134110713E-15, -14.92000000000000348, 0.000000000000000000 ) ) ;
#147 = PERSON_AND_ORGANIZATION ( #205, #76 ) ;
#148 = ADVANCED_FACE ( 'NONE', ( #22 ), #214, .T. ) ;
#149 = AXIS2_PLACEMENT_3D ( 'NONE', #146, #349, #358 ) ;
#150 = APPROVAL_STATUS ( 'not_yet_approved' ) ;
#151 = MANIFOLD_SOLID_BREP ( 'Wandung1', #82 ) ;
#152 = CALENDAR_DATE ( 2024, 18, 7 ) ;
#153 = ORIENTED_EDGE ( 'NONE', *, *, #351, .T. ) ;
#154 = PERSON_AND_ORGANIZATION_ROLE ( 'classification_officer' ) ;
#155 = ORIENTED_EDGE ( 'NONE', *, *, #293, .F. ) ;
#156 = CC_DESIGN_SECURITY_CLASSIFICATION ( #192, ( #180 ) ) ;
#157 = DIRECTION ( 'NONE',  ( 4.596983092540343816E-18, 1.000000000000000000, -0.000000000000000000 ) ) ;
#158 = EDGE_LOOP ( 'NONE', ( #191, #378, #218, #303 ) ) ;
#159 = CIRCLE ( 'NONE', #406, 19.19999999999999574 ) ;
#160 = AXIS2_PLACEMENT_3D ( 'NONE', #63, #135, #165 ) ;
#161 = CARTESIAN_POINT ( 'NONE',  ( 9.553528011646368897E-16, 6.896690858148257774, 0.000000000000000000 ) ) ;
#162 = ORIENTED_EDGE ( 'NONE', *, *, #351, .F. ) ;
#163 = DIRECTION ( 'NONE',  ( -1.000000000000000000, 0.000000000000000000, 0.000000000000000000 ) ) ;
#164 = EDGE_LOOP ( 'NONE', ( #1, #373, #306, #221 ) ) ;
#165 = DIRECTION ( 'NONE',  ( -1.000000000000000000, 0.000000000000000000, 0.000000000000000000 ) ) ;
#166 = CIRCLE ( 'NONE', #376, 18.28203193033390761 ) ;
#167 = DIRECTION ( 'NONE',  ( -1.000000000000000000, 0.000000000000000000, 0.000000000000000000 ) ) ;
#168 = CARTESIAN_POINT ( 'NONE',  ( 18.28203193033391116, 8.764883544114196567, 2.295112521451115428E-15 ) ) ;
#169 = CARTESIAN_POINT ( 'NONE',  ( -18.28203193033390406, 8.764883544114196567, 0.000000000000000000 ) ) ;
#170 = EDGE_CURVE ( 'NONE', #276, #341, #47, .T. ) ;
#171 = DIRECTION ( 'NONE',  ( 4.596983092540343816E-18, 1.000000000000000000, -0.000000000000000000 ) ) ;
#172 = ORIENTED_EDGE ( 'NONE', *, *, #366, .T. ) ;
#173 = DIRECTION ( 'NONE',  ( 4.596983092540343816E-18, 1.000000000000000000, -0.000000000000000000 ) ) ;
#174 = DIRECTION ( 'NONE',  ( 4.596983092540343816E-18, 1.000000000000000000, -0.000000000000000000 ) ) ;
#175 = LOCAL_TIME ( 12, 7, 16.00000000000000000, #338 ) ;
#176 = CARTESIAN_POINT ( 'NONE',  ( 1.387778780781445676E-14, 2817.965330118411202, 0.000000000000000000 ) ) ;
#177 = MECHANICAL_CONTEXT ( 'NONE', #68, 'mechanical' ) ;
#178 = AXIS2_PLACEMENT_3D ( 'NONE', #277, #347, #405 ) ;
#179 = DIRECTION ( 'NONE',  ( 4.596983092540343816E-18, 1.000000000000000000, -0.000000000000000000 ) ) ;
#180 = PRODUCT_DEFINITION_FORMATION_WITH_SPECIFIED_SOURCE ( 'ANY', '', #256, .NOT_KNOWN. ) ;
#181 = APPROVAL_ROLE ( '' ) ;
#182 = ADVANCED_FACE ( 'NONE', ( #183, #343 ), #254, .T. ) ;
#183 = FACE_BOUND ( 'NONE', #213, .T. ) ;
#184 = EDGE_LOOP ( 'NONE', ( #310, #198, #246, #19 ) ) ;
#185 = CARTESIAN_POINT ( 'NONE',  ( -21.19999999999999574, 9.745604156185527411E-17, 0.000000000000000000 ) ) ;
#186 = ORIENTED_EDGE ( 'NONE', *, *, #64, .T. ) ;
#187 = AXIS2_PLACEMENT_3D ( 'NONE', #290, #284, #188 ) ;
#188 = DIRECTION ( 'NONE',  ( -1.000000000000000000, 0.000000000000000000, 0.000000000000000000 ) ) ;
#189 = EDGE_LOOP ( 'NONE', ( #261, #324, #335, #155 ) ) ;
#190 = CYLINDRICAL_SURFACE ( 'NONE', #233, 21.19999999999999574 ) ;
#191 = ORIENTED_EDGE ( 'NONE', *, *, #212, .T. ) ;
#192 = SECURITY_CLASSIFICATION ( '', '', #240 ) ;
#193 = DIRECTION ( 'NONE',  ( -0.000000000000000000, 0.000000000000000000, -1.000000000000000000 ) ) ;
#194 = VERTEX_POINT ( 'NONE', #168 ) ;
#195 = EDGE_CURVE ( 'NONE', #27, #407, #283, .T. ) ;
#196 = CIRCLE ( 'NONE', #12, 4.359999999999999432 ) ;
#197 = CARTESIAN_POINT ( 'NONE',  ( 19.19999999999999929, 6.896690858148157410, 2.351321854362917684E-15 ) ) ;
#198 = ORIENTED_EDGE ( 'NONE', *, *, #399, .F. ) ;
#199 = LINE ( 'NONE', #83, #311 ) ;
#200 = CARTESIAN_POINT ( 'NONE',  ( 9.236488298952508525E-16, 0.000000000000000000, 0.000000000000000000 ) ) ;
#201 = CC_DESIGN_PERSON_AND_ORGANIZATION_ASSIGNMENT ( #245, #302, ( #180 ) ) ;
#202 = FACE_OUTER_BOUND ( 'NONE', #158, .T. ) ;
#203 = CIRCLE ( 'NONE', #16, 19.19999999999999929 ) ;
#204 = FACE_OUTER_BOUND ( 'NONE', #34, .T. ) ;
#205 = PERSON ( 'UNSPECIFIED', 'UNSPECIFIED', 'UNSPECIFIED', ('UNSPECIFIED'), ('UNSPECIFIED'), ('UNSPECIFIED') ) ;
#206 = ADVANCED_FACE ( 'NONE', ( #100 ), #333, .T. ) ;
#207 = CIRCLE ( 'NONE', #44, 29.92000000000000171 ) ;
#208 = APPROVAL_DATE_TIME ( #397, #62 ) ;
#209 = DIRECTION ( 'NONE',  ( 4.596983092540343816E-18, 1.000000000000000000, -0.000000000000000000 ) ) ;
#210 = DATE_TIME_ROLE ( 'classification_date' ) ;
#211 = PERSON_AND_ORGANIZATION ( #205, #76 ) ;
#212 = EDGE_CURVE ( 'NONE', #367, #37, #330, .T. ) ;
#213 = EDGE_LOOP ( 'NONE', ( #380, #93 ) ) ;
#214 = SPHERICAL_SURFACE ( 'NONE', #88, 31.92000000000000526 ) ;
#215 = DATE_AND_TIME ( #247, #237 ) ;
#216 = ORIENTED_EDGE ( 'NONE', *, *, #219, .T. ) ;
#217 = DIRECTION ( 'NONE',  ( -1.000000000000000000, 0.000000000000000000, 0.000000000000000000 ) ) ;
#218 = ORIENTED_EDGE ( 'NONE', *, *, #195, .F. ) ;
#219 = EDGE_CURVE ( 'NONE', #27, #339, #46, .T. ) ;
#220 = DIRECTION ( 'NONE',  ( 0.000000000000000000, 0.000000000000000000, 1.000000000000000000 ) ) ;
#221 = ORIENTED_EDGE ( 'NONE', *, *, #399, .T. ) ;
#222 = CARTESIAN_POINT ( 'NONE',  ( 0.000000000000000000, 6.896690858148039283, 0.000000000000000000 ) ) ;
#223 = ORIENTED_EDGE ( 'NONE', *, *, #64, .F. ) ;
#224 = DIRECTION ( 'NONE',  ( -1.000000000000000000, 4.596983092540343816E-18, 0.000000000000000000 ) ) ;
#225 = EDGE_CURVE ( 'NONE', #37, #367, #318, .T. ) ;
#226 = VERTEX_POINT ( 'NONE', #305 ) ;
#227 = LOCAL_TIME ( 12, 7, 16.00000000000000000, #365 ) ;
#228 = CARTESIAN_POINT ( 'NONE',  ( 16.83999999999999631, 6.896690858148039283, 2.062305209764142672E-15 ) ) ;
#229 = EDGE_LOOP ( 'NONE', ( #55, #403, #216 ) ) ;
#230 = CIRCLE ( 'NONE', #364, 19.19999999999999574 ) ;
#231 = AXIS2_PLACEMENT_3D ( 'NONE', #176, #356, #75 ) ;
#232 = DIRECTION ( 'NONE',  ( -1.000000000000000000, 0.000000000000000000, 0.000000000000000000 ) ) ;
#233 = AXIS2_PLACEMENT_3D ( 'NONE', #258, #379, #163 ) ;
#234 = CARTESIAN_POINT ( 'NONE',  ( 1.387778780781445676E-14, 2817.965330118411202, 0.000000000000000000 ) ) ;
#235 = DIRECTION ( 'NONE',  ( 4.596983092540343816E-18, 1.000000000000000000, -0.000000000000000000 ) ) ;
#236 = DIRECTION ( 'NONE',  ( -0.000000000000000000, 0.000000000000000000, -1.000000000000000000 ) ) ;
#237 = LOCAL_TIME ( 12, 7, 16.00000000000000000, #91 ) ;
#238 = CC_DESIGN_PERSON_AND_ORGANIZATION_ASSIGNMENT ( #118, #402, ( #180 ) ) ;
#239 = PERSON_AND_ORGANIZATION ( #205, #76 ) ;
#240 = SECURITY_CLASSIFICATION_LEVEL ( 'unclassified' ) ;
#241 = CARTESIAN_POINT ( 'NONE',  ( 19.20000000000000995, 2817.965330118411202, 2.351321854362917684E-15 ) ) ;
#242 = DATE_TIME_ROLE ( 'creation_date' ) ;
#243 =( LENGTH_UNIT ( ) NAMED_UNIT ( * ) SI_UNIT ( .MILLI., .METRE. ) );
#244 = COORDINATED_UNIVERSAL_TIME_OFFSET ( 1, 0, .AHEAD. ) ;
#245 = PERSON_AND_ORGANIZATION ( #205, #76 ) ;
#246 = ORIENTED_EDGE ( 'NONE', *, *, #115, .T. ) ;
#247 = CALENDAR_DATE ( 2024, 18, 7 ) ;
#248 = VERTEX_POINT ( 'NONE', #128 ) ;
#249 = CIRCLE ( 'NONE', #70, 29.92000000000000171 ) ;
#250 = LINE ( 'NONE', #340, #127 ) ;
#251 = ORIENTED_EDGE ( 'NONE', *, *, #170, .F. ) ;
#252 = EDGE_CURVE ( 'NONE', #248, #341, #250, .T. ) ;
#253 = VERTEX_POINT ( 'NONE', #185 ) ;
#254 = PLANE ( 'NONE',  #355 ) ;
#255 = EDGE_LOOP ( 'NONE', ( #285, #186, #162 ) ) ;
#256 = PRODUCT ( '3D_R175_DN42.4x2_17336210', '3D_R175_DN42.4x2_17336210', '', ( #177 ) ) ;
#257 = ADVANCED_FACE ( 'NONE', ( #281 ), #374, .F. ) ;
#258 = CARTESIAN_POINT ( 'NONE',  ( 1.387778780781445676E-14, 2817.965330118411202, 0.000000000000000000 ) ) ;
#259 = ORIENTED_EDGE ( 'NONE', *, *, #332, .F. ) ;
#260 = DIRECTION ( 'NONE',  ( 4.596983092540343816E-18, 1.000000000000000000, -0.000000000000000000 ) ) ;
#261 = ORIENTED_EDGE ( 'NONE', *, *, #43, .T. ) ;
#262 = DIRECTION ( 'NONE',  ( -1.224646799147353207E-16, 5.629680630014033300E-34, 1.000000000000000000 ) ) ;
#263 = ORIENTED_EDGE ( 'NONE', *, *, #225, .F. ) ;
#264 = VECTOR ( 'NONE', #157, 1000.000000000000000 ) ;
#265 = AXIS2_PLACEMENT_3D ( 'NONE', #296, #326, #137 ) ;
#266 = LINE ( 'NONE', #241, #141 ) ;
#267 = DIRECTION ( 'NONE',  ( 1.000000000000000000, 0.000000000000000000, 1.224646799147353700E-16 ) ) ;
#268 = EDGE_CURVE ( 'NONE', #248, #87, #159, .T. ) ;
#269 = CARTESIAN_POINT ( 'NONE',  ( 3.541678543134110713E-15, -14.92000000000000348, 0.000000000000000000 ) ) ;
#270 = APPROVAL ( #150, 'UNSPECIFIED' ) ;
#271 = DATE_AND_TIME ( #81, #175 ) ;
#272 = CIRCLE ( 'NONE', #357, 21.19999999999999574 ) ;
#273 = SHAPE_DEFINITION_REPRESENTATION ( #353, #387 ) ;
#274 = EDGE_LOOP ( 'NONE', ( #131, #61, #172, #58 ) ) ;
#275 = CC_DESIGN_APPROVAL ( #62, ( #192 ) ) ;
#276 = VERTEX_POINT ( 'NONE', #197 ) ;
#277 = CARTESIAN_POINT ( 'NONE',  ( 9.553528011646368897E-16, 6.896690858148257774, 0.000000000000000000 ) ) ;
#278 = EDGE_CURVE ( 'NONE', #87, #276, #266, .T. ) ;
#279 = EDGE_LOOP ( 'NONE', ( #371, #129, #316, #346 ) ) ;
#280 = AXIS2_PLACEMENT_3D ( 'NONE', #161, #130, #217 ) ;
#281 = FACE_OUTER_BOUND ( 'NONE', #164, .T. ) ;
#282 = ORIENTED_EDGE ( 'NONE', *, *, #110, .F. ) ;
#283 = CIRCLE ( 'NONE', #112, 19.50409288824382870 ) ;
#284 = DIRECTION ( 'NONE',  ( 4.596983092540343816E-18, 1.000000000000000000, -0.000000000000000000 ) ) ;
#285 = ORIENTED_EDGE ( 'NONE', *, *, #392, .F. ) ;
#286 = AXIS2_PLACEMENT_3D ( 'NONE', #117, #113, #232 ) ;
#287 = FACE_OUTER_BOUND ( 'NONE', #65, .T. ) ;
#288 = CARTESIAN_POINT ( 'NONE',  ( 19.19999999999999574, -8.826207537677457415E-17, 2.351321854362917684E-15 ) ) ;
#289 = CARTESIAN_POINT ( 'NONE',  ( 5.441176537264865592E-31, 6.896690858148157410, 0.000000000000000000 ) ) ;
#290 = CARTESIAN_POINT ( 'NONE',  ( 9.712188599920650855E-16, 10.34809768476341318, 0.000000000000000000 ) ) ;
#291 = DIRECTION ( 'NONE',  ( 4.596983092540343816E-18, 1.000000000000000000, -0.000000000000000000 ) ) ;
#292 = DIRECTION ( 'NONE',  ( 1.000000000000000000, -4.596983092540343046E-18, 0.000000000000000000 ) ) ;
#293 = EDGE_CURVE ( 'NONE', #253, #367, #199, .T. ) ;
#294 = ORIENTED_EDGE ( 'NONE', *, *, #363, .T. ) ;
#295 = AXIS2_PLACEMENT_3D ( 'NONE', #234, #291, #354 ) ;
#296 = CARTESIAN_POINT ( 'NONE',  ( 0.000000000000000000, 6.896690858148039283, 0.000000000000000000 ) ) ;
#297 = PRODUCT_DEFINITION ( 'UNKNOWN', '', #180, #361 ) ;
#298 = CARTESIAN_POINT ( 'NONE',  ( 19.50409288824382870, 10.34809768476341318, 2.492406853389217009E-15 ) ) ;
#299 = PERSON_AND_ORGANIZATION ( #205, #76 ) ;
#300 = APPROVAL_PERSON_ORGANIZATION ( #299, #54, #85 ) ;
#301 = CALENDAR_DATE ( 2024, 18, 7 ) ;
#302 = PERSON_AND_ORGANIZATION_ROLE ( 'design_supplier' ) ;
#303 = ORIENTED_EDGE ( 'NONE', *, *, #366, .F. ) ;
#304 = ADVANCED_FACE ( 'NONE', ( #5 ), #388, .F. ) ;
#305 = CARTESIAN_POINT ( 'NONE',  ( 1.847148665738477831E-15, 15.00000000000000000, 0.000000000000000000 ) ) ;
#306 = ORIENTED_EDGE ( 'NONE', *, *, #252, .T. ) ;
#307 =( NAMED_UNIT ( * ) SI_UNIT ( $, .STERADIAN. ) SOLID_ANGLE_UNIT ( ) );
#308 = DIRECTION ( 'NONE',  ( -1.224646799147353207E-16, 5.629680630014033300E-34, 1.000000000000000000 ) ) ;
#309 = AXIS2_PLACEMENT_3D ( 'NONE', #73, #136, #142 ) ;
#310 = ORIENTED_EDGE ( 'NONE', *, *, #125, .F. ) ;
#311 = VECTOR ( 'NONE', #209, 1000.000000000000000 ) ;
#312 = AXIS2_PLACEMENT_3D ( 'NONE', #337, #3, #90 ) ;
#313 = CARTESIAN_POINT ( 'NONE',  ( -2.240018876628788608E-34, -4.872802078092763705E-17, 0.000000000000000000 ) ) ;
#314 = ORIENTED_EDGE ( 'NONE', *, *, #115, .F. ) ;
#315 = DIRECTION ( 'NONE',  ( 4.596983092540343816E-18, 1.000000000000000000, -0.000000000000000000 ) ) ;
#316 = ORIENTED_EDGE ( 'NONE', *, *, #170, .T. ) ;
#317 = DIRECTION ( 'NONE',  ( -1.000000000000000000, 0.000000000000000000, 0.000000000000000000 ) ) ;
#318 = CIRCLE ( 'NONE', #280, 21.19999999999999574 ) ;
#319 = AXIS2_PLACEMENT_3D ( 'NONE', #60, #372, #97 ) ;
#320 = DIRECTION ( 'NONE',  ( -1.000000000000000000, 0.000000000000000000, 0.000000000000000000 ) ) ;
#321 = DIRECTION ( 'NONE',  ( -1.000000000000000000, 4.596983092540343816E-18, 0.000000000000000000 ) ) ;
#322 = ADVANCED_FACE ( 'NONE', ( #323 ), #389, .T. ) ;
#323 = FACE_OUTER_BOUND ( 'NONE', #189, .T. ) ;
#324 = ORIENTED_EDGE ( 'NONE', *, *, #110, .T. ) ;
#325 = AXIS2_PLACEMENT_3D ( 'NONE', #269, #393, #320 ) ;
#326 = DIRECTION ( 'NONE',  ( 4.596983092540343816E-18, 1.000000000000000000, -0.000000000000000000 ) ) ;
#327 = SPHERICAL_SURFACE ( 'NONE', #325, 29.92000000000000171 ) ;
#328 = ADVANCED_FACE ( 'NONE', ( #202 ), #24, .T. ) ;
#329 = AXIS2_PLACEMENT_3D ( 'NONE', #200, #174, #321 ) ;
#330 = CIRCLE ( 'NONE', #178, 21.19999999999999574 ) ;
#331 = DIRECTION ( 'NONE',  ( 4.596983092540343816E-18, 1.000000000000000000, -0.000000000000000000 ) ) ;
#332 = EDGE_CURVE ( 'NONE', #25, #194, #84, .T. ) ;
#333 = TOROIDAL_SURFACE ( 'NONE', #35, 16.83999999999999631, 4.360000000000000320 ) ;
#334 = DATE_AND_TIME ( #152, #227 ) ;
#335 = ORIENTED_EDGE ( 'NONE', *, *, #212, .F. ) ;
#336 = EDGE_CURVE ( 'NONE', #37, #407, #196, .T. ) ;
#337 = CARTESIAN_POINT ( 'NONE',  ( 3.541678543134110713E-15, -14.92000000000000348, 0.000000000000000000 ) ) ;
#338 = COORDINATED_UNIVERSAL_TIME_OFFSET ( 1, 0, .AHEAD. ) ;
#339 = VERTEX_POINT ( 'NONE', #390 ) ;
#340 = CARTESIAN_POINT ( 'NONE',  ( -19.19999999999998153, 2817.965330118411202, 0.000000000000000000 ) ) ;
#341 = VERTEX_POINT ( 'NONE', #72 ) ;
#342 = CC_DESIGN_PERSON_AND_ORGANIZATION_ASSIGNMENT ( #119, #369, ( #297 ) ) ;
#343 = FACE_OUTER_BOUND ( 'NONE', #99, .T. ) ;
#344 = ORIENTED_EDGE ( 'NONE', *, *, #392, .T. ) ;
#345 = CARTESIAN_POINT ( 'NONE',  ( 21.19999999999999574, -9.745604156185527411E-17, 2.596251214192388375E-15 ) ) ;
#346 = ORIENTED_EDGE ( 'NONE', *, *, #252, .F. ) ;
#347 = DIRECTION ( 'NONE',  ( 4.596983092540343816E-18, 1.000000000000000000, -0.000000000000000000 ) ) ;
#348 = CARTESIAN_POINT ( 'NONE',  ( 9.236488298952508525E-16, 0.000000000000000000, 0.000000000000000000 ) ) ;
#349 = DIRECTION ( 'NONE',  ( -1.224646799147353207E-16, 5.629680630014033300E-34, 1.000000000000000000 ) ) ;
#350 = DIRECTION ( 'NONE',  ( 1.000000000000000000, -4.596983092540343046E-18, 0.000000000000000000 ) ) ;
#351 = EDGE_CURVE ( 'NONE', #25, #226, #249, .T. ) ;
#352 = AXIS2_PLACEMENT_3D ( 'NONE', #143, #331, #140 ) ;
#353 = PRODUCT_DEFINITION_SHAPE ( 'NONE', 'NONE',  #297 ) ;
#354 = DIRECTION ( 'NONE',  ( -1.000000000000000000, 0.000000000000000000, 0.000000000000000000 ) ) ;
#355 = AXIS2_PLACEMENT_3D ( 'NONE', #313, #26, #102 ) ;
#356 = DIRECTION ( 'NONE',  ( 4.596983092540343816E-18, 1.000000000000000000, -0.000000000000000000 ) ) ;
#357 = AXIS2_PLACEMENT_3D ( 'NONE', #69, #15, #33 ) ;
#358 = DIRECTION ( 'NONE',  ( 1.000000000000000000, 0.000000000000000000, 1.224646799147353207E-16 ) ) ;
#359 = DIRECTION ( 'NONE',  ( 0.000000000000000000, 0.000000000000000000, 1.000000000000000000 ) ) ;
#360 = PERSON_AND_ORGANIZATION_ROLE ( 'design_owner' ) ;
#361 = DESIGN_CONTEXT ( 'detailed design', #92, 'design' ) ;
#362 = DIRECTION ( 'NONE',  ( -1.000000000000000000, 0.000000000000000000, 0.000000000000000000 ) ) ;
#363 = EDGE_CURVE ( 'NONE', #407, #339, #38, .T. ) ;
#364 = AXIS2_PLACEMENT_3D ( 'NONE', #348, #386, #350 ) ;
#365 = COORDINATED_UNIVERSAL_TIME_OFFSET ( 1, 0, .AHEAD. ) ;
#366 = EDGE_CURVE ( 'NONE', #367, #27, #49, .T. ) ;
#367 = VERTEX_POINT ( 'NONE', #77 ) ;
#368 = DIRECTION ( 'NONE',  ( -1.000000000000000000, 0.000000000000000000, 0.000000000000000000 ) ) ;
#369 = PERSON_AND_ORGANIZATION_ROLE ( 'creator' ) ;
#370 = AXIS2_PLACEMENT_3D ( 'NONE', #66, #193, #317 ) ;
#371 = ORIENTED_EDGE ( 'NONE', *, *, #56, .F. ) ;
#372 = DIRECTION ( 'NONE',  ( 4.596983092540343816E-18, 1.000000000000000000, -0.000000000000000000 ) ) ;
#373 = ORIENTED_EDGE ( 'NONE', *, *, #268, .F. ) ;
#374 = CYLINDRICAL_SURFACE ( 'NONE', #107, 19.19999999999999574 ) ;
#375 = EDGE_LOOP ( 'NONE', ( #251, #400, #344, #314 ) ) ;
#376 = AXIS2_PLACEMENT_3D ( 'NONE', #48, #45, #36 ) ;
#377 = DIRECTION ( 'NONE',  ( 4.596983092540343816E-18, 1.000000000000000000, -0.000000000000000000 ) ) ;
#378 = ORIENTED_EDGE ( 'NONE', *, *, #336, .T. ) ;
#379 = DIRECTION ( 'NONE',  ( 4.596983092540343816E-18, 1.000000000000000000, -0.000000000000000000 ) ) ;
#380 = ORIENTED_EDGE ( 'NONE', *, *, #268, .T. ) ;
#381 = DIRECTION ( 'NONE',  ( -1.000000000000000000, 0.000000000000000000, 0.000000000000000000 ) ) ;
#382 = ADVANCED_FACE ( 'NONE', ( #204 ), #327, .F. ) ;
#383 = SPHERICAL_SURFACE ( 'NONE', #385, 29.92000000000000171 ) ;
#384 = DIRECTION ( 'NONE',  ( -1.000000000000000000, 0.000000000000000000, 0.000000000000000000 ) ) ;
#385 = AXIS2_PLACEMENT_3D ( 'NONE', #29, #104, #167 ) ;
#386 = DIRECTION ( 'NONE',  ( 4.596983092540343816E-18, 1.000000000000000000, -0.000000000000000000 ) ) ;
#387 = ADVANCED_BREP_SHAPE_REPRESENTATION ( '3D_R175_DN42.4x2_17336210', ( #151, #394 ), #391 ) ;
#388 = TOROIDAL_SURFACE ( 'NONE', #352, 16.83999999999999631, 2.360000000000000320 ) ;
#389 = CYLINDRICAL_SURFACE ( 'NONE', #231, 21.19999999999999574 ) ;
#390 = CARTESIAN_POINT ( 'NONE',  ( 1.733877952008822520E-15, 17.00000000000000000, 0.000000000000000000 ) ) ;
#391 =( GEOMETRIC_REPRESENTATION_CONTEXT ( 3 ) GLOBAL_UNCERTAINTY_ASSIGNED_CONTEXT ( ( #116 ) ) GLOBAL_UNIT_ASSIGNED_CONTEXT ( ( #243, #404, #307 ) ) REPRESENTATION_CONTEXT ( 'NONE', 'WORKASPACE' ) );
#392 = EDGE_CURVE ( 'NONE', #194, #25, #166, .T. ) ;
#393 = DIRECTION ( 'NONE',  ( 0.000000000000000000, 0.000000000000000000, 1.000000000000000000 ) ) ;
#394 = AXIS2_PLACEMENT_3D ( 'NONE', #40, #359, #79 ) ;
#395 = APPROVAL_DATE_TIME ( #215, #54 ) ;
#396 = CIRCLE ( 'NONE', #329, 21.19999999999999574 ) ;
#397 = DATE_AND_TIME ( #301, #42 ) ;
#398 = CC_DESIGN_DATE_AND_TIME_ASSIGNMENT ( #18, #242, ( #297 ) ) ;
#399 = EDGE_CURVE ( 'NONE', #341, #276, #203, .T. ) ;
#400 = ORIENTED_EDGE ( 'NONE', *, *, #125, .T. ) ;
#401 = LINE ( 'NONE', #95, #264 ) ;
#402 = PERSON_AND_ORGANIZATION_ROLE ( 'creator' ) ;
#403 = ORIENTED_EDGE ( 'NONE', *, *, #94, .T. ) ;
#404 =( NAMED_UNIT ( * ) PLANE_ANGLE_UNIT ( ) SI_UNIT ( $, .RADIAN. ) );
#405 = DIRECTION ( 'NONE',  ( -1.000000000000000000, 0.000000000000000000, 0.000000000000000000 ) ) ;
#406 = AXIS2_PLACEMENT_3D ( 'NONE', #8, #171, #292 ) ;
#407 = VERTEX_POINT ( 'NONE', #298 ) ;
#408 = DIRECTION ( 'NONE',  ( 1.000000000000000000, 0.000000000000000000, 1.224646799147352468E-16 ) ) ;
#409 = ORIENTED_EDGE ( 'NONE', *, *, #219, .F. ) ;
#410 = EDGE_CURVE ( 'NONE', #126, #253, #272, .T. ) ;
#411 = CARTESIAN_POINT ( 'NONE',  ( 9.712188599920650855E-16, 10.34809768476341318, 0.000000000000000000 ) ) ;
ENDSEC;
END-ISO-10303-21;
