ISO-10303-21;
HEADER;
FILE_DESCRIPTION (( 'STEP AP203' ),
    '1' );
FILE_NAME ('19-0408-06_outokumpu.step',
    '2015-08-11T09:41:37',
    ( '' ),
    ( '' ),
    'SwSTEP 2.0',
    'SolidWorks 2008',
    '' );
FILE_SCHEMA (( 'CONFIG_CONTROL_DESIGN' ));
ENDSEC;

DATA;
#1 = EDGE_LOOP ( 'NONE', ( #19, #74, #49, #30, #51 ) ) ;
#2 = ADVANCED_FACE ( 'NONE', ( #133 ), #134, .F. ) ;
#3 = ORIENTED_EDGE ( 'NONE', *, *, #23, .T. ) ;
#4 = ORIENTED_EDGE ( 'NONE', *, *, #24, .F. ) ;
#5 = ORIENTED_EDGE ( 'NONE', *, *, #6, .T. ) ;
#6 = EDGE_CURVE ( 'NONE', #10, #7, #126, .T. ) ;
#7 = VERTEX_POINT ( 'NONE', #169 ) ;
#8 = ORIENTED_EDGE ( 'NONE', *, *, #84, .T. ) ;
#9 = ORIENTED_EDGE ( 'NONE', *, *, #43, .T. ) ;
#10 = VERTEX_POINT ( 'NONE', #168 ) ;
#11 = MANIFOLD_SOLID_BREP ( 'NONE', #107 ) ;
#12 = ADVANCED_FACE ( 'NONE', ( #151 ), #149, .F. ) ;
#13 = EDGE_LOOP ( 'NONE', ( #5, #3, #4, #20 ) ) ;
#14 = EDGE_CURVE ( 'NONE', #44, #27, #145, .T. ) ;
#15 = ADVANCED_FACE ( 'NONE', ( #141 ), #140, .F. ) ;
#16 = EDGE_LOOP ( 'NONE', ( #58, #69, #75, #60, #71 ) ) ;
#17 = VERTEX_POINT ( 'NONE', #139 ) ;
#18 = EDGE_CURVE ( 'NONE', #10, #22, #186, .T. ) ;
#19 = ORIENTED_EDGE ( 'NONE', *, *, #50, .T. ) ;
#20 = ORIENTED_EDGE ( 'NONE', *, *, #18, .F. ) ;
#21 = VERTEX_POINT ( 'NONE', #182 ) ;
#22 = VERTEX_POINT ( 'NONE', #181 ) ;
#23 = EDGE_CURVE ( 'NONE', #7, #21, #180, .T. ) ;
#24 = EDGE_CURVE ( 'NONE', #22, #21, #176, .T. ) ;
#25 = ORIENTED_EDGE ( 'NONE', *, *, #14, .F. ) ;
#26 = VERTEX_POINT ( 'NONE', #171 ) ;
#27 = VERTEX_POINT ( 'NONE', #170 ) ;
#28 = EDGE_CURVE ( 'NONE', #48, #17, #167, .T. ) ;
#29 = VERTEX_POINT ( 'NONE', #162 ) ;
#30 = ORIENTED_EDGE ( 'NONE', *, *, #46, .F. ) ;
#31 = ORIENTED_EDGE ( 'NONE', *, *, #94, .T. ) ;
#32 = ORIENTED_EDGE ( 'NONE', *, *, #28, .T. ) ;
#33 = ORIENTED_EDGE ( 'NONE', *, *, #94, .F. ) ;
#34 = VERTEX_POINT ( 'NONE', #161 ) ;
#35 = EDGE_CURVE ( 'NONE', #10, #48, #160, .T. ) ;
#36 = ORIENTED_EDGE ( 'NONE', *, *, #42, .T. ) ;
#37 = VERTEX_POINT ( 'NONE', #156 ) ;
#38 = EDGE_LOOP ( 'NONE', ( #39, #41, #32, #33 ) ) ;
#39 = ORIENTED_EDGE ( 'NONE', *, *, #6, .F. ) ;
#40 = ORIENTED_EDGE ( 'NONE', *, *, #43, .F. ) ;
#41 = ORIENTED_EDGE ( 'NONE', *, *, #35, .T. ) ;
#42 = EDGE_CURVE ( 'NONE', #57, #37, #154, .T. ) ;
#43 = EDGE_CURVE ( 'NONE', #27, #37, #250, .T. ) ;
#44 = VERTEX_POINT ( 'NONE', #254 ) ;
#45 = EDGE_CURVE ( 'NONE', #26, #17, #259, .T. ) ;
#46 = EDGE_CURVE ( 'NONE', #29, #48, #248, .T. ) ;
#47 = ADVANCED_FACE ( 'NONE', ( #260 ), #264, .F. ) ;
#48 = VERTEX_POINT ( 'NONE', #263 ) ;
#49 = ORIENTED_EDGE ( 'NONE', *, *, #28, .F. ) ;
#50 = EDGE_CURVE ( 'NONE', #34, #26, #221, .T. ) ;
#51 = ORIENTED_EDGE ( 'NONE', *, *, #52, .T. ) ;
#52 = EDGE_CURVE ( 'NONE', #29, #34, #217, .T. ) ;
#53 = EDGE_LOOP ( 'NONE', ( #55, #36, #40, #25 ) ) ;
#54 = ORIENTED_EDGE ( 'NONE', *, *, #87, .F. ) ;
#55 = ORIENTED_EDGE ( 'NONE', *, *, #56, .T. ) ;
#56 = EDGE_CURVE ( 'NONE', #44, #57, #213, .T. ) ;
#57 = VERTEX_POINT ( 'NONE', #208 ) ;
#58 = ORIENTED_EDGE ( 'NONE', *, *, #66, .F. ) ;
#59 = EDGE_CURVE ( 'NONE', #68, #70, #207, .T. ) ;
#60 = ORIENTED_EDGE ( 'NONE', *, *, #61, .F. ) ;
#61 = EDGE_CURVE ( 'NONE', #70, #29, #203, .T. ) ;
#62 = EDGE_LOOP ( 'NONE', ( #65, #76 ) ) ;
#63 = EDGE_CURVE ( 'NONE', #21, #22, #198, .T. ) ;
#64 = ORIENTED_EDGE ( 'NONE', *, *, #77, .F. ) ;
#65 = ORIENTED_EDGE ( 'NONE', *, *, #24, .T. ) ;
#66 = EDGE_CURVE ( 'NONE', #67, #68, #193, .T. ) ;
#67 = VERTEX_POINT ( 'NONE', #188 ) ;
#68 = VERTEX_POINT ( 'NONE', #187 ) ;
#69 = ORIENTED_EDGE ( 'NONE', *, *, #72, .T. ) ;
#70 = VERTEX_POINT ( 'NONE', #273 ) ;
#71 = ORIENTED_EDGE ( 'NONE', *, *, #59, .F. ) ;
#72 = EDGE_CURVE ( 'NONE', #67, #34, #272, .T. ) ;
#73 = ADVANCED_FACE ( 'NONE', ( #268 ), #267, .T. ) ;
#74 = ORIENTED_EDGE ( 'NONE', *, *, #45, .T. ) ;
#75 = ORIENTED_EDGE ( 'NONE', *, *, #52, .F. ) ;
#76 = ORIENTED_EDGE ( 'NONE', *, *, #63, .T. ) ;
#77 = EDGE_CURVE ( 'NONE', #57, #44, #244, .T. ) ;
#78 = ORIENTED_EDGE ( 'NONE', *, *, #66, .T. ) ;
#79 = EDGE_LOOP ( 'NONE', ( #9, #105 ) ) ;
#80 = ORIENTED_EDGE ( 'NONE', *, *, #59, .T. ) ;
#81 = EDGE_LOOP ( 'NONE', ( #93, #64 ) ) ;
#82 = ADVANCED_FACE ( 'NONE', ( #239 ), #238, .F. ) ;
#83 = ORIENTED_EDGE ( 'NONE', *, *, #72, .F. ) ;
#84 = EDGE_CURVE ( 'NONE', #17, #48, #231, .T. ) ;
#85 = ADVANCED_FACE ( 'NONE', ( #276 ), #302, .F. ) ;
#86 = ADVANCED_FACE ( 'NONE', ( #297, #296 ), #288, .F. ) ;
#87 = EDGE_CURVE ( 'NONE', #7, #10, #277, .T. ) ;
#88 = ORIENTED_EDGE ( 'NONE', *, *, #35, .F. ) ;
#89 = EDGE_LOOP ( 'NONE', ( #88, #54, #31, #8 ) ) ;
#90 = ORIENTED_EDGE ( 'NONE', *, *, #42, .F. ) ;
#91 = ORIENTED_EDGE ( 'NONE', *, *, #77, .T. ) ;
#92 = ORIENTED_EDGE ( 'NONE', *, *, #112, .F. ) ;
#93 = ORIENTED_EDGE ( 'NONE', *, *, #56, .F. ) ;
#94 = EDGE_CURVE ( 'NONE', #7, #17, #283, .T. ) ;
#95 = EDGE_LOOP ( 'NONE', ( #83, #92, #80, #114, #115 ) ) ;
#96 = ORIENTED_EDGE ( 'NONE', *, *, #112, .T. ) ;
#97 = EDGE_LOOP ( 'NONE', ( #96, #78 ) ) ;
#98 = ADVANCED_FACE ( 'NONE', ( #305 ), #303, .T. ) ;
#99 = EDGE_CURVE ( 'NONE', #26, #70, #298, .T. ) ;
#100 = ADVANCED_FACE ( 'NONE', ( #290 ), #289, .F. ) ;
#101 = ORIENTED_EDGE ( 'NONE', *, *, #45, .F. ) ;
#102 = ORIENTED_EDGE ( 'NONE', *, *, #87, .T. ) ;
#103 = ORIENTED_EDGE ( 'NONE', *, *, #18, .T. ) ;
#104 = EDGE_LOOP ( 'NONE', ( #101, #117, #123, #121, #116 ) ) ;
#105 = ORIENTED_EDGE ( 'NONE', *, *, #111, .T. ) ;
#106 = EDGE_LOOP ( 'NONE', ( #90, #91, #109, #110 ) ) ;
#107 = CLOSED_SHELL ( 'NONE', ( #12, #2, #73, #15, #47, #86, #85, #82, #98, #113, #100, #118 ) ) ;
#108 = ORIENTED_EDGE ( 'NONE', *, *, #63, .F. ) ;
#109 = ORIENTED_EDGE ( 'NONE', *, *, #14, .T. ) ;
#110 = ORIENTED_EDGE ( 'NONE', *, *, #111, .F. ) ;
#111 = EDGE_CURVE ( 'NONE', #37, #27, #401, .T. ) ;
#112 = EDGE_CURVE ( 'NONE', #68, #67, #416, .T. ) ;
#113 = ADVANCED_FACE ( 'NONE', ( #410, #418 ), #417, .F. ) ;
#114 = ORIENTED_EDGE ( 'NONE', *, *, #99, .F. ) ;
#115 = ORIENTED_EDGE ( 'NONE', *, *, #50, .F. ) ;
#116 = ORIENTED_EDGE ( 'NONE', *, *, #84, .F. ) ;
#117 = ORIENTED_EDGE ( 'NONE', *, *, #99, .T. ) ;
#118 = ADVANCED_FACE ( 'NONE', ( #406 ), #415, .F. ) ;
#119 = DIRECTION ( 'NONE',  ( -0.0000000000000000000, -0.0000000000000000000, 1.000000000000000000 ) ) ;
#120 = VECTOR ( 'NONE', #119, 1000.000000000000000 ) ;
#121 = ORIENTED_EDGE ( 'NONE', *, *, #46, .T. ) ;
#122 = ORIENTED_EDGE ( 'NONE', *, *, #23, .F. ) ;
#123 = ORIENTED_EDGE ( 'NONE', *, *, #61, .T. ) ;
#124 = EDGE_LOOP ( 'NONE', ( #122, #102, #103, #108 ) ) ;
#125 = AXIS2_PLACEMENT_3D ( 'NONE', #128, #127, #152 ) ;
#126 = CIRCLE ( 'NONE', #125, 16.62450000000000100 ) ;
#127 = DIRECTION ( 'NONE',  ( -0.0000000000000000000, -0.0000000000000000000, 1.000000000000000000 ) ) ;
#128 = CARTESIAN_POINT ( 'NONE',  ( 0.0000000000000000000, 0.0000000000000000000, -119.4194596675845500 ) ) ;
#129 = DIRECTION ( 'NONE',  ( 0.0000000000000000000, 0.0000000000000000000, -1.000000000000000000 ) ) ;
#130 = CARTESIAN_POINT ( 'NONE',  ( 0.0000000000000000000, 0.0000000000000000000, -101.1544999999999800 ) ) ;
#131 = AXIS2_PLACEMENT_3D ( 'NONE', #130, #129, #132 ) ;
#132 = DIRECTION ( 'NONE',  ( -1.000000000000000000, 0.0000000000000000000, 0.0000000000000000000 ) ) ;
#133 = FACE_OUTER_BOUND ( 'NONE', #1, .T. ) ;
#134 = CONICAL_SURFACE ( 'NONE', #131, 16.62450000000000100, 0.9080002089392059700 ) ;
#135 = DIRECTION ( 'NONE',  ( 0.0000000000000000000, 1.000000000000000000, 0.0000000000000000000 ) ) ;
#136 = DIRECTION ( 'NONE',  ( -0.0000000000000000000, 3.911744792584156800E-017, -1.000000000000000000 ) ) ;
#137 = CARTESIAN_POINT ( 'NONE',  ( 0.0000000000000000000, 1.224646799147375100E-015, -120.0000000000000600 ) ) ;
#138 = AXIS2_PLACEMENT_3D ( 'NONE', #137, #136, #135 ) ;
#139 = CARTESIAN_POINT ( 'NONE',  ( 16.62450000000000100, 0.0000000000000000000, -101.1544999999999800 ) ) ;
#140 = CYLINDRICAL_SURFACE ( 'NONE', #138, 15.14550000000000200 ) ;
#141 = FACE_OUTER_BOUND ( 'NONE', #16, .T. ) ;
#142 = DIRECTION ( 'NONE',  ( -0.0000000000000000000, -0.0000000000000000000, 1.000000000000000000 ) ) ;
#143 = VECTOR ( 'NONE', #142, 1000.000000000000000 ) ;
#144 = CARTESIAN_POINT ( 'NONE',  ( 19.89999999999999500, 0.0000000000000000000, -4.336808689942017700E-016 ) ) ;
#145 = LINE ( 'NONE', #144, #143 ) ;
#146 = DIRECTION ( 'NONE',  ( -1.000000000000000000, 0.0000000000000000000, 0.0000000000000000000 ) ) ;
#147 = DIRECTION ( 'NONE',  ( 0.0000000000000000000, 0.0000000000000000000, -1.000000000000000000 ) ) ;
#148 = AXIS2_PLACEMENT_3D ( 'NONE', #150, #147, #146 ) ;
#149 = CONICAL_SURFACE ( 'NONE', #148, 17.20504033241546800, 0.7853981633974662600 ) ;
#150 = CARTESIAN_POINT ( 'NONE',  ( 0.0000000000000000000, 0.0000000000000000000, -120.0000000000000000 ) ) ;
#151 = FACE_OUTER_BOUND ( 'NONE', #13, .T. ) ;
#152 = DIRECTION ( 'NONE',  ( 1.000000000000000000, 0.0000000000000000000, 0.0000000000000000000 ) ) ;
#153 = CARTESIAN_POINT ( 'NONE',  ( -19.89999999999999500, 2.436966644106530300E-015, -4.336808689942017700E-016 ) ) ;
#154 = LINE ( 'NONE', #153, #120 ) ;
#155 = AXIS2_PLACEMENT_3D ( 'NONE', #233, #232, #309 ) ;
#156 = CARTESIAN_POINT ( 'NONE',  ( -19.89999999999999900, 2.436966644106530700E-015, 0.0000000000000000000 ) ) ;
#157 = DIRECTION ( 'NONE',  ( -0.0000000000000000000, -0.0000000000000000000, 1.000000000000000000 ) ) ;
#158 = VECTOR ( 'NONE', #157, 1000.000000000000000 ) ;
#159 = CARTESIAN_POINT ( 'NONE',  ( -16.62450000000000100, 2.035846832912011300E-015, -4.336808689942017700E-016 ) ) ;
#160 = LINE ( 'NONE', #159, #158 ) ;
#161 = CARTESIAN_POINT ( 'NONE',  ( 1.854727553181680900E-015, -15.14549999999998800, -99.99999999999997200 ) ) ;
#162 = CARTESIAN_POINT ( 'NONE',  ( -15.14549999999998800, 0.0000000000000000000, -99.99999999999997200 ) ) ;
#163 = DIRECTION ( 'NONE',  ( 1.000000000000000000, 0.0000000000000000000, 0.0000000000000000000 ) ) ;
#164 = DIRECTION ( 'NONE',  ( -0.0000000000000000000, -0.0000000000000000000, 1.000000000000000000 ) ) ;
#165 = CARTESIAN_POINT ( 'NONE',  ( 0.0000000000000000000, 0.0000000000000000000, -101.1544999999999800 ) ) ;
#166 = AXIS2_PLACEMENT_3D ( 'NONE', #165, #164, #163 ) ;
#167 = CIRCLE ( 'NONE', #166, 16.62450000000000100 ) ;
#168 = CARTESIAN_POINT ( 'NONE',  ( -16.62450000000000100, 2.035846832912011300E-015, -119.4194596675845500 ) ) ;
#169 = CARTESIAN_POINT ( 'NONE',  ( 16.62450000000000100, 0.0000000000000000000, -119.4194596675845500 ) ) ;
#170 = CARTESIAN_POINT ( 'NONE',  ( 19.89999999999999900, 0.0000000000000000000, 0.0000000000000000000 ) ) ;
#171 = CARTESIAN_POINT ( 'NONE',  ( 15.14549999999998800, 1.945287193046845300E-015, -99.99999999999997200 ) ) ;
#172 = DIRECTION ( 'NONE',  ( 1.000000000000000000, 0.0000000000000000000, 0.0000000000000000000 ) ) ;
#173 = DIRECTION ( 'NONE',  ( -0.0000000000000000000, -0.0000000000000000000, 1.000000000000000000 ) ) ;
#174 = CARTESIAN_POINT ( 'NONE',  ( 0.0000000000000000000, 0.0000000000000000000, -120.0000000000000000 ) ) ;
#175 = AXIS2_PLACEMENT_3D ( 'NONE', #174, #173, #172 ) ;
#176 = CIRCLE ( 'NONE', #175, 17.20504033241546800 ) ;
#177 = DIRECTION ( 'NONE',  ( 0.7071067811865602300, 8.659274570719510700E-017, -0.7071067811865348100 ) ) ;
#178 = VECTOR ( 'NONE', #177, 1000.000000000000000 ) ;
#179 = CARTESIAN_POINT ( 'NONE',  ( 17.20504033241546800, 2.106940170884624900E-015, -120.0000000000000000 ) ) ;
#180 = LINE ( 'NONE', #179, #178 ) ;
#181 = CARTESIAN_POINT ( 'NONE',  ( -17.20504033241546800, 0.0000000000000000000, -120.0000000000000000 ) ) ;
#182 = CARTESIAN_POINT ( 'NONE',  ( 17.20504033241546800, 2.106940170884624900E-015, -120.0000000000000000 ) ) ;
#183 = DIRECTION ( 'NONE',  ( -0.7071067811865602300, 0.0000000000000000000, -0.7071067811865348100 ) ) ;
#184 = VECTOR ( 'NONE', #183, 1000.000000000000000 ) ;
#185 = CARTESIAN_POINT ( 'NONE',  ( -17.20504033241546800, 0.0000000000000000000, -120.0000000000000000 ) ) ;
#186 = LINE ( 'NONE', #185, #184 ) ;
#187 = CARTESIAN_POINT ( 'NONE',  ( 0.0000000000000000000, 15.14549999999998800, 5.924533075608331000E-016 ) ) ;
#188 = CARTESIAN_POINT ( 'NONE',  ( 1.854727553181681200E-015, -15.14549999999999500, -5.924533075608332000E-016 ) ) ;
#189 = DIRECTION ( 'NONE',  ( 0.0000000000000000000, 1.000000000000000000, 3.911744792584156800E-017 ) ) ;
#190 = DIRECTION ( 'NONE',  ( -0.0000000000000000000, 3.911744792584156800E-017, -1.000000000000000000 ) ) ;
#191 = CARTESIAN_POINT ( 'NONE',  ( 0.0000000000000000000, -3.469446951953615000E-015, 0.0000000000000000000 ) ) ;
#192 = AXIS2_PLACEMENT_3D ( 'NONE', #191, #190, #189 ) ;
#193 = CIRCLE ( 'NONE', #192, 15.14549999999999100 ) ;
#194 = DIRECTION ( 'NONE',  ( 1.000000000000000000, 0.0000000000000000000, 0.0000000000000000000 ) ) ;
#195 = DIRECTION ( 'NONE',  ( -0.0000000000000000000, -0.0000000000000000000, 1.000000000000000000 ) ) ;
#196 = CARTESIAN_POINT ( 'NONE',  ( 0.0000000000000000000, 0.0000000000000000000, -120.0000000000000000 ) ) ;
#197 = AXIS2_PLACEMENT_3D ( 'NONE', #196, #195, #194 ) ;
#198 = CIRCLE ( 'NONE', #197, 17.20504033241546800 ) ;
#199 = DIRECTION ( 'NONE',  ( 1.000000000000000000, 0.0000000000000000000, 0.0000000000000000000 ) ) ;
#200 = DIRECTION ( 'NONE',  ( -0.0000000000000000000, -0.0000000000000000000, 1.000000000000000000 ) ) ;
#201 = CARTESIAN_POINT ( 'NONE',  ( 0.0000000000000000000, 0.0000000000000000000, -99.99999999999997200 ) ) ;
#202 = AXIS2_PLACEMENT_3D ( 'NONE', #201, #200, #199 ) ;
#203 = CIRCLE ( 'NONE', #202, 15.14549999999998800 ) ;
#204 = DIRECTION ( 'NONE',  ( -0.0000000000000000000, 3.911744792584156800E-017, -1.000000000000000000 ) ) ;
#205 = VECTOR ( 'NONE', #204, 1000.000000000000000 ) ;
#206 = CARTESIAN_POINT ( 'NONE',  ( 0.0000000000000000000, 15.14550000000000400, -120.0000000000000600 ) ) ;
#207 = LINE ( 'NONE', #206, #205 ) ;
#208 = CARTESIAN_POINT ( 'NONE',  ( -19.89999999999999500, 2.436966644106530300E-015, -120.0000000000000000 ) ) ;
#209 = DIRECTION ( 'NONE',  ( 1.000000000000000000, 0.0000000000000000000, 0.0000000000000000000 ) ) ;
#210 = DIRECTION ( 'NONE',  ( -0.0000000000000000000, -0.0000000000000000000, 1.000000000000000000 ) ) ;
#211 = CARTESIAN_POINT ( 'NONE',  ( 0.0000000000000000000, 0.0000000000000000000, -120.0000000000000000 ) ) ;
#212 = AXIS2_PLACEMENT_3D ( 'NONE', #211, #210, #209 ) ;
#213 = CIRCLE ( 'NONE', #212, 19.89999999999999500 ) ;
#214 = DIRECTION ( 'NONE',  ( 1.000000000000000000, 0.0000000000000000000, 0.0000000000000000000 ) ) ;
#215 = DIRECTION ( 'NONE',  ( -0.0000000000000000000, -0.0000000000000000000, 1.000000000000000000 ) ) ;
#216 = AXIS2_PLACEMENT_3D ( 'NONE', #222, #215, #214 ) ;
#217 = CIRCLE ( 'NONE', #216, 15.14549999999998800 ) ;
#218 = DIRECTION ( 'NONE',  ( 0.7882747985675394600, 9.653263268838632700E-017, -0.6153233637229331700 ) ) ;
#219 = VECTOR ( 'NONE', #218, 1000.000000000000100 ) ;
#220 = AXIS2_PLACEMENT_3D ( 'NONE', #253, #252, #251 ) ;
#221 = CIRCLE ( 'NONE', #220, 15.14549999999998800 ) ;
#222 = CARTESIAN_POINT ( 'NONE',  ( 0.0000000000000000000, 0.0000000000000000000, -99.99999999999997200 ) ) ;
#223 = CARTESIAN_POINT ( 'NONE',  ( 0.0000000000000000000, 0.0000000000000000000, -4.336808689942017700E-016 ) ) ;
#224 = AXIS2_PLACEMENT_3D ( 'NONE', #223, #262, #261 ) ;
#225 = DIRECTION ( 'NONE',  ( -0.7882747985675394600, 0.0000000000000000000, -0.6153233637229331700 ) ) ;
#226 = VECTOR ( 'NONE', #225, 1000.000000000000100 ) ;
#227 = DIRECTION ( 'NONE',  ( 1.000000000000000000, 0.0000000000000000000, 0.0000000000000000000 ) ) ;
#228 = DIRECTION ( 'NONE',  ( -0.0000000000000000000, -0.0000000000000000000, 1.000000000000000000 ) ) ;
#229 = CARTESIAN_POINT ( 'NONE',  ( 0.0000000000000000000, 0.0000000000000000000, -101.1544999999999800 ) ) ;
#230 = AXIS2_PLACEMENT_3D ( 'NONE', #229, #228, #227 ) ;
#231 = CIRCLE ( 'NONE', #230, 16.62450000000000100 ) ;
#232 = DIRECTION ( 'NONE',  ( 0.0000000000000000000, 0.0000000000000000000, -1.000000000000000000 ) ) ;
#233 = CARTESIAN_POINT ( 'NONE',  ( 0.0000000000000000000, 0.0000000000000000000, -101.1544999999999800 ) ) ;
#234 = DIRECTION ( 'NONE',  ( 0.0000000000000000000, 1.000000000000000000, 0.0000000000000000000 ) ) ;
#235 = DIRECTION ( 'NONE',  ( -0.0000000000000000000, 3.911744792584156800E-017, -1.000000000000000000 ) ) ;
#236 = CARTESIAN_POINT ( 'NONE',  ( 0.0000000000000000000, 1.224646799147375100E-015, -120.0000000000000600 ) ) ;
#237 = AXIS2_PLACEMENT_3D ( 'NONE', #236, #235, #234 ) ;
#238 = CYLINDRICAL_SURFACE ( 'NONE', #237, 15.14550000000000200 ) ;
#239 = FACE_OUTER_BOUND ( 'NONE', #95, .T. ) ;
#240 = DIRECTION ( 'NONE',  ( 1.000000000000000000, 0.0000000000000000000, 0.0000000000000000000 ) ) ;
#241 = DIRECTION ( 'NONE',  ( -0.0000000000000000000, -0.0000000000000000000, 1.000000000000000000 ) ) ;
#242 = CARTESIAN_POINT ( 'NONE',  ( 0.0000000000000000000, 0.0000000000000000000, -120.0000000000000000 ) ) ;
#243 = AXIS2_PLACEMENT_3D ( 'NONE', #242, #241, #240 ) ;
#244 = CIRCLE ( 'NONE', #243, 19.89999999999999500 ) ;
#245 = DIRECTION ( 'NONE',  ( 1.000000000000000000, 0.0000000000000000000, 0.0000000000000000000 ) ) ;
#246 = DIRECTION ( 'NONE',  ( -0.0000000000000000000, -0.0000000000000000000, 1.000000000000000000 ) ) ;
#247 = CARTESIAN_POINT ( 'NONE',  ( -16.62450000000000100, 0.0000000000000000000, -101.1544999999999800 ) ) ;
#248 = LINE ( 'NONE', #247, #226 ) ;
#249 = AXIS2_PLACEMENT_3D ( 'NONE', #257, #256, #255 ) ;
#250 = CIRCLE ( 'NONE', #249, 19.89999999999999900 ) ;
#251 = DIRECTION ( 'NONE',  ( 1.000000000000000000, 0.0000000000000000000, 0.0000000000000000000 ) ) ;
#252 = DIRECTION ( 'NONE',  ( -0.0000000000000000000, -0.0000000000000000000, 1.000000000000000000 ) ) ;
#253 = CARTESIAN_POINT ( 'NONE',  ( 0.0000000000000000000, 0.0000000000000000000, -99.99999999999997200 ) ) ;
#254 = CARTESIAN_POINT ( 'NONE',  ( 19.89999999999999500, 0.0000000000000000000, -120.0000000000000000 ) ) ;
#255 = DIRECTION ( 'NONE',  ( 1.000000000000000000, 0.0000000000000000000, 0.0000000000000000000 ) ) ;
#256 = DIRECTION ( 'NONE',  ( -0.0000000000000000000, -0.0000000000000000000, 1.000000000000000000 ) ) ;
#257 = CARTESIAN_POINT ( 'NONE',  ( 0.0000000000000000000, 0.0000000000000000000, 0.0000000000000000000 ) ) ;
#258 = CARTESIAN_POINT ( 'NONE',  ( 16.62450000000000100, 2.035846832912011300E-015, -101.1544999999999800 ) ) ;
#259 = LINE ( 'NONE', #258, #219 ) ;
#260 = FACE_OUTER_BOUND ( 'NONE', #38, .T. ) ;
#261 = DIRECTION ( 'NONE',  ( 1.000000000000000000, 0.0000000000000000000, 0.0000000000000000000 ) ) ;
#262 = DIRECTION ( 'NONE',  ( -0.0000000000000000000, -0.0000000000000000000, 1.000000000000000000 ) ) ;
#263 = CARTESIAN_POINT ( 'NONE',  ( -16.62450000000000100, 2.035846832912011300E-015, -101.1544999999999800 ) ) ;
#264 = CYLINDRICAL_SURFACE ( 'NONE', #224, 16.62450000000000100 ) ;
#265 = CARTESIAN_POINT ( 'NONE',  ( 0.0000000000000000000, 0.0000000000000000000, -4.336808689942017700E-016 ) ) ;
#266 = AXIS2_PLACEMENT_3D ( 'NONE', #265, #246, #245 ) ;
#267 = CYLINDRICAL_SURFACE ( 'NONE', #266, 19.89999999999999500 ) ;
#268 = FACE_OUTER_BOUND ( 'NONE', #53, .T. ) ;
#269 = DIRECTION ( 'NONE',  ( -0.0000000000000000000, 3.911744792584156800E-017, -1.000000000000000000 ) ) ;
#270 = VECTOR ( 'NONE', #269, 1000.000000000000000 ) ;
#271 = CARTESIAN_POINT ( 'NONE',  ( 1.854727553181681600E-015, -15.14550000000000000, -120.0000000000000600 ) ) ;
#272 = LINE ( 'NONE', #271, #270 ) ;
#273 = CARTESIAN_POINT ( 'NONE',  ( 0.0000000000000000000, 15.14549999999998800, -99.99999999999997200 ) ) ;
#274 = DIRECTION ( 'NONE',  ( 1.000000000000000000, 0.0000000000000000000, 0.0000000000000000000 ) ) ;
#275 = DIRECTION ( 'NONE',  ( -0.0000000000000000000, -0.0000000000000000000, 1.000000000000000000 ) ) ;
#276 = FACE_OUTER_BOUND ( 'NONE', #89, .T. ) ;
#277 = CIRCLE ( 'NONE', #282, 16.62450000000000100 ) ;
#278 = DIRECTION ( 'NONE',  ( 1.000000000000000000, 0.0000000000000000000, 0.0000000000000000000 ) ) ;
#279 = DIRECTION ( 'NONE',  ( 1.000000000000000000, 0.0000000000000000000, 0.0000000000000000000 ) ) ;
#280 = DIRECTION ( 'NONE',  ( -0.0000000000000000000, -0.0000000000000000000, 1.000000000000000000 ) ) ;
#281 = CARTESIAN_POINT ( 'NONE',  ( 0.0000000000000000000, 0.0000000000000000000, -119.4194596675845500 ) ) ;
#282 = AXIS2_PLACEMENT_3D ( 'NONE', #281, #280, #279 ) ;
#283 = LINE ( 'NONE', #308, #307 ) ;
#284 = CARTESIAN_POINT ( 'NONE',  ( 0.0000000000000000000, 0.0000000000000000000, -4.336808689942017700E-016 ) ) ;
#285 = DIRECTION ( 'NONE',  ( 0.0000000000000000000, -0.0000000000000000000, 1.000000000000000000 ) ) ;
#286 = CARTESIAN_POINT ( 'NONE',  ( 0.0000000000000000000, 19.89999999999999500, -120.0000000000000000 ) ) ;
#287 = AXIS2_PLACEMENT_3D ( 'NONE', #284, #275, #274 ) ;
#288 = PLANE ( 'NONE',  #295 ) ;
#289 = CONICAL_SURFACE ( 'NONE', #155, 16.62450000000000100, 0.9080002089392059700 ) ;
#290 = FACE_OUTER_BOUND ( 'NONE', #104, .T. ) ;
#291 = DIRECTION ( 'NONE',  ( 1.000000000000000000, 0.0000000000000000000, 0.0000000000000000000 ) ) ;
#292 = DIRECTION ( 'NONE',  ( -0.0000000000000000000, -0.0000000000000000000, 1.000000000000000000 ) ) ;
#293 = CARTESIAN_POINT ( 'NONE',  ( 0.0000000000000000000, 0.0000000000000000000, -99.99999999999997200 ) ) ;
#294 = AXIS2_PLACEMENT_3D ( 'NONE', #293, #292, #291 ) ;
#295 = AXIS2_PLACEMENT_3D ( 'NONE', #286, #285, #278 ) ;
#296 = FACE_BOUND ( 'NONE', #62, .T. ) ;
#297 = FACE_OUTER_BOUND ( 'NONE', #81, .T. ) ;
#298 = CIRCLE ( 'NONE', #294, 15.14549999999998800 ) ;
#299 = DIRECTION ( 'NONE',  ( 1.000000000000000000, 0.0000000000000000000, 0.0000000000000000000 ) ) ;
#300 = DIRECTION ( 'NONE',  ( -0.0000000000000000000, -0.0000000000000000000, 1.000000000000000000 ) ) ;
#301 = CARTESIAN_POINT ( 'NONE',  ( 0.0000000000000000000, 0.0000000000000000000, -4.336808689942017700E-016 ) ) ;
#302 = CYLINDRICAL_SURFACE ( 'NONE', #287, 16.62450000000000100 ) ;
#303 = CYLINDRICAL_SURFACE ( 'NONE', #304, 19.89999999999999500 ) ;
#304 = AXIS2_PLACEMENT_3D ( 'NONE', #301, #300, #299 ) ;
#305 = FACE_OUTER_BOUND ( 'NONE', #106, .T. ) ;
#306 = DIRECTION ( 'NONE',  ( -0.0000000000000000000, -0.0000000000000000000, 1.000000000000000000 ) ) ;
#307 = VECTOR ( 'NONE', #306, 1000.000000000000000 ) ;
#308 = CARTESIAN_POINT ( 'NONE',  ( 16.62450000000000100, 0.0000000000000000000, -4.336808689942017700E-016 ) ) ;
#309 = DIRECTION ( 'NONE',  ( -1.000000000000000000, 0.0000000000000000000, 0.0000000000000000000 ) ) ;
#310 = APPLICATION_CONTEXT ( 'configuration controlled 3d designs of mechanical parts and assemblies' ) ;
#311 = DIRECTION ( 'NONE',  ( 1.000000000000000000, 0.0000000000000000000, 0.0000000000000000000 ) ) ;
#312 = DIRECTION ( 'NONE',  ( 0.0000000000000000000, 0.0000000000000000000, 1.000000000000000000 ) ) ;
#313 = CARTESIAN_POINT ( 'NONE',  ( 0.0000000000000000000, 0.0000000000000000000, 0.0000000000000000000 ) ) ;
#314 = SHAPE_DEFINITION_REPRESENTATION ( #362, #315 ) ;
#315 = ADVANCED_BREP_SHAPE_REPRESENTATION ( '19-0408-06_outokumpu', ( #11, #321 ), #316 ) ;
#316 =( GEOMETRIC_REPRESENTATION_CONTEXT ( 3 ) GLOBAL_UNCERTAINTY_ASSIGNED_CONTEXT ( ( #317 ) ) GLOBAL_UNIT_ASSIGNED_CONTEXT ( ( #320, #319, #318 ) ) REPRESENTATION_CONTEXT ( 'NONE', 'WORKASPACE' ) );
#317 = UNCERTAINTY_MEASURE_WITH_UNIT (LENGTH_MEASURE( 1.000000000000000100E-005 ), #320, 'distance_accuracy_value', 'NONE');
#318 =( NAMED_UNIT ( * ) SI_UNIT ( $, .STERADIAN. ) SOLID_ANGLE_UNIT ( ) );
#319 =( NAMED_UNIT ( * ) PLANE_ANGLE_UNIT ( ) SI_UNIT ( $, .RADIAN. ) );
#320 =( LENGTH_UNIT ( ) NAMED_UNIT ( * ) SI_UNIT ( .MILLI., .METRE. ) );
#321 = AXIS2_PLACEMENT_3D ( 'NONE', #313, #312, #311 ) ;
#322 = PERSON ( 'UNSPECIFIED', 'UNSPECIFIED', 'UNSPECIFIED', ('UNSPECIFIED'), ('UNSPECIFIED'), ('UNSPECIFIED') ) ;
#323 = PRODUCT ( '19-0408-06_outokumpu', '19-0408-06_outokumpu', '', ( #324 ) ) ;
#324 = MECHANICAL_CONTEXT ( 'NONE', #310, 'mechanical' ) ;
#325 = APPLICATION_PROTOCOL_DEFINITION ( 'international standard', 'config_control_design', 1994, #310 ) ;
#326 = LOCAL_TIME ( 11, 41, 37.00000000000000000, #327 ) ;
#327 = COORDINATED_UNIVERSAL_TIME_OFFSET ( 1, 0, .AHEAD. ) ;
#328 = APPROVAL_PERSON_ORGANIZATION ( #332, #330, #329 ) ;
#329 = APPROVAL_ROLE ( '' ) ;
#330 = APPROVAL ( #331, 'UNSPECIFIED' ) ;
#331 = APPROVAL_STATUS ( 'not_yet_approved' ) ;
#332 = PERSON_AND_ORGANIZATION ( #322, #361 ) ;
#333 = PRODUCT_DEFINITION_FORMATION_WITH_SPECIFIED_SOURCE ( 'ANY', '', #323, .NOT_KNOWN. ) ;
#334 = CC_DESIGN_DATE_AND_TIME_ASSIGNMENT ( #336, #335, ( #354 ) ) ;
#335 = DATE_TIME_ROLE ( 'creation_date' ) ;
#336 = DATE_AND_TIME ( #337, #338 ) ;
#337 = CALENDAR_DATE ( 2015, 11, 8 ) ;
#338 = LOCAL_TIME ( 11, 41, 37.00000000000000000, #339 ) ;
#339 = COORDINATED_UNIVERSAL_TIME_OFFSET ( 1, 0, .AHEAD. ) ;
#340 = CC_DESIGN_PERSON_AND_ORGANIZATION_ASSIGNMENT ( #342, #341, ( #354 ) ) ;
#341 = PERSON_AND_ORGANIZATION_ROLE ( 'creator' ) ;
#342 = PERSON_AND_ORGANIZATION ( #322, #361 ) ;
#343 = CC_DESIGN_APPROVAL ( #351, ( #354 ) ) ;
#344 = APPROVAL_DATE_TIME ( #345, #351 ) ;
#345 = DATE_AND_TIME ( #346, #347 ) ;
#346 = CALENDAR_DATE ( 2015, 11, 8 ) ;
#347 = LOCAL_TIME ( 11, 41, 37.00000000000000000, #348 ) ;
#348 = COORDINATED_UNIVERSAL_TIME_OFFSET ( 1, 0, .AHEAD. ) ;
#349 = APPROVAL_PERSON_ORGANIZATION ( #353, #351, #350 ) ;
#350 = APPROVAL_ROLE ( '' ) ;
#351 = APPROVAL ( #352, 'UNSPECIFIED' ) ;
#352 = APPROVAL_STATUS ( 'not_yet_approved' ) ;
#353 = PERSON_AND_ORGANIZATION ( #322, #361 ) ;
#354 = PRODUCT_DEFINITION ( 'UNKNOWN', '', #333, #355 ) ;
#355 = DESIGN_CONTEXT ( 'detailed design', #357, 'design' ) ;
#356 = APPLICATION_PROTOCOL_DEFINITION ( 'international standard', 'config_control_design', 1994, #357 ) ;
#357 = APPLICATION_CONTEXT ( 'configuration controlled 3d designs of mechanical parts and assemblies' ) ;
#358 = CC_DESIGN_PERSON_AND_ORGANIZATION_ASSIGNMENT ( #360, #359, ( #323 ) ) ;
#359 = PERSON_AND_ORGANIZATION_ROLE ( 'design_owner' ) ;
#360 = PERSON_AND_ORGANIZATION ( #322, #361 ) ;
#361 = ORGANIZATION ( 'UNSPECIFIED', 'UNSPECIFIED', '' ) ;
#362 = PRODUCT_DEFINITION_SHAPE ( 'NONE', 'NONE',  #354 ) ;
#363 = PRODUCT_RELATED_PRODUCT_CATEGORY ( 'detail', '', ( #323 ) ) ;
#364 = CC_DESIGN_SECURITY_CLASSIFICATION ( #385, ( #333 ) ) ;
#365 = CC_DESIGN_APPROVAL ( #373, ( #385 ) ) ;
#366 = APPROVAL_DATE_TIME ( #367, #373 ) ;
#367 = DATE_AND_TIME ( #368, #369 ) ;
#368 = CALENDAR_DATE ( 2015, 11, 8 ) ;
#369 = LOCAL_TIME ( 11, 41, 37.00000000000000000, #370 ) ;
#370 = COORDINATED_UNIVERSAL_TIME_OFFSET ( 1, 0, .AHEAD. ) ;
#371 = APPROVAL_PERSON_ORGANIZATION ( #375, #373, #372 ) ;
#372 = APPROVAL_ROLE ( '' ) ;
#373 = APPROVAL ( #374, 'UNSPECIFIED' ) ;
#374 = APPROVAL_STATUS ( 'not_yet_approved' ) ;
#375 = PERSON_AND_ORGANIZATION ( #322, #361 ) ;
#376 = CC_DESIGN_DATE_AND_TIME_ASSIGNMENT ( #378, #377, ( #385 ) ) ;
#377 = DATE_TIME_ROLE ( 'classification_date' ) ;
#378 = DATE_AND_TIME ( #379, #380 ) ;
#379 = CALENDAR_DATE ( 2015, 11, 8 ) ;
#380 = LOCAL_TIME ( 11, 41, 37.00000000000000000, #381 ) ;
#381 = COORDINATED_UNIVERSAL_TIME_OFFSET ( 1, 0, .AHEAD. ) ;
#382 = CC_DESIGN_PERSON_AND_ORGANIZATION_ASSIGNMENT ( #384, #383, ( #385 ) ) ;
#383 = PERSON_AND_ORGANIZATION_ROLE ( 'classification_officer' ) ;
#384 = PERSON_AND_ORGANIZATION ( #322, #361 ) ;
#385 = SECURITY_CLASSIFICATION ( '', '', #386 ) ;
#386 = SECURITY_CLASSIFICATION_LEVEL ( 'unclassified' ) ;
#387 = CC_DESIGN_PERSON_AND_ORGANIZATION_ASSIGNMENT ( #389, #388, ( #333 ) ) ;
#388 = PERSON_AND_ORGANIZATION_ROLE ( 'design_supplier' ) ;
#389 = PERSON_AND_ORGANIZATION ( #322, #361 ) ;
#390 = CC_DESIGN_PERSON_AND_ORGANIZATION_ASSIGNMENT ( #392, #391, ( #333 ) ) ;
#391 = PERSON_AND_ORGANIZATION_ROLE ( 'creator' ) ;
#392 = PERSON_AND_ORGANIZATION ( #322, #361 ) ;
#393 = CC_DESIGN_APPROVAL ( #330, ( #333 ) ) ;
#394 = APPROVAL_DATE_TIME ( #395, #330 ) ;
#395 = DATE_AND_TIME ( #396, #326 ) ;
#396 = CALENDAR_DATE ( 2015, 11, 8 ) ;
#397 = DIRECTION ( 'NONE',  ( 1.000000000000000000, 0.0000000000000000000, 0.0000000000000000000 ) ) ;
#398 = AXIS2_PLACEMENT_3D ( 'NONE', #400, #399, #397 ) ;
#399 = DIRECTION ( 'NONE',  ( -0.0000000000000000000, -0.0000000000000000000, 1.000000000000000000 ) ) ;
#400 = CARTESIAN_POINT ( 'NONE',  ( 0.0000000000000000000, 0.0000000000000000000, 0.0000000000000000000 ) ) ;
#401 = CIRCLE ( 'NONE', #398, 19.89999999999999900 ) ;
#402 = DIRECTION ( 'NONE',  ( -1.000000000000000000, 0.0000000000000000000, -0.0000000000000000000 ) ) ;
#403 = DIRECTION ( 'NONE',  ( 0.0000000000000000000, 0.0000000000000000000, -1.000000000000000000 ) ) ;
#404 = CARTESIAN_POINT ( 'NONE',  ( 0.0000000000000000000, 19.89999999999999900, -2.168404344971008900E-016 ) ) ;
#405 = AXIS2_PLACEMENT_3D ( 'NONE', #404, #403, #402 ) ;
#406 = FACE_OUTER_BOUND ( 'NONE', #124, .T. ) ;
#407 = DIRECTION ( 'NONE',  ( -0.0000000000000000000, 3.911744792584156800E-017, -1.000000000000000000 ) ) ;
#408 = DIRECTION ( 'NONE',  ( 0.0000000000000000000, 1.000000000000000000, 3.911744792584156800E-017 ) ) ;
#409 = CARTESIAN_POINT ( 'NONE',  ( 0.0000000000000000000, -3.469446951953615000E-015, 0.0000000000000000000 ) ) ;
#410 = FACE_BOUND ( 'NONE', #97, .T. ) ;
#411 = DIRECTION ( 'NONE',  ( -1.000000000000000000, 0.0000000000000000000, 0.0000000000000000000 ) ) ;
#412 = DIRECTION ( 'NONE',  ( 0.0000000000000000000, 0.0000000000000000000, -1.000000000000000000 ) ) ;
#413 = CARTESIAN_POINT ( 'NONE',  ( 0.0000000000000000000, 0.0000000000000000000, -120.0000000000000000 ) ) ;
#414 = AXIS2_PLACEMENT_3D ( 'NONE', #413, #412, #411 ) ;
#415 = CONICAL_SURFACE ( 'NONE', #414, 17.20504033241546800, 0.7853981633974662600 ) ;
#416 = CIRCLE ( 'NONE', #419, 15.14549999999999100 ) ;
#417 = PLANE ( 'NONE',  #405 ) ;
#418 = FACE_OUTER_BOUND ( 'NONE', #79, .T. ) ;
#419 = AXIS2_PLACEMENT_3D ( 'NONE', #409, #407, #408 ) ;
ENDSEC;
END-ISO-10303-21;
