ISO-10303-21;
HEADER;
FILE_DESCRIPTION (( 'STEP AP203' ),
    '1' );
FILE_NAME ('3D-LR-131-SE_48.3-43_17106610.STEP',
    '2024-09-02T20:30:40',
    ( '' ),
    ( '' ),
    'SwSTEP 2.0',
    'SolidWorks 2024',
    '' );
FILE_SCHEMA (( 'CONFIG_CONTROL_DESIGN' ));
ENDSEC;

DATA;
#1 = CARTESIAN_POINT ( 'NONE',  ( -36.70332301863295754, 3.306546357697853733E-15, -27.00000000000000000 ) ) ;
#2 = DIRECTION ( 'NONE',  ( 1.000000000000000000, 0.000000000000000000, 0.000000000000000000 ) ) ;
#3 = ADVANCED_FACE ( 'NONE', ( #71 ), #392, .T. ) ;
#4 =( LENGTH_UNIT ( ) NAMED_UNIT ( * ) SI_UNIT ( .MILLI., .METRE. ) );
#5 = FACE_OUTER_BOUND ( 'NONE', #193, .T. ) ;
#6 = EDGE_CURVE ( 'NONE', #113, #251, #227, .T. ) ;
#7 = VERTEX_POINT ( 'NONE', #321 ) ;
#8 = CIRCLE ( 'NONE', #410, 24.14999999999999858 ) ;
#9 = DIRECTION ( 'NONE',  ( 0.000000000000000000, 0.000000000000000000, 1.000000000000000000 ) ) ;
#10 = MECHANICAL_CONTEXT ( 'NONE', #257, 'mechanical' ) ;
#11 = DIRECTION ( 'NONE',  ( 0.000000000000000000, 0.000000000000000000, 1.000000000000000000 ) ) ;
#12 = COORDINATED_UNIVERSAL_TIME_OFFSET ( 1, 0, .AHEAD. ) ;
#13 = DIRECTION ( 'NONE',  ( -1.000000000000000000, -0.000000000000000000, -0.000000000000000000 ) ) ;
#14 = ORIENTED_EDGE ( 'NONE', *, *, #32, .F. ) ;
#15 = CC_DESIGN_APPROVAL ( #182, ( #297 ) ) ;
#16 = COORDINATED_UNIVERSAL_TIME_OFFSET ( 1, 0, .AHEAD. ) ;
#17 = APPROVAL_STATUS ( 'not_yet_approved' ) ;
#18 = ADVANCED_BREP_SHAPE_REPRESENTATION ( '3D-LR-131-SE_48.3-43_17106610', ( #421, #200 ), #271 ) ;
#19 = PRODUCT_RELATED_PRODUCT_CATEGORY ( 'detail', '', ( #29 ) ) ;
#20 = CARTESIAN_POINT ( 'NONE',  ( -12.00000000000000355, 3.551475717527324030E-15, -29.00000000000000000 ) ) ;
#21 = CARTESIAN_POINT ( 'NONE',  ( 0.9999999999999940048, 3.306546357697853733E-15, -27.00000000000000000 ) ) ;
#22 = ADVANCED_FACE ( 'NONE', ( #39, #269 ), #259, .T. ) ;
#23 = PERSON_AND_ORGANIZATION_ROLE ( 'classification_officer' ) ;
#24 = VECTOR ( 'NONE', #272, 1000.000000000000000 ) ;
#25 = FACE_OUTER_BOUND ( 'NONE', #389, .T. ) ;
#26 = DIRECTION ( 'NONE',  ( -1.000000000000000000, -0.000000000000000000, -0.000000000000000000 ) ) ;
#27 = DIRECTION ( 'NONE',  ( 0.000000000000000000, 0.000000000000000000, 1.000000000000000000 ) ) ;
#28 = ORIENTED_EDGE ( 'NONE', *, *, #262, .F. ) ;
#29 = PRODUCT ( '3D-LR-131-SE_48.3-43_17106610', '3D-LR-131-SE_48.3-43_17106610', '', ( #10 ) ) ;
#30 = ORIENTED_EDGE ( 'NONE', *, *, #103, .T. ) ;
#31 = ORIENTED_EDGE ( 'NONE', *, *, #394, .F. ) ;
#32 = EDGE_CURVE ( 'NONE', #381, #287, #261, .T. ) ;
#33 = AXIS2_PLACEMENT_3D ( 'NONE', #358, #325, #140 ) ;
#34 = APPROVAL_PERSON_ORGANIZATION ( #401, #182, #70 ) ;
#35 = DIRECTION ( 'NONE',  ( 0.000000000000000000, 0.000000000000000000, 1.000000000000000000 ) ) ;
#36 = DIRECTION ( 'NONE',  ( -1.000000000000000000, -0.000000000000000000, -0.000000000000000000 ) ) ;
#37 = DESIGN_CONTEXT ( 'detailed design', #396, 'design' ) ;
#38 = COORDINATED_UNIVERSAL_TIME_OFFSET ( 1, 0, .AHEAD. ) ;
#39 = FACE_BOUND ( 'NONE', #106, .T. ) ;
#40 = DIRECTION ( 'NONE',  ( 0.000000000000000000, 0.000000000000000000, 1.000000000000000000 ) ) ;
#41 = FACE_OUTER_BOUND ( 'NONE', #254, .T. ) ;
#42 = AXIS2_PLACEMENT_3D ( 'NONE', #301, #365, #149 ) ;
#43 = APPROVAL_STATUS ( 'not_yet_approved' ) ;
#44 = DIRECTION ( 'NONE',  ( 0.000000000000000000, 0.000000000000000000, 1.000000000000000000 ) ) ;
#45 = CC_DESIGN_DATE_AND_TIME_ASSIGNMENT ( #343, #179, ( #160 ) ) ;
#46 = PERSON_AND_ORGANIZATION ( #409, #367 ) ;
#47 = CARTESIAN_POINT ( 'NONE',  ( -36.70332301863295754, 0.000000000000000000, 0.000000000000000000 ) ) ;
#48 = DIRECTION ( 'NONE',  ( 1.000000000000000000, 0.000000000000000000, 0.000000000000000000 ) ) ;
#49 = CIRCLE ( 'NONE', #170, 21.50000000000000000 ) ;
#50 = AXIS2_PLACEMENT_3D ( 'NONE', #391, #320, #35 ) ;
#51 = CALENDAR_DATE ( 2024, 2, 9 ) ;
#52 = ORIENTED_EDGE ( 'NONE', *, *, #340, .F. ) ;
#53 = DIRECTION ( 'NONE',  ( 0.000000000000000000, 0.000000000000000000, 1.000000000000000000 ) ) ;
#54 = DIRECTION ( 'NONE',  ( -0.000000000000000000, 0.000000000000000000, 1.000000000000000000 ) ) ;
#55 = CARTESIAN_POINT ( 'NONE',  ( 11.99999999999999645, 0.000000000000000000, 0.000000000000000000 ) ) ;
#56 = COORDINATED_UNIVERSAL_TIME_OFFSET ( 1, 0, .AHEAD. ) ;
#57 = CARTESIAN_POINT ( 'NONE',  ( 0.9999999999999940048, 0.000000000000000000, 24.14999999999999858 ) ) ;
#58 = DIRECTION ( 'NONE',  ( -0.1736481776669269450, 1.206041662501898607E-16, -0.9848077530122087975 ) ) ;
#59 = ORIENTED_EDGE ( 'NONE', *, *, #216, .F. ) ;
#60 = AXIS2_PLACEMENT_3D ( 'NONE', #246, #132, #129 ) ;
#61 = LOCAL_TIME ( 22, 30, 40.00000000000000000, #12 ) ;
#62 = FACE_OUTER_BOUND ( 'NONE', #352, .T. ) ;
#63 = ORIENTED_EDGE ( 'NONE', *, *, #197, .F. ) ;
#64 = CARTESIAN_POINT ( 'NONE',  ( -12.00000000000000355, 0.000000000000000000, 21.49999999999999645 ) ) ;
#65 = CC_DESIGN_DATE_AND_TIME_ASSIGNMENT ( #270, #208, ( #297 ) ) ;
#66 = CIRCLE ( 'NONE', #119, 29.00000000000000000 ) ;
#67 = ADVANCED_FACE ( 'NONE', ( #41 ), #75, .T. ) ;
#68 = VERTEX_POINT ( 'NONE', #141 ) ;
#69 = CYLINDRICAL_SURFACE ( 'NONE', #146, 27.00000000000000000 ) ;
#70 = APPROVAL_ROLE ( '' ) ;
#71 = FACE_OUTER_BOUND ( 'NONE', #157, .T. ) ;
#72 = DIRECTION ( 'NONE',  ( -1.000000000000000000, -0.000000000000000000, -0.000000000000000000 ) ) ;
#73 = CARTESIAN_POINT ( 'NONE',  ( -36.70332301863295754, 0.000000000000000000, 0.000000000000000000 ) ) ;
#74 = DIRECTION ( 'NONE',  ( -1.000000000000000000, -0.000000000000000000, -0.000000000000000000 ) ) ;
#75 = CONICAL_SURFACE ( 'NONE', #248, 29.00000000000000000, 1.396263401595467135 ) ;
#76 = APPROVAL_DATE_TIME ( #298, #182 ) ;
#77 = CARTESIAN_POINT ( 'NONE',  ( 0.9999999999999940048, 0.000000000000000000, 27.00000000000000000 ) ) ;
#78 = ADVANCED_FACE ( 'NONE', ( #5 ), #233, .T. ) ;
#79 = FACE_OUTER_BOUND ( 'NONE', #422, .T. ) ;
#80 = DIRECTION ( 'NONE',  ( 1.000000000000000000, 0.000000000000000000, 0.000000000000000000 ) ) ;
#81 = EDGE_LOOP ( 'NONE', ( #147, #420, #59, #348 ) ) ;
#82 = EDGE_CURVE ( 'NONE', #255, #242, #137, .T. ) ;
#83 = AXIS2_PLACEMENT_3D ( 'NONE', #236, #267, #429 ) ;
#84 = AXIS2_PLACEMENT_3D ( 'NONE', #334, #188, #53 ) ;
#85 = PERSON_AND_ORGANIZATION ( #409, #367 ) ;
#86 = DIRECTION ( 'NONE',  ( 0.000000000000000000, 0.000000000000000000, 1.000000000000000000 ) ) ;
#87 = PLANE ( 'NONE',  #194 ) ;
#88 = LINE ( 'NONE', #217, #222 ) ;
#89 = EDGE_LOOP ( 'NONE', ( #308, #28 ) ) ;
#90 = LINE ( 'NONE', #300, #387 ) ;
#91 = ORIENTED_EDGE ( 'NONE', *, *, #197, .T. ) ;
#92 = CARTESIAN_POINT ( 'NONE',  ( 0.9999999999999940048, 0.000000000000000000, 0.000000000000000000 ) ) ;
#93 = ORIENTED_EDGE ( 'NONE', *, *, #32, .T. ) ;
#94 = ORIENTED_EDGE ( 'NONE', *, *, #131, .T. ) ;
#95 = LOCAL_TIME ( 22, 30, 40.00000000000000000, #38 ) ;
#96 = FACE_OUTER_BOUND ( 'NONE', #240, .T. ) ;
#97 = ORIENTED_EDGE ( 'NONE', *, *, #239, .T. ) ;
#98 = ORIENTED_EDGE ( 'NONE', *, *, #330, .T. ) ;
#99 = ADVANCED_FACE ( 'NONE', ( #366 ), #69, .T. ) ;
#100 = ORIENTED_EDGE ( 'NONE', *, *, #142, .T. ) ;
#101 = ORIENTED_EDGE ( 'NONE', *, *, #155, .F. ) ;
#102 = ORIENTED_EDGE ( 'NONE', *, *, #103, .F. ) ;
#103 = EDGE_CURVE ( 'NONE', #242, #350, #206, .T. ) ;
#104 = EDGE_LOOP ( 'NONE', ( #380, #164 ) ) ;
#105 = CIRCLE ( 'NONE', #207, 24.14999999999999858 ) ;
#106 = EDGE_LOOP ( 'NONE', ( #165, #98 ) ) ;
#107 = CARTESIAN_POINT ( 'NONE',  ( -10.80000000000000782, 0.000000000000000000, 29.00000000000000000 ) ) ;
#108 = DATE_AND_TIME ( #144, #61 ) ;
#109 = DIRECTION ( 'NONE',  ( 0.000000000000000000, 0.000000000000000000, 1.000000000000000000 ) ) ;
#110 = LOCAL_TIME ( 22, 30, 40.00000000000000000, #56 ) ;
#111 = CARTESIAN_POINT ( 'NONE',  ( -36.70332301863295754, 0.000000000000000000, 0.000000000000000000 ) ) ;
#112 = PERSON_AND_ORGANIZATION ( #409, #367 ) ;
#113 = VERTEX_POINT ( 'NONE', #77 ) ;
#114 = ORIENTED_EDGE ( 'NONE', *, *, #340, .T. ) ;
#115 = ADVANCED_FACE ( 'NONE', ( #323 ), #360, .F. ) ;
#116 = CARTESIAN_POINT ( 'NONE',  ( -10.80000000000000782, 0.000000000000000000, 0.000000000000000000 ) ) ;
#117 = CIRCLE ( 'NONE', #237, 21.49999999999999645 ) ;
#118 = LOCAL_TIME ( 22, 30, 40.00000000000000000, #304 ) ;
#119 = AXIS2_PLACEMENT_3D ( 'NONE', #283, #276, #419 ) ;
#120 = CYLINDRICAL_SURFACE ( 'NONE', #230, 29.00000000000000000 ) ;
#121 = DIRECTION ( 'NONE',  ( -1.000000000000000000, 0.000000000000000000, -0.000000000000000000 ) ) ;
#122 = EDGE_LOOP ( 'NONE', ( #94, #189 ) ) ;
#123 = CALENDAR_DATE ( 2024, 2, 9 ) ;
#124 = DIRECTION ( 'NONE',  ( 0.000000000000000000, 0.000000000000000000, 1.000000000000000000 ) ) ;
#125 = ORIENTED_EDGE ( 'NONE', *, *, #225, .T. ) ;
#126 = AXIS2_PLACEMENT_3D ( 'NONE', #190, #336, #134 ) ;
#127 = DIRECTION ( 'NONE',  ( 0.000000000000000000, 0.000000000000000000, 1.000000000000000000 ) ) ;
#128 = UNCERTAINTY_MEASURE_WITH_UNIT (LENGTH_MEASURE( 1.000000000000000082E-05 ), #4, 'distance_accuracy_value', 'NONE');
#129 = DIRECTION ( 'NONE',  ( 0.000000000000000000, 0.000000000000000000, 1.000000000000000000 ) ) ;
#130 = ORIENTED_EDGE ( 'NONE', *, *, #347, .F. ) ;
#131 = EDGE_CURVE ( 'NONE', #350, #192, #288, .T. ) ;
#132 = DIRECTION ( 'NONE',  ( -1.000000000000000000, -0.000000000000000000, -0.000000000000000000 ) ) ;
#133 = CIRCLE ( 'NONE', #212, 24.14999999999999858 ) ;
#134 = DIRECTION ( 'NONE',  ( 0.000000000000000000, 0.000000000000000000, 1.000000000000000000 ) ) ;
#135 = ORIENTED_EDGE ( 'NONE', *, *, #428, .F. ) ;
#136 = CIRCLE ( 'NONE', #364, 27.00000000000000000 ) ;
#137 = LINE ( 'NONE', #107, #198 ) ;
#138 = DIRECTION ( 'NONE',  ( 0.000000000000000000, 0.000000000000000000, -1.000000000000000000 ) ) ;
#139 =( NAMED_UNIT ( * ) SI_UNIT ( $, .STERADIAN. ) SOLID_ANGLE_UNIT ( ) );
#140 = DIRECTION ( 'NONE',  ( 0.000000000000000000, 0.000000000000000000, 1.000000000000000000 ) ) ;
#141 = CARTESIAN_POINT ( 'NONE',  ( 11.99999999999999645, 2.632990618166809235E-15, -21.50000000000000000 ) ) ;
#142 = EDGE_CURVE ( 'NONE', #68, #416, #143, .T. ) ;
#143 = LINE ( 'NONE', #405, #24 ) ;
#144 = CALENDAR_DATE ( 2024, 2, 9 ) ;
#145 = CARTESIAN_POINT ( 'NONE',  ( -10.44734603858308475, 0.000000000000000000, 0.000000000000000000 ) ) ;
#146 = AXIS2_PLACEMENT_3D ( 'NONE', #363, #172, #44 ) ;
#147 = ORIENTED_EDGE ( 'NONE', *, *, #413, .T. ) ;
#148 = AXIS2_PLACEMENT_3D ( 'NONE', #55, #279, #127 ) ;
#149 = DIRECTION ( 'NONE',  ( 0.000000000000000000, 0.000000000000000000, 1.000000000000000000 ) ) ;
#150 = ADVANCED_FACE ( 'NONE', ( #372, #176 ), #87, .T. ) ;
#151 = DIRECTION ( 'NONE',  ( -1.000000000000000000, -0.000000000000000000, -0.000000000000000000 ) ) ;
#152 = CARTESIAN_POINT ( 'NONE',  ( -10.80000000000000782, 0.000000000000000000, 29.00000000000000000 ) ) ;
#153 = CIRCLE ( 'NONE', #284, 27.00000000000000000 ) ;
#154 = CYLINDRICAL_SURFACE ( 'NONE', #342, 29.00000000000000000 ) ;
#155 = EDGE_CURVE ( 'NONE', #386, #161, #181, .T. ) ;
#156 = CARTESIAN_POINT ( 'NONE',  ( 11.99999999999999645, 0.000000000000000000, 0.000000000000000000 ) ) ;
#157 = EDGE_LOOP ( 'NONE', ( #406, #390, #384, #101 ) ) ;
#158 = CARTESIAN_POINT ( 'NONE',  ( 0.9999999999999956701, 27.00000000000000000, 0.000000000000000000 ) ) ;
#159 = ORIENTED_EDGE ( 'NONE', *, *, #239, .F. ) ;
#160 = SECURITY_CLASSIFICATION ( '', '', #245 ) ;
#161 = VERTEX_POINT ( 'NONE', #57 ) ;
#162 = ORIENTED_EDGE ( 'NONE', *, *, #169, .F. ) ;
#163 = CARTESIAN_POINT ( 'NONE',  ( 11.99999999999999645, 0.000000000000000000, 21.50000000000000000 ) ) ;
#164 = ORIENTED_EDGE ( 'NONE', *, *, #275, .T. ) ;
#165 = ORIENTED_EDGE ( 'NONE', *, *, #169, .T. ) ;
#166 = CARTESIAN_POINT ( 'NONE',  ( 11.99999999999999645, 0.000000000000000000, 24.14999999999999858 ) ) ;
#167 = APPROVAL_DATE_TIME ( #108, #379 ) ;
#168 = DIRECTION ( 'NONE',  ( -1.000000000000000000, -0.000000000000000000, -0.000000000000000000 ) ) ;
#169 = EDGE_CURVE ( 'NONE', #381, #68, #49, .T. ) ;
#170 = AXIS2_PLACEMENT_3D ( 'NONE', #174, #278, #414 ) ;
#171 = CONICAL_SURFACE ( 'NONE', #50, 29.00000000000000000, 1.396263401595467135 ) ;
#172 = DIRECTION ( 'NONE',  ( -1.000000000000000000, -0.000000000000000000, -0.000000000000000000 ) ) ;
#173 = APPROVAL_ROLE ( '' ) ;
#174 = CARTESIAN_POINT ( 'NONE',  ( 11.99999999999999645, 0.000000000000000000, 0.000000000000000000 ) ) ;
#175 = APPLICATION_PROTOCOL_DEFINITION ( 'international standard', 'config_control_design', 1994, #257 ) ;
#176 = FACE_BOUND ( 'NONE', #89, .T. ) ;
#177 = VECTOR ( 'NONE', #36, 1000.000000000000000 ) ;
#178 = AXIS2_PLACEMENT_3D ( 'NONE', #92, #180, #306 ) ;
#179 = DATE_TIME_ROLE ( 'classification_date' ) ;
#180 = DIRECTION ( 'NONE',  ( -1.000000000000000000, -0.000000000000000000, -0.000000000000000000 ) ) ;
#181 = LINE ( 'NONE', #215, #294 ) ;
#182 = APPROVAL ( #43, 'UNSPECIFIED' ) ;
#183 = DIRECTION ( 'NONE',  ( -1.000000000000000000, -0.000000000000000000, -0.000000000000000000 ) ) ;
#184 = CARTESIAN_POINT ( 'NONE',  ( -12.00000000000000355, 0.000000000000000000, 29.00000000000000000 ) ) ;
#185 = EDGE_CURVE ( 'NONE', #369, #7, #90, .T. ) ;
#186 = VECTOR ( 'NONE', #183, 1000.000000000000000 ) ;
#187 = LOCAL_TIME ( 22, 30, 40.00000000000000000, #16 ) ;
#188 = DIRECTION ( 'NONE',  ( -1.000000000000000000, -0.000000000000000000, -0.000000000000000000 ) ) ;
#189 = ORIENTED_EDGE ( 'NONE', *, *, #256, .T. ) ;
#190 = CARTESIAN_POINT ( 'NONE',  ( -10.80000000000000782, 0.000000000000000000, 0.000000000000000000 ) ) ;
#191 = EDGE_CURVE ( 'NONE', #285, #255, #136, .T. ) ;
#192 = VERTEX_POINT ( 'NONE', #20 ) ;
#193 = EDGE_LOOP ( 'NONE', ( #423, #295, #383, #229 ) ) ;
#194 = AXIS2_PLACEMENT_3D ( 'NONE', #302, #121, #54 ) ;
#195 = PRODUCT_DEFINITION_FORMATION_WITH_SPECIFIED_SOURCE ( 'ANY', '', #29, .NOT_KNOWN. ) ;
#196 = ORIENTED_EDGE ( 'NONE', *, *, #286, .T. ) ;
#197 = EDGE_CURVE ( 'NONE', #223, #192, #407, .T. ) ;
#198 = VECTOR ( 'NONE', #398, 999.9999999999998863 ) ;
#199 = CARTESIAN_POINT ( 'NONE',  ( -36.70332301863295754, 0.000000000000000000, 29.00000000000000000 ) ) ;
#200 = AXIS2_PLACEMENT_3D ( 'NONE', #268, #205, #48 ) ;
#201 = CC_DESIGN_PERSON_AND_ORGANIZATION_ASSIGNMENT ( #112, #234, ( #29 ) ) ;
#202 = PERSON_AND_ORGANIZATION ( #409, #367 ) ;
#203 = DIRECTION ( 'NONE',  ( -1.000000000000000000, -0.000000000000000000, -0.000000000000000000 ) ) ;
#204 = CARTESIAN_POINT ( 'NONE',  ( 11.99999999999999467, 24.14999999999999858, 0.000000000000000000 ) ) ;
#205 = DIRECTION ( 'NONE',  ( 0.000000000000000000, 0.000000000000000000, 1.000000000000000000 ) ) ;
#206 = LINE ( 'NONE', #199, #177 ) ;
#207 = AXIS2_PLACEMENT_3D ( 'NONE', #329, #203, #40 ) ;
#208 = DATE_TIME_ROLE ( 'creation_date' ) ;
#209 = APPROVAL_STATUS ( 'not_yet_approved' ) ;
#210 = ORIENTED_EDGE ( 'NONE', *, *, #131, .F. ) ;
#211 = DIRECTION ( 'NONE',  ( -1.000000000000000000, -0.000000000000000000, -0.000000000000000000 ) ) ;
#212 = AXIS2_PLACEMENT_3D ( 'NONE', #156, #241, #373 ) ;
#213 = CC_DESIGN_PERSON_AND_ORGANIZATION_ASSIGNMENT ( #202, #333, ( #195 ) ) ;
#214 = CARTESIAN_POINT ( 'NONE',  ( -10.44734603858308475, 0.000000000000000000, 27.00000000000000000 ) ) ;
#215 = CARTESIAN_POINT ( 'NONE',  ( -36.70332301863295754, 0.000000000000000000, 24.14999999999999858 ) ) ;
#216 = EDGE_CURVE ( 'NONE', #242, #223, #426, .T. ) ;
#217 = CARTESIAN_POINT ( 'NONE',  ( -10.80000000000000782, 3.551475717527324030E-15, -29.00000000000000000 ) ) ;
#218 = DIRECTION ( 'NONE',  ( 0.000000000000000000, 0.000000000000000000, -1.000000000000000000 ) ) ;
#219 = ORIENTED_EDGE ( 'NONE', *, *, #216, .T. ) ;
#220 = CARTESIAN_POINT ( 'NONE',  ( -12.00000000000000355, 0.000000000000000000, 0.000000000000000000 ) ) ;
#221 = AXIS2_PLACEMENT_3D ( 'NONE', #204, #2, #138 ) ;
#222 = VECTOR ( 'NONE', #58, 999.9999999999998863 ) ;
#223 = VERTEX_POINT ( 'NONE', #344 ) ;
#224 = DIRECTION ( 'NONE',  ( 0.000000000000000000, 0.000000000000000000, 1.000000000000000000 ) ) ;
#225 = EDGE_CURVE ( 'NONE', #287, #416, #117, .T. ) ;
#226 = ORIENTED_EDGE ( 'NONE', *, *, #191, .F. ) ;
#227 = CIRCLE ( 'NONE', #83, 27.00000000000000000 ) ;
#228 = PERSON_AND_ORGANIZATION ( #409, #367 ) ;
#229 = ORIENTED_EDGE ( 'NONE', *, *, #286, .F. ) ;
#230 = AXIS2_PLACEMENT_3D ( 'NONE', #111, #72, #232 ) ;
#231 = ADVANCED_FACE ( 'NONE', ( #243, #307 ), #281, .T. ) ;
#232 = DIRECTION ( 'NONE',  ( 0.000000000000000000, 0.000000000000000000, 1.000000000000000000 ) ) ;
#233 = CYLINDRICAL_SURFACE ( 'NONE', #33, 27.00000000000000000 ) ;
#234 = PERSON_AND_ORGANIZATION_ROLE ( 'design_owner' ) ;
#235 = CALENDAR_DATE ( 2024, 2, 9 ) ;
#236 = CARTESIAN_POINT ( 'NONE',  ( 0.9999999999999940048, 0.000000000000000000, 0.000000000000000000 ) ) ;
#237 = AXIS2_PLACEMENT_3D ( 'NONE', #220, #151, #124 ) ;
#238 = CYLINDRICAL_SURFACE ( 'NONE', #84, 24.14999999999999858 ) ;
#239 = EDGE_CURVE ( 'NONE', #251, #113, #153, .T. ) ;
#240 = EDGE_LOOP ( 'NONE', ( #349, #114, #425, #412 ) ) ;
#241 = DIRECTION ( 'NONE',  ( -1.000000000000000000, -0.000000000000000000, -0.000000000000000000 ) ) ;
#242 = VERTEX_POINT ( 'NONE', #152 ) ;
#243 = FACE_BOUND ( 'NONE', #104, .T. ) ;
#244 = ORIENTED_EDGE ( 'NONE', *, *, #191, .T. ) ;
#245 = SECURITY_CLASSIFICATION_LEVEL ( 'unclassified' ) ;
#246 = CARTESIAN_POINT ( 'NONE',  ( -10.80000000000000782, 0.000000000000000000, 0.000000000000000000 ) ) ;
#247 = ORIENTED_EDGE ( 'NONE', *, *, #142, .F. ) ;
#248 = AXIS2_PLACEMENT_3D ( 'NONE', #116, #168, #9 ) ;
#249 = VECTOR ( 'NONE', #339, 1000.000000000000000 ) ;
#250 = EDGE_LOOP ( 'NONE', ( #135, #52 ) ) ;
#251 = VERTEX_POINT ( 'NONE', #21 ) ;
#252 = EDGE_LOOP ( 'NONE', ( #354, #159 ) ) ;
#253 = CC_DESIGN_PERSON_AND_ORGANIZATION_ASSIGNMENT ( #393, #292, ( #297 ) ) ;
#254 = EDGE_LOOP ( 'NONE', ( #130, #244, #351, #314 ) ) ;
#255 = VERTEX_POINT ( 'NONE', #214 ) ;
#256 = EDGE_CURVE ( 'NONE', #192, #350, #66, .T. ) ;
#257 = APPLICATION_CONTEXT ( 'configuration controlled 3d designs of mechanical parts and assemblies' ) ;
#258 = VECTOR ( 'NONE', #260, 1000.000000000000000 ) ;
#259 = PLANE ( 'NONE',  #221 ) ;
#260 = DIRECTION ( 'NONE',  ( -1.000000000000000000, -0.000000000000000000, -0.000000000000000000 ) ) ;
#261 = LINE ( 'NONE', #293, #338 ) ;
#262 = EDGE_CURVE ( 'NONE', #416, #287, #265, .T. ) ;
#263 = CLOSED_SHELL ( 'NONE', ( #3, #78, #382, #361, #318, #22, #115, #150, #399, #67, #99, #231, #328 ) ) ;
#264 = DIRECTION ( 'NONE',  ( -1.000000000000000000, -0.000000000000000000, -0.000000000000000000 ) ) ;
#265 = CIRCLE ( 'NONE', #427, 21.49999999999999645 ) ;
#266 =( NAMED_UNIT ( * ) PLANE_ANGLE_UNIT ( ) SI_UNIT ( $, .RADIAN. ) );
#267 = DIRECTION ( 'NONE',  ( -1.000000000000000000, -0.000000000000000000, -0.000000000000000000 ) ) ;
#268 = CARTESIAN_POINT ( 'NONE',  ( 0.000000000000000000, 0.000000000000000000, 0.000000000000000000 ) ) ;
#269 = FACE_OUTER_BOUND ( 'NONE', #250, .T. ) ;
#270 = DATE_AND_TIME ( #404, #187 ) ;
#271 =( GEOMETRIC_REPRESENTATION_CONTEXT ( 3 ) GLOBAL_UNCERTAINTY_ASSIGNED_CONTEXT ( ( #128 ) ) GLOBAL_UNIT_ASSIGNED_CONTEXT ( ( #4, #266, #139 ) ) REPRESENTATION_CONTEXT ( 'NONE', 'WORKASPACE' ) );
#272 = DIRECTION ( 'NONE',  ( -1.000000000000000000, -0.000000000000000000, -0.000000000000000000 ) ) ;
#273 = PERSON_AND_ORGANIZATION ( #409, #367 ) ;
#274 = DIRECTION ( 'NONE',  ( 0.000000000000000000, 0.000000000000000000, 1.000000000000000000 ) ) ;
#275 = EDGE_CURVE ( 'NONE', #7, #161, #296, .T. ) ;
#276 = DIRECTION ( 'NONE',  ( -1.000000000000000000, -0.000000000000000000, -0.000000000000000000 ) ) ;
#277 = APPROVAL_DATE_TIME ( #374, #315 ) ;
#278 = DIRECTION ( 'NONE',  ( -1.000000000000000000, -0.000000000000000000, -0.000000000000000000 ) ) ;
#279 = DIRECTION ( 'NONE',  ( -1.000000000000000000, -0.000000000000000000, -0.000000000000000000 ) ) ;
#280 = APPROVAL_ROLE ( '' ) ;
#281 = PLANE ( 'NONE',  #289 ) ;
#282 = ORIENTED_EDGE ( 'NONE', *, *, #262, .T. ) ;
#283 = CARTESIAN_POINT ( 'NONE',  ( -12.00000000000000355, 0.000000000000000000, 0.000000000000000000 ) ) ;
#284 = AXIS2_PLACEMENT_3D ( 'NONE', #311, #26, #86 ) ;
#285 = VERTEX_POINT ( 'NONE', #312 ) ;
#286 = EDGE_CURVE ( 'NONE', #113, #255, #376, .T. ) ;
#287 = VERTEX_POINT ( 'NONE', #64 ) ;
#288 = CIRCLE ( 'NONE', #418, 29.00000000000000000 ) ;
#289 = AXIS2_PLACEMENT_3D ( 'NONE', #158, #80, #218 ) ;
#290 = DIRECTION ( 'NONE',  ( -1.000000000000000000, -0.000000000000000000, -0.000000000000000000 ) ) ;
#291 = LINE ( 'NONE', #1, #258 ) ;
#292 = PERSON_AND_ORGANIZATION_ROLE ( 'creator' ) ;
#293 = CARTESIAN_POINT ( 'NONE',  ( -36.70332301863295754, 0.000000000000000000, 21.50000000000000000 ) ) ;
#294 = VECTOR ( 'NONE', #335, 1000.000000000000000 ) ;
#295 = ORIENTED_EDGE ( 'NONE', *, *, #394, .T. ) ;
#296 = CIRCLE ( 'NONE', #178, 24.14999999999999858 ) ;
#297 = PRODUCT_DEFINITION ( 'UNKNOWN', '', #195, #37 ) ;
#298 = DATE_AND_TIME ( #235, #95 ) ;
#299 = CARTESIAN_POINT ( 'NONE',  ( -12.00000000000000355, 0.000000000000000000, 0.000000000000000000 ) ) ;
#300 = CARTESIAN_POINT ( 'NONE',  ( -36.70332301863295754, 2.957522019940857930E-15, -24.14999999999999858 ) ) ;
#301 = CARTESIAN_POINT ( 'NONE',  ( -10.44734603858308475, 0.000000000000000000, 0.000000000000000000 ) ) ;
#302 = CARTESIAN_POINT ( 'NONE',  ( -12.00000000000000533, 21.49999999999999645, 0.000000000000000000 ) ) ;
#303 = CIRCLE ( 'NONE', #148, 21.50000000000000000 ) ;
#304 = COORDINATED_UNIVERSAL_TIME_OFFSET ( 1, 0, .AHEAD. ) ;
#305 = EDGE_CURVE ( 'NONE', #223, #242, #319, .T. ) ;
#306 = DIRECTION ( 'NONE',  ( 0.000000000000000000, 0.000000000000000000, 1.000000000000000000 ) ) ;
#307 = FACE_OUTER_BOUND ( 'NONE', #252, .T. ) ;
#308 = ORIENTED_EDGE ( 'NONE', *, *, #225, .F. ) ;
#309 = CARTESIAN_POINT ( 'NONE',  ( -36.70332301863295754, 0.000000000000000000, 27.00000000000000000 ) ) ;
#310 = CIRCLE ( 'NONE', #42, 27.00000000000000000 ) ;
#311 = CARTESIAN_POINT ( 'NONE',  ( 0.9999999999999940048, 0.000000000000000000, 0.000000000000000000 ) ) ;
#312 = CARTESIAN_POINT ( 'NONE',  ( -10.44734603858308475, 3.429011037612589276E-15, -27.00000000000000000 ) ) ;
#313 = ORIENTED_EDGE ( 'NONE', *, *, #330, .F. ) ;
#314 = ORIENTED_EDGE ( 'NONE', *, *, #305, .F. ) ;
#315 = APPROVAL ( #17, 'UNSPECIFIED' ) ;
#316 = ORIENTED_EDGE ( 'NONE', *, *, #305, .T. ) ;
#317 = EDGE_LOOP ( 'NONE', ( #31, #97, #196, #226 ) ) ;
#318 = ADVANCED_FACE ( 'NONE', ( #62 ), #417, .F. ) ;
#319 = CIRCLE ( 'NONE', #126, 29.00000000000000000 ) ;
#320 = DIRECTION ( 'NONE',  ( -1.000000000000000000, -0.000000000000000000, -0.000000000000000000 ) ) ;
#321 = CARTESIAN_POINT ( 'NONE',  ( 0.9999999999999940048, 2.957522019940857930E-15, -24.14999999999999858 ) ) ;
#322 = CARTESIAN_POINT ( 'NONE',  ( -12.00000000000000355, 2.632990618166808841E-15, -21.49999999999999645 ) ) ;
#323 = FACE_OUTER_BOUND ( 'NONE', #375, .T. ) ;
#324 = DIRECTION ( 'NONE',  ( 0.000000000000000000, 0.000000000000000000, 1.000000000000000000 ) ) ;
#325 = DIRECTION ( 'NONE',  ( -1.000000000000000000, -0.000000000000000000, -0.000000000000000000 ) ) ;
#326 = AXIS2_PLACEMENT_3D ( 'NONE', #47, #264, #109 ) ;
#327 = DIRECTION ( 'NONE',  ( 0.000000000000000000, 0.000000000000000000, 1.000000000000000000 ) ) ;
#328 = ADVANCED_FACE ( 'NONE', ( #96 ), #238, .T. ) ;
#329 = CARTESIAN_POINT ( 'NONE',  ( 11.99999999999999645, 0.000000000000000000, 0.000000000000000000 ) ) ;
#330 = EDGE_CURVE ( 'NONE', #68, #381, #303, .T. ) ;
#331 = CC_DESIGN_APPROVAL ( #315, ( #160 ) ) ;
#332 = CARTESIAN_POINT ( 'NONE',  ( -36.70332301863295754, 0.000000000000000000, 0.000000000000000000 ) ) ;
#333 = PERSON_AND_ORGANIZATION_ROLE ( 'design_supplier' ) ;
#334 = CARTESIAN_POINT ( 'NONE',  ( -36.70332301863295754, 0.000000000000000000, 0.000000000000000000 ) ) ;
#335 = DIRECTION ( 'NONE',  ( -1.000000000000000000, -0.000000000000000000, -0.000000000000000000 ) ) ;
#336 = DIRECTION ( 'NONE',  ( -1.000000000000000000, -0.000000000000000000, -0.000000000000000000 ) ) ;
#337 = ORIENTED_EDGE ( 'NONE', *, *, #256, .F. ) ;
#338 = VECTOR ( 'NONE', #402, 1000.000000000000000 ) ;
#339 = DIRECTION ( 'NONE',  ( -1.000000000000000000, -0.000000000000000000, -0.000000000000000000 ) ) ;
#340 = EDGE_CURVE ( 'NONE', #369, #386, #133, .T. ) ;
#341 = APPROVAL_PERSON_ORGANIZATION ( #273, #315, #280 ) ;
#342 = AXIS2_PLACEMENT_3D ( 'NONE', #415, #290, #224 ) ;
#343 = DATE_AND_TIME ( #51, #118 ) ;
#344 = CARTESIAN_POINT ( 'NONE',  ( -10.80000000000000782, 3.551475717527324030E-15, -29.00000000000000000 ) ) ;
#345 = CC_DESIGN_PERSON_AND_ORGANIZATION_ASSIGNMENT ( #228, #357, ( #195 ) ) ;
#346 = CARTESIAN_POINT ( 'NONE',  ( 11.99999999999999645, 2.957522019940857930E-15, -24.14999999999999858 ) ) ;
#347 = EDGE_CURVE ( 'NONE', #285, #223, #88, .T. ) ;
#348 = ORIENTED_EDGE ( 'NONE', *, *, #82, .F. ) ;
#349 = ORIENTED_EDGE ( 'NONE', *, *, #185, .F. ) ;
#350 = VERTEX_POINT ( 'NONE', #184 ) ;
#351 = ORIENTED_EDGE ( 'NONE', *, *, #82, .T. ) ;
#352 = EDGE_LOOP ( 'NONE', ( #313, #100, #282, #14 ) ) ;
#353 = FACE_OUTER_BOUND ( 'NONE', #81, .T. ) ;
#354 = ORIENTED_EDGE ( 'NONE', *, *, #6, .F. ) ;
#355 = AXIS2_PLACEMENT_3D ( 'NONE', #73, #400, #11 ) ;
#356 = APPROVAL_PERSON_ORGANIZATION ( #46, #379, #173 ) ;
#357 = PERSON_AND_ORGANIZATION_ROLE ( 'creator' ) ;
#358 = CARTESIAN_POINT ( 'NONE',  ( -36.70332301863295754, 0.000000000000000000, 0.000000000000000000 ) ) ;
#359 = CARTESIAN_POINT ( 'NONE',  ( 0.9999999999999940048, 0.000000000000000000, 0.000000000000000000 ) ) ;
#360 = CYLINDRICAL_SURFACE ( 'NONE', #355, 21.50000000000000000 ) ;
#361 = ADVANCED_FACE ( 'NONE', ( #25 ), #154, .T. ) ;
#362 = APPLICATION_PROTOCOL_DEFINITION ( 'international standard', 'config_control_design', 1994, #396 ) ;
#363 = CARTESIAN_POINT ( 'NONE',  ( -36.70332301863295754, 0.000000000000000000, 0.000000000000000000 ) ) ;
#364 = AXIS2_PLACEMENT_3D ( 'NONE', #145, #368, #274 ) ;
#365 = DIRECTION ( 'NONE',  ( -1.000000000000000000, -0.000000000000000000, -0.000000000000000000 ) ) ;
#366 = FACE_OUTER_BOUND ( 'NONE', #317, .T. ) ;
#367 = ORGANIZATION ( 'UNSPECIFIED', 'UNSPECIFIED', '' ) ;
#368 = DIRECTION ( 'NONE',  ( -1.000000000000000000, -0.000000000000000000, -0.000000000000000000 ) ) ;
#369 = VERTEX_POINT ( 'NONE', #346 ) ;
#370 = CARTESIAN_POINT ( 'NONE',  ( -12.00000000000000355, 0.000000000000000000, 0.000000000000000000 ) ) ;
#371 = CARTESIAN_POINT ( 'NONE',  ( -36.70332301863295754, 3.551475717527324030E-15, -29.00000000000000000 ) ) ;
#372 = FACE_OUTER_BOUND ( 'NONE', #122, .T. ) ;
#373 = DIRECTION ( 'NONE',  ( 0.000000000000000000, 0.000000000000000000, 1.000000000000000000 ) ) ;
#374 = DATE_AND_TIME ( #123, #110 ) ;
#375 = EDGE_LOOP ( 'NONE', ( #247, #162, #93, #125 ) ) ;
#376 = LINE ( 'NONE', #309, #249 ) ;
#377 = SHAPE_DEFINITION_REPRESENTATION ( #385, #18 ) ;
#378 = DIRECTION ( 'NONE',  ( 0.000000000000000000, 0.000000000000000000, 1.000000000000000000 ) ) ;
#379 = APPROVAL ( #209, 'UNSPECIFIED' ) ;
#380 = ORIENTED_EDGE ( 'NONE', *, *, #408, .T. ) ;
#381 = VERTEX_POINT ( 'NONE', #163 ) ;
#382 = ADVANCED_FACE ( 'NONE', ( #353 ), #171, .T. ) ;
#383 = ORIENTED_EDGE ( 'NONE', *, *, #413, .F. ) ;
#384 = ORIENTED_EDGE ( 'NONE', *, *, #408, .F. ) ;
#385 = PRODUCT_DEFINITION_SHAPE ( 'NONE', 'NONE',  #297 ) ;
#386 = VERTEX_POINT ( 'NONE', #166 ) ;
#387 = VECTOR ( 'NONE', #13, 1000.000000000000000 ) ;
#388 = AXIS2_PLACEMENT_3D ( 'NONE', #332, #411, #378 ) ;
#389 = EDGE_LOOP ( 'NONE', ( #219, #91, #210, #102 ) ) ;
#390 = ORIENTED_EDGE ( 'NONE', *, *, #185, .T. ) ;
#391 = CARTESIAN_POINT ( 'NONE',  ( -10.80000000000000782, 0.000000000000000000, 0.000000000000000000 ) ) ;
#392 = CYLINDRICAL_SURFACE ( 'NONE', #326, 24.14999999999999858 ) ;
#393 = PERSON_AND_ORGANIZATION ( #409, #367 ) ;
#394 = EDGE_CURVE ( 'NONE', #251, #285, #291, .T. ) ;
#395 = CC_DESIGN_SECURITY_CLASSIFICATION ( #160, ( #195 ) ) ;
#396 = APPLICATION_CONTEXT ( 'configuration controlled 3d designs of mechanical parts and assemblies' ) ;
#397 = DIRECTION ( 'NONE',  ( -1.000000000000000000, -0.000000000000000000, -0.000000000000000000 ) ) ;
#398 = DIRECTION ( 'NONE',  ( -0.1736481776669269450, 0.000000000000000000, 0.9848077530122087975 ) ) ;
#399 = ADVANCED_FACE ( 'NONE', ( #79 ), #120, .T. ) ;
#400 = DIRECTION ( 'NONE',  ( -1.000000000000000000, -0.000000000000000000, -0.000000000000000000 ) ) ;
#401 = PERSON_AND_ORGANIZATION ( #409, #367 ) ;
#402 = DIRECTION ( 'NONE',  ( -1.000000000000000000, -0.000000000000000000, -0.000000000000000000 ) ) ;
#403 = CC_DESIGN_APPROVAL ( #379, ( #195 ) ) ;
#404 = CALENDAR_DATE ( 2024, 2, 9 ) ;
#405 = CARTESIAN_POINT ( 'NONE',  ( -36.70332301863295754, 2.632990618166809235E-15, -21.50000000000000000 ) ) ;
#406 = ORIENTED_EDGE ( 'NONE', *, *, #428, .T. ) ;
#407 = LINE ( 'NONE', #371, #186 ) ;
#408 = EDGE_CURVE ( 'NONE', #161, #7, #8, .T. ) ;
#409 = PERSON ( 'UNSPECIFIED', 'UNSPECIFIED', 'UNSPECIFIED', ('UNSPECIFIED'), ('UNSPECIFIED'), ('UNSPECIFIED') ) ;
#410 = AXIS2_PLACEMENT_3D ( 'NONE', #359, #397, #324 ) ;
#411 = DIRECTION ( 'NONE',  ( -1.000000000000000000, -0.000000000000000000, -0.000000000000000000 ) ) ;
#412 = ORIENTED_EDGE ( 'NONE', *, *, #275, .F. ) ;
#413 = EDGE_CURVE ( 'NONE', #255, #285, #310, .T. ) ;
#414 = DIRECTION ( 'NONE',  ( 0.000000000000000000, 0.000000000000000000, 1.000000000000000000 ) ) ;
#415 = CARTESIAN_POINT ( 'NONE',  ( -36.70332301863295754, 0.000000000000000000, 0.000000000000000000 ) ) ;
#416 = VERTEX_POINT ( 'NONE', #322 ) ;
#417 = CYLINDRICAL_SURFACE ( 'NONE', #388, 21.50000000000000000 ) ;
#418 = AXIS2_PLACEMENT_3D ( 'NONE', #299, #74, #327 ) ;
#419 = DIRECTION ( 'NONE',  ( 0.000000000000000000, 0.000000000000000000, 1.000000000000000000 ) ) ;
#420 = ORIENTED_EDGE ( 'NONE', *, *, #347, .T. ) ;
#421 = MANIFOLD_SOLID_BREP ( 'Rotation1', #263 ) ;
#422 = EDGE_LOOP ( 'NONE', ( #63, #316, #30, #337 ) ) ;
#423 = ORIENTED_EDGE ( 'NONE', *, *, #6, .T. ) ;
#424 = CC_DESIGN_PERSON_AND_ORGANIZATION_ASSIGNMENT ( #85, #23, ( #160 ) ) ;
#425 = ORIENTED_EDGE ( 'NONE', *, *, #155, .T. ) ;
#426 = CIRCLE ( 'NONE', #60, 29.00000000000000000 ) ;
#427 = AXIS2_PLACEMENT_3D ( 'NONE', #370, #211, #27 ) ;
#428 = EDGE_CURVE ( 'NONE', #386, #369, #105, .T. ) ;
#429 = DIRECTION ( 'NONE',  ( 0.000000000000000000, 0.000000000000000000, 1.000000000000000000 ) ) ;
ENDSEC;
END-ISO-10303-21;
