ISO-10303-21;
HEADER;
FILE_DESCRIPTION (( 'STEP AP203' ),
    '1' );
FILE_NAME ('3D_M2060_50-32_174121075.STEP',
    '2024-09-05T10:20:17',
    ( '' ),
    ( '' ),
    'SwSTEP 2.0',
    'SolidWorks 2024',
    '' );
FILE_SCHEMA (( 'CONFIG_CONTROL_DESIGN' ));
ENDSEC;

DATA;
#1 = ORIENTED_EDGE ( 'NONE', *, *, #23, .T. ) ;
#2 = DIRECTION ( 'NONE',  ( 1.000000000000000000, 0.000000000000000000, 0.000000000000000000 ) ) ;
#3 = EDGE_LOOP ( 'NONE', ( #230, #152, #235, #155 ) ) ;
#4 = CARTESIAN_POINT ( 'NONE',  ( 33.00000000000000000, 0.000000000000000000, 16.00000000000000000 ) ) ;
#5 = DIRECTION ( 'NONE',  ( 0.000000000000000000, 0.000000000000000000, -1.000000000000000000 ) ) ;
#6 = CC_DESIGN_PERSON_AND_ORGANIZATION_ASSIGNMENT ( #186, #74, ( #238 ) ) ;
#7 = CARTESIAN_POINT ( 'NONE',  ( 0.000000000000000000, -1.530808498934191521E-15, 25.00000000000000000 ) ) ;
#8 = CONICAL_SURFACE ( 'NONE', #109, 16.00000000000000000, 0.2662520491509253739 ) ;
#9 = CIRCLE ( 'NONE', #202, 25.00000000000000000 ) ;
#10 = CARTESIAN_POINT ( 'NONE',  ( 32.60532389131183351, 0.000000000000000000, 0.000000000000000000 ) ) ;
#11 = CARTESIAN_POINT ( 'NONE',  ( 33.00000000000000000, 0.000000000000000000, 0.000000000000000000 ) ) ;
#12 = CALENDAR_DATE ( 2024, 5, 9 ) ;
#13 = DATE_AND_TIME ( #78, #140 ) ;
#14 = PERSON_AND_ORGANIZATION_ROLE ( 'design_supplier' ) ;
#15 = CIRCLE ( 'NONE', #139, 25.00000000000000000 ) ;
#16 = DIRECTION ( 'NONE',  ( 0.000000000000000000, 0.000000000000000000, 1.000000000000000000 ) ) ;
#17 = CC_DESIGN_APPROVAL ( #133, ( #128 ) ) ;
#18 = EDGE_LOOP ( 'NONE', ( #211, #19, #174, #43 ) ) ;
#19 = ORIENTED_EDGE ( 'NONE', *, *, #122, .T. ) ;
#20 = DIRECTION ( 'NONE',  ( 1.000000000000000000, 0.000000000000000000, 0.000000000000000000 ) ) ;
#21 = AXIS2_PLACEMENT_3D ( 'NONE', #215, #2, #82 ) ;
#22 = EDGE_LOOP ( 'NONE', ( #120, #175 ) ) ;
#23 = EDGE_CURVE ( 'NONE', #41, #60, #110, .T. ) ;
#24 = DIRECTION ( 'NONE',  ( -0.9647638212377321887, 0.000000000000000000, 0.2631174057921088494 ) ) ;
#25 = AXIS2_PLACEMENT_3D ( 'NONE', #86, #160, #145 ) ;
#26 = CC_DESIGN_PERSON_AND_ORGANIZATION_ASSIGNMENT ( #38, #131, ( #227 ) ) ;
#27 = DIRECTION ( 'NONE',  ( 0.000000000000000000, 0.000000000000000000, -1.000000000000000000 ) ) ;
#28 = ADVANCED_BREP_SHAPE_REPRESENTATION ( '3D_M2060_50-32_174121075', ( #115, #171 ), #33 ) ;
#29 = LINE ( 'NONE', #30, #248 ) ;
#30 = CARTESIAN_POINT ( 'NONE',  ( 32.60532389131183351, 0.000000000000000000, 14.55285426814340255 ) ) ;
#31 = AXIS2_PLACEMENT_3D ( 'NONE', #159, #143, #46 ) ;
#32 = CONICAL_SURFACE ( 'NONE', #62, 16.00000000000000000, 0.2662520491509253739 ) ;
#33 =( GEOMETRIC_REPRESENTATION_CONTEXT ( 3 ) GLOBAL_UNCERTAINTY_ASSIGNED_CONTEXT ( ( #247 ) ) GLOBAL_UNIT_ASSIGNED_CONTEXT ( ( #67, #69, #244 ) ) REPRESENTATION_CONTEXT ( 'NONE', 'WORKASPACE' ) );
#34 = DIRECTION ( 'NONE',  ( 1.000000000000000000, 0.000000000000000000, 0.000000000000000000 ) ) ;
#35 = SHAPE_DEFINITION_REPRESENTATION ( #173, #28 ) ;
#36 = CALENDAR_DATE ( 2024, 5, 9 ) ;
#37 = CC_DESIGN_DATE_AND_TIME_ASSIGNMENT ( #149, #51, ( #238 ) ) ;
#38 = PERSON_AND_ORGANIZATION ( #158, #135 ) ;
#39 = APPROVAL_STATUS ( 'not_yet_approved' ) ;
#40 = MECHANICAL_CONTEXT ( 'NONE', #129, 'mechanical' ) ;
#41 = VERTEX_POINT ( 'NONE', #213 ) ;
#42 = EDGE_CURVE ( 'NONE', #142, #99, #225, .T. ) ;
#43 = ORIENTED_EDGE ( 'NONE', *, *, #114, .F. ) ;
#44 = EDGE_LOOP ( 'NONE', ( #153, #58 ) ) ;
#45 = APPROVAL ( #39, 'UNSPECIFIED' ) ;
#46 = DIRECTION ( 'NONE',  ( 0.000000000000000000, 0.000000000000000000, -1.000000000000000000 ) ) ;
#47 = DIRECTION ( 'NONE',  ( -1.000000000000000000, -0.000000000000000000, -0.000000000000000000 ) ) ;
#48 = CARTESIAN_POINT ( 'NONE',  ( 0.000000000000000000, 0.000000000000000000, 0.000000000000000000 ) ) ;
#49 = CARTESIAN_POINT ( 'NONE',  ( 33.00000000000000000, 0.000000000000000000, 0.000000000000000000 ) ) ;
#50 = ADVANCED_FACE ( 'NONE', ( #101 ), #88, .F. ) ;
#51 = DATE_TIME_ROLE ( 'creation_date' ) ;
#52 = EDGE_CURVE ( 'NONE', #102, #177, #234, .T. ) ;
#53 = PERSON_AND_ORGANIZATION_ROLE ( 'classification_officer' ) ;
#54 = VECTOR ( 'NONE', #24, 1000.000000000000114 ) ;
#55 = APPROVAL_STATUS ( 'not_yet_approved' ) ;
#56 = AXIS2_PLACEMENT_3D ( 'NONE', #195, #176, #83 ) ;
#57 = PERSON_AND_ORGANIZATION ( #158, #135 ) ;
#58 = ORIENTED_EDGE ( 'NONE', *, *, #116, .F. ) ;
#59 = EDGE_LOOP ( 'NONE', ( #61, #1 ) ) ;
#60 = VERTEX_POINT ( 'NONE', #157 ) ;
#61 = ORIENTED_EDGE ( 'NONE', *, *, #229, .T. ) ;
#62 = AXIS2_PLACEMENT_3D ( 'NONE', #216, #127, #106 ) ;
#63 = LOCAL_TIME ( 12, 20, 17.00000000000000000, #148 ) ;
#64 = ORIENTED_EDGE ( 'NONE', *, *, #94, .F. ) ;
#65 = FACE_OUTER_BOUND ( 'NONE', #191, .T. ) ;
#66 = DIRECTION ( 'NONE',  ( -0.9647638212377321887, 0.000000000000000000, 0.2631174057921088494 ) ) ;
#67 =( LENGTH_UNIT ( ) NAMED_UNIT ( * ) SI_UNIT ( .MILLI., .METRE. ) );
#68 = ADVANCED_FACE ( 'NONE', ( #161, #203 ), #240, .T. ) ;
#69 =( NAMED_UNIT ( * ) PLANE_ANGLE_UNIT ( ) SI_UNIT ( $, .RADIAN. ) );
#70 = DIRECTION ( 'NONE',  ( 0.000000000000000000, 0.000000000000000000, 1.000000000000000000 ) ) ;
#71 = CIRCLE ( 'NONE', #25, 23.44521532941026365 ) ;
#72 = COORDINATED_UNIVERSAL_TIME_OFFSET ( 1, 0, .AHEAD. ) ;
#73 = ADVANCED_FACE ( 'NONE', ( #65 ), #95, .F. ) ;
#74 = PERSON_AND_ORGANIZATION_ROLE ( 'creator' ) ;
#75 = CALENDAR_DATE ( 2024, 5, 9 ) ;
#76 = APPLICATION_CONTEXT ( 'configuration controlled 3d designs of mechanical parts and assemblies' ) ;
#77 = ADVANCED_FACE ( 'NONE', ( #146 ), #32, .T. ) ;
#78 = CALENDAR_DATE ( 2024, 5, 9 ) ;
#79 = ORIENTED_EDGE ( 'NONE', *, *, #114, .T. ) ;
#80 = EDGE_CURVE ( 'NONE', #97, #232, #9, .T. ) ;
#81 = EDGE_LOOP ( 'NONE', ( #190, #214, #79, #117 ) ) ;
#82 = DIRECTION ( 'NONE',  ( 0.000000000000000000, 0.000000000000000000, -1.000000000000000000 ) ) ;
#83 = DIRECTION ( 'NONE',  ( 0.000000000000000000, 0.000000000000000000, -1.000000000000000000 ) ) ;
#84 = SECURITY_CLASSIFICATION ( '', '', #167 ) ;
#85 = FACE_OUTER_BOUND ( 'NONE', #44, .T. ) ;
#86 = CARTESIAN_POINT ( 'NONE',  ( 0.000000000000000000, 0.000000000000000000, 0.000000000000000000 ) ) ;
#87 = CARTESIAN_POINT ( 'NONE',  ( 0.000000000000000000, 0.000000000000000000, 0.000000000000000000 ) ) ;
#88 = CONICAL_SURFACE ( 'NONE', #183, 14.55285426814340255, 0.2662520491509253739 ) ;
#89 = CARTESIAN_POINT ( 'NONE',  ( 33.00000000000000000, 1.959434878635765131E-15, -16.00000000000000000 ) ) ;
#90 = DIRECTION ( 'NONE',  ( 1.000000000000000000, 0.000000000000000000, 0.000000000000000000 ) ) ;
#91 = AXIS2_PLACEMENT_3D ( 'NONE', #124, #239, #27 ) ;
#92 = APPLICATION_PROTOCOL_DEFINITION ( 'international standard', 'config_control_design', 1994, #76 ) ;
#93 = PERSON_AND_ORGANIZATION ( #158, #135 ) ;
#94 = EDGE_CURVE ( 'NONE', #142, #41, #219, .T. ) ;
#95 = CONICAL_SURFACE ( 'NONE', #119, 14.55285426814340255, 0.2662520491509253739 ) ;
#96 = LOCAL_TIME ( 12, 20, 17.00000000000000000, #165 ) ;
#97 = VERTEX_POINT ( 'NONE', #7 ) ;
#98 = ADVANCED_FACE ( 'NONE', ( #184 ), #8, .T. ) ;
#99 = VERTEX_POINT ( 'NONE', #123 ) ;
#100 = AXIS2_PLACEMENT_3D ( 'NONE', #182, #90, #181 ) ;
#101 = FACE_OUTER_BOUND ( 'NONE', #3, .T. ) ;
#102 = VERTEX_POINT ( 'NONE', #197 ) ;
#103 = ORIENTED_EDGE ( 'NONE', *, *, #209, .T. ) ;
#104 = FACE_BOUND ( 'NONE', #59, .T. ) ;
#105 = CC_DESIGN_APPROVAL ( #166, ( #84 ) ) ;
#106 = DIRECTION ( 'NONE',  ( 0.000000000000000000, 0.000000000000000000, 1.000000000000000000 ) ) ;
#107 = CARTESIAN_POINT ( 'NONE',  ( 0.000000000000000000, 4.592425496802574367E-15, -25.00000000000000000 ) ) ;
#108 = CC_DESIGN_DATE_AND_TIME_ASSIGNMENT ( #222, #132, ( #84 ) ) ;
#109 = AXIS2_PLACEMENT_3D ( 'NONE', #11, #47, #70 ) ;
#110 = CIRCLE ( 'NONE', #170, 23.44521532941026365 ) ;
#111 = DIRECTION ( 'NONE',  ( 0.000000000000000000, 0.000000000000000000, -1.000000000000000000 ) ) ;
#112 = APPLICATION_PROTOCOL_DEFINITION ( 'international standard', 'config_control_design', 1994, #129 ) ;
#113 = APPROVAL_DATE_TIME ( #187, #166 ) ;
#114 = EDGE_CURVE ( 'NONE', #102, #97, #163, .T. ) ;
#115 = MANIFOLD_SOLID_BREP ( 'Wandung2', #204 ) ;
#116 = EDGE_CURVE ( 'NONE', #232, #97, #15, .T. ) ;
#117 = ORIENTED_EDGE ( 'NONE', *, *, #80, .T. ) ;
#118 = EDGE_LOOP ( 'NONE', ( #136, #103 ) ) ;
#119 = AXIS2_PLACEMENT_3D ( 'NONE', #10, #217, #144 ) ;
#120 = ORIENTED_EDGE ( 'NONE', *, *, #218, .F. ) ;
#121 = DIRECTION ( 'NONE',  ( 0.000000000000000000, 0.000000000000000000, -1.000000000000000000 ) ) ;
#122 = EDGE_CURVE ( 'NONE', #177, #232, #199, .T. ) ;
#123 = CARTESIAN_POINT ( 'NONE',  ( 33.00000000000000000, 0.000000000000000000, 14.44521532941026543 ) ) ;
#124 = CARTESIAN_POINT ( 'NONE',  ( 33.00000000000000000, 0.000000000000000000, 0.000000000000000000 ) ) ;
#125 = DIRECTION ( 'NONE',  ( 0.000000000000000000, 0.000000000000000000, -1.000000000000000000 ) ) ;
#126 = CARTESIAN_POINT ( 'NONE',  ( 33.00000000000000000, 2.320119731231964835E-15, -14.44521532941026543 ) ) ;
#127 = DIRECTION ( 'NONE',  ( -1.000000000000000000, -0.000000000000000000, -0.000000000000000000 ) ) ;
#128 = PRODUCT_DEFINITION_FORMATION_WITH_SPECIFIED_SOURCE ( 'ANY', '', #227, .NOT_KNOWN. ) ;
#129 = APPLICATION_CONTEXT ( 'configuration controlled 3d designs of mechanical parts and assemblies' ) ;
#130 = COORDINATED_UNIVERSAL_TIME_OFFSET ( 1, 0, .AHEAD. ) ;
#131 = PERSON_AND_ORGANIZATION_ROLE ( 'design_owner' ) ;
#132 = DATE_TIME_ROLE ( 'classification_date' ) ;
#133 = APPROVAL ( #55, 'UNSPECIFIED' ) ;
#134 = DIRECTION ( 'NONE',  ( 1.000000000000000000, 0.000000000000000000, 0.000000000000000000 ) ) ;
#135 = ORGANIZATION ( 'UNSPECIFIED', 'UNSPECIFIED', '' ) ;
#136 = ORIENTED_EDGE ( 'NONE', *, *, #52, .T. ) ;
#137 = ORIENTED_EDGE ( 'NONE', *, *, #201, .T. ) ;
#138 = DIRECTION ( 'NONE',  ( -1.000000000000000000, -0.000000000000000000, -0.000000000000000000 ) ) ;
#139 = AXIS2_PLACEMENT_3D ( 'NONE', #87, #236, #125 ) ;
#141 = CARTESIAN_POINT ( 'NONE',  ( 32.60532389131183351, 0.000000000000000000, 0.000000000000000000 ) ) ;
#140 = LOCAL_TIME ( 12, 20, 17.00000000000000000, #151 ) ;
#142 = VERTEX_POINT ( 'NONE', #126 ) ;
#143 = DIRECTION ( 'NONE',  ( 1.000000000000000000, 0.000000000000000000, 0.000000000000000000 ) ) ;
#144 = DIRECTION ( 'NONE',  ( 0.000000000000000000, 0.000000000000000000, 1.000000000000000000 ) ) ;
#145 = DIRECTION ( 'NONE',  ( 0.000000000000000000, 0.000000000000000000, -1.000000000000000000 ) ) ;
#146 = FACE_OUTER_BOUND ( 'NONE', #18, .T. ) ;
#147 = LOCAL_TIME ( 12, 20, 17.00000000000000000, #130 ) ;
#148 = COORDINATED_UNIVERSAL_TIME_OFFSET ( 1, 0, .AHEAD. ) ;
#149 = DATE_AND_TIME ( #12, #96 ) ;
#150 = APPROVAL_DATE_TIME ( #207, #45 ) ;
#151 = COORDINATED_UNIVERSAL_TIME_OFFSET ( 1, 0, .AHEAD. ) ;
#152 = ORIENTED_EDGE ( 'NONE', *, *, #94, .T. ) ;
#153 = ORIENTED_EDGE ( 'NONE', *, *, #80, .F. ) ;
#154 = ADVANCED_FACE ( 'NONE', ( #104, #85 ), #198, .F. ) ;
#155 = ORIENTED_EDGE ( 'NONE', *, *, #201, .F. ) ;
#157 = CARTESIAN_POINT ( 'NONE',  ( 0.000000000000000000, 0.000000000000000000, 23.44521532941026720 ) ) ;
#156 = AXIS2_PLACEMENT_3D ( 'NONE', #49, #180, #5 ) ;
#158 = PERSON ( 'UNSPECIFIED', 'UNSPECIFIED', 'UNSPECIFIED', ('UNSPECIFIED'), ('UNSPECIFIED'), ('UNSPECIFIED') ) ;
#159 = CARTESIAN_POINT ( 'NONE',  ( 0.000000000000000000, 0.000000000000000000, 0.000000000000000000 ) ) ;
#160 = DIRECTION ( 'NONE',  ( 1.000000000000000000, 0.000000000000000000, 0.000000000000000000 ) ) ;
#161 = FACE_BOUND ( 'NONE', #22, .T. ) ;
#162 = DIRECTION ( 'NONE',  ( -0.9647638212377321887, 3.222258888032613123E-17, -0.2631174057921088494 ) ) ;
#163 = LINE ( 'NONE', #4, #54 ) ;
#164 = APPROVAL_ROLE ( '' ) ;
#165 = COORDINATED_UNIVERSAL_TIME_OFFSET ( 1, 0, .AHEAD. ) ;
#166 = APPROVAL ( #208, 'UNSPECIFIED' ) ;
#167 = SECURITY_CLASSIFICATION_LEVEL ( 'unclassified' ) ;
#168 = PERSON_AND_ORGANIZATION ( #158, #135 ) ;
#169 = DESIGN_CONTEXT ( 'detailed design', #76, 'design' ) ;
#170 = AXIS2_PLACEMENT_3D ( 'NONE', #193, #20, #121 ) ;
#171 = AXIS2_PLACEMENT_3D ( 'NONE', #223, #16, #134 ) ;
#172 = APPROVAL_ROLE ( '' ) ;
#173 = PRODUCT_DEFINITION_SHAPE ( 'NONE', 'NONE',  #238 ) ;
#174 = ORIENTED_EDGE ( 'NONE', *, *, #116, .T. ) ;
#175 = ORIENTED_EDGE ( 'NONE', *, *, #42, .F. ) ;
#176 = DIRECTION ( 'NONE',  ( 1.000000000000000000, 0.000000000000000000, 0.000000000000000000 ) ) ;
#177 = VERTEX_POINT ( 'NONE', #200 ) ;
#179 = DIRECTION ( 'NONE',  ( -0.9647638212377321887, 3.222258888032613123E-17, -0.2631174057921088494 ) ) ;
#178 = APPROVAL_PERSON_ORGANIZATION ( #246, #166, #172 ) ;
#180 = DIRECTION ( 'NONE',  ( 1.000000000000000000, 0.000000000000000000, 0.000000000000000000 ) ) ;
#181 = DIRECTION ( 'NONE',  ( 0.000000000000000000, 0.000000000000000000, -1.000000000000000000 ) ) ;
#182 = CARTESIAN_POINT ( 'NONE',  ( 33.00000000000000000, 0.000000000000000000, 0.000000000000000000 ) ) ;
#183 = AXIS2_PLACEMENT_3D ( 'NONE', #141, #138, #196 ) ;
#184 = FACE_OUTER_BOUND ( 'NONE', #81, .T. ) ;
#185 = APPROVAL_DATE_TIME ( #13, #133 ) ;
#186 = PERSON_AND_ORGANIZATION ( #158, #135 ) ;
#187 = DATE_AND_TIME ( #75, #147 ) ;
#188 = PERSON_AND_ORGANIZATION_ROLE ( 'creator' ) ;
#189 = APPROVAL_PERSON_ORGANIZATION ( #226, #45, #241 ) ;
#190 = ORIENTED_EDGE ( 'NONE', *, *, #122, .F. ) ;
#191 = EDGE_LOOP ( 'NONE', ( #64, #228, #137, #231 ) ) ;
#192 = CC_DESIGN_PERSON_AND_ORGANIZATION_ASSIGNMENT ( #168, #53, ( #84 ) ) ;
#193 = CARTESIAN_POINT ( 'NONE',  ( 0.000000000000000000, 0.000000000000000000, 0.000000000000000000 ) ) ;
#194 = VECTOR ( 'NONE', #162, 1000.000000000000114 ) ;
#195 = CARTESIAN_POINT ( 'NONE',  ( 33.00000000000000000, 0.000000000000000000, 0.000000000000000000 ) ) ;
#196 = DIRECTION ( 'NONE',  ( 0.000000000000000000, 0.000000000000000000, 1.000000000000000000 ) ) ;
#197 = CARTESIAN_POINT ( 'NONE',  ( 33.00000000000000000, 9.797174393178825657E-16, 16.00000000000000000 ) ) ;
#198 = PLANE ( 'NONE',  #31 ) ;
#199 = LINE ( 'NONE', #89, #194 ) ;
#200 = CARTESIAN_POINT ( 'NONE',  ( 33.00000000000000000, 9.797174393178825657E-16, -16.00000000000000000 ) ) ;
#201 = EDGE_CURVE ( 'NONE', #99, #60, #29, .T. ) ;
#202 = AXIS2_PLACEMENT_3D ( 'NONE', #48, #34, #111 ) ;
#203 = FACE_OUTER_BOUND ( 'NONE', #118, .T. ) ;
#204 = CLOSED_SHELL ( 'NONE', ( #50, #77, #68, #154, #98, #73 ) ) ;
#205 = CC_DESIGN_APPROVAL ( #45, ( #238 ) ) ;
#206 = CC_DESIGN_PERSON_AND_ORGANIZATION_ASSIGNMENT ( #224, #14, ( #128 ) ) ;
#207 = DATE_AND_TIME ( #36, #63 ) ;
#208 = APPROVAL_STATUS ( 'not_yet_approved' ) ;
#209 = EDGE_CURVE ( 'NONE', #177, #102, #237, .T. ) ;
#210 = APPROVAL_PERSON_ORGANIZATION ( #57, #133, #164 ) ;
#211 = ORIENTED_EDGE ( 'NONE', *, *, #209, .F. ) ;
#212 = CC_DESIGN_PERSON_AND_ORGANIZATION_ASSIGNMENT ( #93, #188, ( #128 ) ) ;
#213 = CARTESIAN_POINT ( 'NONE',  ( 0.000000000000000000, 2.871210790848274579E-15, -23.44521532941026720 ) ) ;
#214 = ORIENTED_EDGE ( 'NONE', *, *, #52, .F. ) ;
#215 = CARTESIAN_POINT ( 'NONE',  ( 33.00000000000000000, 0.000000000000000000, 0.000000000000000000 ) ) ;
#216 = CARTESIAN_POINT ( 'NONE',  ( 33.00000000000000000, 0.000000000000000000, 0.000000000000000000 ) ) ;
#217 = DIRECTION ( 'NONE',  ( -1.000000000000000000, -0.000000000000000000, -0.000000000000000000 ) ) ;
#218 = EDGE_CURVE ( 'NONE', #99, #142, #233, .T. ) ;
#219 = LINE ( 'NONE', #220, #245 ) ;
#220 = CARTESIAN_POINT ( 'NONE',  ( 32.60532389131183351, 1.782210639793971724E-15, -14.55285426814340255 ) ) ;
#221 = LOCAL_TIME ( 12, 20, 17.00000000000000000, #72 ) ;
#222 = DATE_AND_TIME ( #243, #221 ) ;
#223 = CARTESIAN_POINT ( 'NONE',  ( 0.000000000000000000, 0.000000000000000000, 0.000000000000000000 ) ) ;
#224 = PERSON_AND_ORGANIZATION ( #158, #135 ) ;
#225 = CIRCLE ( 'NONE', #56, 14.44521532941026543 ) ;
#226 = PERSON_AND_ORGANIZATION ( #158, #135 ) ;
#227 = PRODUCT ( '3D_M2060_50-32_174121075', '3D_M2060_50-32_174121075', '', ( #40 ) ) ;
#228 = ORIENTED_EDGE ( 'NONE', *, *, #42, .T. ) ;
#229 = EDGE_CURVE ( 'NONE', #60, #41, #71, .T. ) ;
#230 = ORIENTED_EDGE ( 'NONE', *, *, #218, .T. ) ;
#231 = ORIENTED_EDGE ( 'NONE', *, *, #23, .F. ) ;
#232 = VERTEX_POINT ( 'NONE', #107 ) ;
#233 = CIRCLE ( 'NONE', #156, 14.44521532941026543 ) ;
#234 = CIRCLE ( 'NONE', #21, 16.00000000000000000 ) ;
#235 = ORIENTED_EDGE ( 'NONE', *, *, #229, .F. ) ;
#236 = DIRECTION ( 'NONE',  ( 1.000000000000000000, 0.000000000000000000, 0.000000000000000000 ) ) ;
#237 = CIRCLE ( 'NONE', #91, 16.00000000000000000 ) ;
#238 = PRODUCT_DEFINITION ( 'UNKNOWN', '', #128, #169 ) ;
#239 = DIRECTION ( 'NONE',  ( 1.000000000000000000, 0.000000000000000000, 0.000000000000000000 ) ) ;
#240 = PLANE ( 'NONE',  #100 ) ;
#241 = APPROVAL_ROLE ( '' ) ;
#242 = CC_DESIGN_SECURITY_CLASSIFICATION ( #84, ( #128 ) ) ;
#243 = CALENDAR_DATE ( 2024, 5, 9 ) ;
#244 =( NAMED_UNIT ( * ) SI_UNIT ( $, .STERADIAN. ) SOLID_ANGLE_UNIT ( ) );
#245 = VECTOR ( 'NONE', #179, 1000.000000000000114 ) ;
#246 = PERSON_AND_ORGANIZATION ( #158, #135 ) ;
#247 = UNCERTAINTY_MEASURE_WITH_UNIT (LENGTH_MEASURE( 1.000000000000000082E-05 ), #67, 'distance_accuracy_value', 'NONE');
#248 = VECTOR ( 'NONE', #66, 1000.000000000000114 ) ;
#249 = PRODUCT_RELATED_PRODUCT_CATEGORY ( 'detail', '', ( #227 ) ) ;
ENDSEC;
END-ISO-10303-21;
