ISO-10303-21;
HEADER;
FILE_DESCRIPTION (( 'STEP AP203' ),
    '1' );
FILE_NAME ('3D_M8012_DN80_17481145.STEP',
    '2024-09-03T14:14:45',
    ( '' ),
    ( '' ),
    'SwSTEP 2.0',
    'SolidWorks 2024',
    '' );
FILE_SCHEMA (( 'CONFIG_CONTROL_DESIGN' ));
ENDSEC;

DATA;
#1 = AXIS2_PLACEMENT_3D ( 'NONE', #237, #49, #80 ) ;
#2 = ADVANCED_FACE ( 'NONE', ( #74 ), #405, .F. ) ;
#3 = CARTESIAN_POINT ( 'NONE',  ( 9.797174393178826052E-15, -60.00000000000000000, 0.000000000000000000 ) ) ;
#4 = ORIENTED_EDGE ( 'NONE', *, *, #27, .F. ) ;
#5 = DIRECTION ( 'NONE',  ( 1.000000000000000000, 0.000000000000000000, 1.224646799147353207E-16 ) ) ;
#6 = DIRECTION ( 'NONE',  ( -1.000000000000000000, 4.596983092540343816E-18, 0.000000000000000000 ) ) ;
#7 = SHAPE_DEFINITION_REPRESENTATION ( #222, #248 ) ;
#8 = CIRCLE ( 'NONE', #185, 77.99999999999998579 ) ;
#9 = CARTESIAN_POINT ( 'NONE',  ( -38.90410958904109151, 9.903292176290712234, 0.000000000000000000 ) ) ;
#10 = DIRECTION ( 'NONE',  ( -1.000000000000000000, 0.000000000000000000, 0.000000000000000000 ) ) ;
#11 = DIRECTION ( 'NONE',  ( -1.224646799147353207E-16, 5.629680630014033300E-34, 1.000000000000000000 ) ) ;
#12 = DIRECTION ( 'NONE',  ( 4.596983092540343816E-18, 1.000000000000000000, -0.000000000000000000 ) ) ;
#13 = CARTESIAN_POINT ( 'NONE',  ( 40.49999999999999289, -1.861778152478839091E-16, 4.959819536546779811E-15 ) ) ;
#14 = FACE_OUTER_BOUND ( 'NONE', #404, .T. ) ;
#15 = PERSON_AND_ORGANIZATION ( #35, #257 ) ;
#16 = EDGE_LOOP ( 'NONE', ( #22, #383, #87 ) ) ;
#17 = CIRCLE ( 'NONE', #377, 6.999999999999992006 ) ;
#18 = APPROVAL_STATUS ( 'not_yet_approved' ) ;
#19 = APPROVAL ( #18, 'UNSPECIFIED' ) ;
#20 = VERTEX_POINT ( 'NONE', #132 ) ;
#21 = APPROVAL_DATE_TIME ( #240, #19 ) ;
#22 = ORIENTED_EDGE ( 'NONE', *, *, #403, .F. ) ;
#23 = APPROVAL_DATE_TIME ( #309, #382 ) ;
#24 = EDGE_LOOP ( 'NONE', ( #4, #310, #332, #340 ) ) ;
#25 = ORIENTED_EDGE ( 'NONE', *, *, #219, .F. ) ;
#26 = CIRCLE ( 'NONE', #250, 42.49999999999999289 ) ;
#27 = EDGE_CURVE ( 'NONE', #37, #111, #294, .T. ) ;
#28 = ORIENTED_EDGE ( 'NONE', *, *, #136, .T. ) ;
#29 = APPROVAL ( #213, 'UNSPECIFIED' ) ;
#30 = CARTESIAN_POINT ( 'NONE',  ( 9.410564745185055283E-16, 3.786754110865153677, 0.000000000000000000 ) ) ;
#31 = CARTESIAN_POINT ( 'NONE',  ( 9.797174393178826052E-15, -60.00000000000000000, 0.000000000000000000 ) ) ;
#32 = DIRECTION ( 'NONE',  ( -1.224646799147353207E-16, 5.629680630014033300E-34, 1.000000000000000000 ) ) ;
#33 = EDGE_CURVE ( 'NONE', #37, #272, #166, .T. ) ;
#34 = VECTOR ( 'NONE', #41, 1000.000000000000000 ) ;
#35 = PERSON ( 'UNSPECIFIED', 'UNSPECIFIED', 'UNSPECIFIED', ('UNSPECIFIED'), ('UNSPECIFIED'), ('UNSPECIFIED') ) ;
#36 = DIRECTION ( 'NONE',  ( 4.596983092540343816E-18, 1.000000000000000000, -0.000000000000000000 ) ) ;
#37 = VERTEX_POINT ( 'NONE', #259 ) ;
#38 = LOCAL_TIME ( 16, 14, 45.00000000000000000, #115 ) ;
#39 = DIRECTION ( 'NONE',  ( 0.000000000000000000, 0.000000000000000000, 1.000000000000000000 ) ) ;
#40 = CARTESIAN_POINT ( 'NONE',  ( 0.000000000000000000, 3.786754110865358403, 0.000000000000000000 ) ) ;
#41 = DIRECTION ( 'NONE',  ( 4.596983092540343816E-18, 1.000000000000000000, -0.000000000000000000 ) ) ;
#42 = DIRECTION ( 'NONE',  ( 4.596983092540343816E-18, 1.000000000000000000, -0.000000000000000000 ) ) ;
#43 = AXIS2_PLACEMENT_3D ( 'NONE', #407, #39, #252 ) ;
#44 = FACE_OUTER_BOUND ( 'NONE', #373, .T. ) ;
#45 = DIRECTION ( 'NONE',  ( 4.596983092540343816E-18, 1.000000000000000000, -0.000000000000000000 ) ) ;
#46 =( GEOMETRIC_REPRESENTATION_CONTEXT ( 3 ) GLOBAL_UNCERTAINTY_ASSIGNED_CONTEXT ( ( #212 ) ) GLOBAL_UNIT_ASSIGNED_CONTEXT ( ( #137, #334, #196 ) ) REPRESENTATION_CONTEXT ( 'NONE', 'WORKASPACE' ) );
#47 = CARTESIAN_POINT ( 'NONE',  ( -37.93150684931509886, 8.155709871883507489, 0.000000000000000000 ) ) ;
#48 = CARTESIAN_POINT ( 'NONE',  ( 40.50000000000000711, 2817.965330118411202, 4.959819536546779811E-15 ) ) ;
#49 = DIRECTION ( 'NONE',  ( 0.000000000000000000, 0.000000000000000000, 1.000000000000000000 ) ) ;
#50 = CARTESIAN_POINT ( 'NONE',  ( 9.797174393178826052E-15, -60.00000000000000000, 0.000000000000000000 ) ) ;
#51 = EDGE_LOOP ( 'NONE', ( #308, #102 ) ) ;
#52 = CC_DESIGN_PERSON_AND_ORGANIZATION_ASSIGNMENT ( #304, #56, ( #345 ) ) ;
#53 = PERSON_AND_ORGANIZATION ( #35, #257 ) ;
#54 = VERTEX_POINT ( 'NONE', #389 ) ;
#55 = AXIS2_PLACEMENT_3D ( 'NONE', #217, #224, #342 ) ;
#56 = PERSON_AND_ORGANIZATION_ROLE ( 'design_owner' ) ;
#57 = ORIENTED_EDGE ( 'NONE', *, *, #108, .T. ) ;
#58 = ORIENTED_EDGE ( 'NONE', *, *, #181, .T. ) ;
#59 = EDGE_LOOP ( 'NONE', ( #70, #366, #182, #25 ) ) ;
#60 = EDGE_CURVE ( 'NONE', #20, #111, #261, .T. ) ;
#61 = AXIS2_PLACEMENT_3D ( 'NONE', #156, #189, #190 ) ;
#62 = ORIENTED_EDGE ( 'NONE', *, *, #247, .F. ) ;
#63 = AXIS2_PLACEMENT_3D ( 'NONE', #197, #77, #161 ) ;
#64 = CC_DESIGN_PERSON_AND_ORGANIZATION_ASSIGNMENT ( #145, #204, ( #92 ) ) ;
#65 = DIRECTION ( 'NONE',  ( -1.000000000000000000, 0.000000000000000000, 0.000000000000000000 ) ) ;
#66 = AXIS2_PLACEMENT_3D ( 'NONE', #301, #330, #298 ) ;
#67 = DIRECTION ( 'NONE',  ( 0.000000000000000000, 0.000000000000000000, 1.000000000000000000 ) ) ;
#68 = CC_DESIGN_APPROVAL ( #382, ( #358 ) ) ;
#69 = DIRECTION ( 'NONE',  ( 4.596983092540343816E-18, 1.000000000000000000, -0.000000000000000000 ) ) ;
#70 = ORIENTED_EDGE ( 'NONE', *, *, #295, .F. ) ;
#71 = LINE ( 'NONE', #227, #107 ) ;
#72 = AXIS2_PLACEMENT_3D ( 'NONE', #205, #81, #76 ) ;
#73 = SPHERICAL_SURFACE ( 'NONE', #283, 77.99999999999998579 ) ;
#74 = FACE_OUTER_BOUND ( 'NONE', #208, .T. ) ;
#75 = EDGE_CURVE ( 'NONE', #409, #82, #282, .T. ) ;
#76 = DIRECTION ( 'NONE',  ( -1.000000000000000000, 0.000000000000000000, 0.000000000000000000 ) ) ;
#77 = DIRECTION ( 'NONE',  ( 4.596983092540343816E-18, 1.000000000000000000, -0.000000000000000000 ) ) ;
#78 = LINE ( 'NONE', #134, #34 ) ;
#79 = FACE_OUTER_BOUND ( 'NONE', #59, .T. ) ;
#80 = DIRECTION ( 'NONE',  ( 1.000000000000000000, 0.000000000000000000, 0.000000000000000000 ) ) ;
#81 = DIRECTION ( 'NONE',  ( -0.000000000000000000, 0.000000000000000000, -1.000000000000000000 ) ) ;
#82 = VERTEX_POINT ( 'NONE', #232 ) ;
#83 = ADVANCED_FACE ( 'NONE', ( #165 ), #100, .T. ) ;
#84 = APPROVAL_STATUS ( 'not_yet_approved' ) ;
#85 = ORIENTED_EDGE ( 'NONE', *, *, #215, .F. ) ;
#86 = PERSON_AND_ORGANIZATION_ROLE ( 'creator' ) ;
#87 = ORIENTED_EDGE ( 'NONE', *, *, #75, .T. ) ;
#88 = DATE_TIME_ROLE ( 'classification_date' ) ;
#89 = ORIENTED_EDGE ( 'NONE', *, *, #303, .T. ) ;
#90 = EDGE_CURVE ( 'NONE', #392, #409, #126, .T. ) ;
#91 = TOROIDAL_SURFACE ( 'NONE', #375, 35.50000000000000000, 4.999999999999990230 ) ;
#92 = SECURITY_CLASSIFICATION ( '', '', #371 ) ;
#93 = ADVANCED_FACE ( 'NONE', ( #266 ), #360, .T. ) ;
#94 = CARTESIAN_POINT ( 'NONE',  ( -4.490603880034128947E-34, -9.768589071648229222E-17, 0.000000000000000000 ) ) ;
#95 = CIRCLE ( 'NONE', #351, 37.93150684931510597 ) ;
#96 = ADVANCED_FACE ( 'NONE', ( #79 ), #385, .T. ) ;
#97 = CARTESIAN_POINT ( 'NONE',  ( 1.011048503911995944E-14, 8.155709871883507489, 0.000000000000000000 ) ) ;
#98 = LOCAL_TIME ( 16, 14, 45.00000000000000000, #177 ) ;
#99 = CARTESIAN_POINT ( 'NONE',  ( 37.93150684931511307, 8.155709871883507489, 4.802544690765872788E-15 ) ) ;
#100 = TOROIDAL_SURFACE ( 'NONE', #154, 35.50000000000000000, 6.999999999999990230 ) ;
#101 = DIRECTION ( 'NONE',  ( 4.596983092540343816E-18, 1.000000000000000000, -0.000000000000000000 ) ) ;
#102 = ORIENTED_EDGE ( 'NONE', *, *, #186, .F. ) ;
#103 = FACE_OUTER_BOUND ( 'NONE', #24, .T. ) ;
#104 = DIRECTION ( 'NONE',  ( -1.000000000000000000, 0.000000000000000000, 0.000000000000000000 ) ) ;
#105 = DIRECTION ( 'NONE',  ( 4.596983092540343816E-18, 1.000000000000000000, -0.000000000000000000 ) ) ;
#106 = DIRECTION ( 'NONE',  ( -1.000000000000000000, 4.596983092540343816E-18, 0.000000000000000000 ) ) ;
#107 = VECTOR ( 'NONE', #101, 1000.000000000000000 ) ;
#108 = EDGE_CURVE ( 'NONE', #111, #37, #320, .T. ) ;
#109 = DIRECTION ( 'NONE',  ( 4.596983092540343816E-18, 1.000000000000000000, -0.000000000000000000 ) ) ;
#110 = ORIENTED_EDGE ( 'NONE', *, *, #108, .F. ) ;
#111 = VERTEX_POINT ( 'NONE', #133 ) ;
#112 = PERSON_AND_ORGANIZATION ( #35, #257 ) ;
#113 = AXIS2_PLACEMENT_3D ( 'NONE', #228, #291, #352 ) ;
#114 = EDGE_LOOP ( 'NONE', ( #279, #214, #85, #314 ) ) ;
#115 = COORDINATED_UNIVERSAL_TIME_OFFSET ( 1, 0, .AHEAD. ) ;
#116 = AXIS2_PLACEMENT_3D ( 'NONE', #172, #11, #359 ) ;
#117 = ORIENTED_EDGE ( 'NONE', *, *, #192, .F. ) ;
#118 = APPROVAL_PERSON_ORGANIZATION ( #210, #29, #339 ) ;
#119 = ORIENTED_EDGE ( 'NONE', *, *, #219, .T. ) ;
#120 = CIRCLE ( 'NONE', #220, 42.49999999999998579 ) ;
#121 = DIRECTION ( 'NONE',  ( -1.000000000000000000, 0.000000000000000000, 0.000000000000000000 ) ) ;
#122 = EDGE_CURVE ( 'NONE', #401, #20, #140, .T. ) ;
#123 = FACE_OUTER_BOUND ( 'NONE', #51, .T. ) ;
#124 = AXIS2_PLACEMENT_3D ( 'NONE', #253, #67, #378 ) ;
#125 = DIRECTION ( 'NONE',  ( -1.000000000000000000, 0.000000000000000000, 0.000000000000000000 ) ) ;
#126 = CIRCLE ( 'NONE', #365, 38.90410958904109151 ) ;
#127 = DIRECTION ( 'NONE',  ( -0.000000000000000000, 0.000000000000000000, -1.000000000000000000 ) ) ;
#128 = DIRECTION ( 'NONE',  ( 1.000000000000000000, 0.000000000000000000, 1.224646799147352961E-16 ) ) ;
#129 = CLOSED_SHELL ( 'NONE', ( #369, #325, #153, #251, #83, #93, #242, #96, #353, #225, #157, #2, #233 ) ) ;
#130 = FACE_OUTER_BOUND ( 'NONE', #223, .T. ) ;
#131 = EDGE_CURVE ( 'NONE', #54, #239, #26, .T. ) ;
#132 = CARTESIAN_POINT ( 'NONE',  ( -40.49999999999999289, 1.861778152478839091E-16, 0.000000000000000000 ) ) ;
#133 = CARTESIAN_POINT ( 'NONE',  ( -40.49999999999998579, 3.786754110865212297, 0.000000000000000000 ) ) ;
#134 = CARTESIAN_POINT ( 'NONE',  ( -42.49999999999998579, 2817.965330118411202, 0.000000000000000000 ) ) ;
#135 = DIRECTION ( 'NONE',  ( -1.000000000000000000, 0.000000000000000000, 0.000000000000000000 ) ) ;
#136 = EDGE_CURVE ( 'NONE', #401, #37, #331, .T. ) ;
#137 =( LENGTH_UNIT ( ) NAMED_UNIT ( * ) SI_UNIT ( .MILLI., .METRE. ) );
#138 = CYLINDRICAL_SURFACE ( 'NONE', #254, 40.49999999999999289 ) ;
#139 = DATE_AND_TIME ( #311, #187 ) ;
#140 = CIRCLE ( 'NONE', #329, 40.49999999999999289 ) ;
#141 = ORIENTED_EDGE ( 'NONE', *, *, #215, .T. ) ;
#142 = DATE_AND_TIME ( #307, #98 ) ;
#143 = LOCAL_TIME ( 16, 14, 45.00000000000000000, #333 ) ;
#144 = ORIENTED_EDGE ( 'NONE', *, *, #171, .F. ) ;
#145 = PERSON_AND_ORGANIZATION ( #35, #257 ) ;
#146 = AXIS2_PLACEMENT_3D ( 'NONE', #388, #355, #386 ) ;
#147 = VERTEX_POINT ( 'NONE', #173 ) ;
#148 = DATE_TIME_ROLE ( 'creation_date' ) ;
#149 = AXIS2_PLACEMENT_3D ( 'NONE', #296, #45, #10 ) ;
#150 = ORIENTED_EDGE ( 'NONE', *, *, #60, .F. ) ;
#151 = EDGE_LOOP ( 'NONE', ( #141, #277, #338, #162 ) ) ;
#152 = APPLICATION_CONTEXT ( 'configuration controlled 3d designs of mechanical parts and assemblies' ) ;
#153 = ADVANCED_FACE ( 'NONE', ( #14 ), #138, .F. ) ;
#154 = AXIS2_PLACEMENT_3D ( 'NONE', #40, #302, #6 ) ;
#155 = DIRECTION ( 'NONE',  ( -1.000000000000000000, 4.596983092540343816E-18, 0.000000000000000000 ) ) ;
#156 = CARTESIAN_POINT ( 'NONE',  ( 9.410564745185055283E-16, 3.786754110865153677, 0.000000000000000000 ) ) ;
#157 = ADVANCED_FACE ( 'NONE', ( #384 ), #318, .F. ) ;
#158 = CARTESIAN_POINT ( 'NONE',  ( -35.50000000000000000, 3.786754110865358403, 0.000000000000000000 ) ) ;
#159 = CIRCLE ( 'NONE', #289, 38.90410958904109151 ) ;
#160 = DIRECTION ( 'NONE',  ( -4.596983092540343816E-18, -1.000000000000000000, 0.000000000000000000 ) ) ;
#161 = DIRECTION ( 'NONE',  ( -1.000000000000000000, 4.596983092540343816E-18, 0.000000000000000000 ) ) ;
#162 = ORIENTED_EDGE ( 'NONE', *, *, #181, .F. ) ;
#163 = CC_DESIGN_DATE_AND_TIME_ASSIGNMENT ( #139, #148, ( #358 ) ) ;
#164 = CARTESIAN_POINT ( 'NONE',  ( 9.236488298952508525E-16, 0.000000000000000000, 0.000000000000000000 ) ) ;
#165 = FACE_OUTER_BOUND ( 'NONE', #151, .T. ) ;
#166 = CIRCLE ( 'NONE', #396, 4.999999999999990230 ) ;
#167 = CALENDAR_DATE ( 2024, 3, 9 ) ;
#168 = DIRECTION ( 'NONE',  ( -1.000000000000000000, 0.000000000000000000, 0.000000000000000000 ) ) ;
#169 = CIRCLE ( 'NONE', #313, 42.49999999999999289 ) ;
#170 = DIRECTION ( 'NONE',  ( 4.596983092540343816E-18, 1.000000000000000000, -0.000000000000000000 ) ) ;
#171 = EDGE_CURVE ( 'NONE', #20, #401, #306, .T. ) ;
#172 = CARTESIAN_POINT ( 'NONE',  ( 9.797174393178826052E-15, -60.00000000000000000, 0.000000000000000000 ) ) ;
#173 = CARTESIAN_POINT ( 'NONE',  ( -42.49999999999998579, 3.786754110865153677, 0.000000000000000000 ) ) ;
#174 = APPLICATION_CONTEXT ( 'configuration controlled 3d designs of mechanical parts and assemblies' ) ;
#175 = MECHANICAL_CONTEXT ( 'NONE', #152, 'mechanical' ) ;
#176 = ORIENTED_EDGE ( 'NONE', *, *, #341, .T. ) ;
#177 = COORDINATED_UNIVERSAL_TIME_OFFSET ( 1, 0, .AHEAD. ) ;
#178 = AXIS2_PLACEMENT_3D ( 'NONE', #387, #198, #328 ) ;
#179 = ORIENTED_EDGE ( 'NONE', *, *, #255, .F. ) ;
#180 = APPROVAL_ROLE ( '' ) ;
#181 = EDGE_CURVE ( 'NONE', #147, #409, #17, .T. ) ;
#182 = ORIENTED_EDGE ( 'NONE', *, *, #317, .T. ) ;
#183 = PERSON_AND_ORGANIZATION ( #35, #257 ) ;
#184 = ORIENTED_EDGE ( 'NONE', *, *, #171, .T. ) ;
#185 = AXIS2_PLACEMENT_3D ( 'NONE', #221, #32, #5 ) ;
#186 = EDGE_CURVE ( 'NONE', #239, #54, #169, .T. ) ;
#187 = LOCAL_TIME ( 16, 14, 45.00000000000000000, #397 ) ;
#188 = CARTESIAN_POINT ( 'NONE',  ( 1.387778780781445676E-14, 2817.965330118411202, 0.000000000000000000 ) ) ;
#189 = DIRECTION ( 'NONE',  ( 4.596983092540343816E-18, 1.000000000000000000, -0.000000000000000000 ) ) ;
#190 = DIRECTION ( 'NONE',  ( -1.000000000000000000, 0.000000000000000000, 0.000000000000000000 ) ) ;
#191 = CIRCLE ( 'NONE', #72, 4.999999999999990230 ) ;
#192 = EDGE_CURVE ( 'NONE', #272, #364, #216, .T. ) ;
#193 = DIRECTION ( 'NONE',  ( 1.000000000000000000, -4.596983092540344586E-18, 0.000000000000000000 ) ) ;
#194 = CARTESIAN_POINT ( 'NONE',  ( 9.797174393178826052E-15, -60.00000000000000000, 0.000000000000000000 ) ) ;
#195 = APPROVAL_PERSON_ORGANIZATION ( #15, #19, #180 ) ;
#196 =( NAMED_UNIT ( * ) SI_UNIT ( $, .STERADIAN. ) SOLID_ANGLE_UNIT ( ) );
#197 = CARTESIAN_POINT ( 'NONE',  ( 0.000000000000000000, 3.786754110865358403, 0.000000000000000000 ) ) ;
#198 = DIRECTION ( 'NONE',  ( 4.596983092540343816E-18, 1.000000000000000000, -0.000000000000000000 ) ) ;
#199 = CARTESIAN_POINT ( 'NONE',  ( 9.236488298952508525E-16, 0.000000000000000000, 0.000000000000000000 ) ) ;
#200 = MANIFOLD_SOLID_BREP ( 'Wandung1', #129 ) ;
#201 = AXIS2_PLACEMENT_3D ( 'NONE', #94, #160, #381 ) ;
#202 = CARTESIAN_POINT ( 'NONE',  ( 0.000000000000000000, 3.786754110865358403, 0.000000000000000000 ) ) ;
#203 = DIRECTION ( 'NONE',  ( 4.596983092540343816E-18, 1.000000000000000000, -0.000000000000000000 ) ) ;
#204 = PERSON_AND_ORGANIZATION_ROLE ( 'classification_officer' ) ;
#205 = CARTESIAN_POINT ( 'NONE',  ( -35.50000000000000000, 3.786754110865358403, 0.000000000000000000 ) ) ;
#206 = ORIENTED_EDGE ( 'NONE', *, *, #122, .F. ) ;
#207 = ORIENTED_EDGE ( 'NONE', *, *, #75, .F. ) ;
#208 = EDGE_LOOP ( 'NONE', ( #246, #110, #176, #226 ) ) ;
#209 = CC_DESIGN_PERSON_AND_ORGANIZATION_ASSIGNMENT ( #112, #245, ( #300 ) ) ;
#210 = PERSON_AND_ORGANIZATION ( #35, #257 ) ;
#211 = ORIENTED_EDGE ( 'NONE', *, *, #247, .T. ) ;
#212 = UNCERTAINTY_MEASURE_WITH_UNIT (LENGTH_MEASURE( 1.000000000000000082E-05 ), #137, 'distance_accuracy_value', 'NONE');
#213 = APPROVAL_STATUS ( 'not_yet_approved' ) ;
#214 = ORIENTED_EDGE ( 'NONE', *, *, #295, .T. ) ;
#215 = EDGE_CURVE ( 'NONE', #147, #372, #400, .T. ) ;
#216 = CIRCLE ( 'NONE', #55, 37.93150684931510597 ) ;
#217 = CARTESIAN_POINT ( 'NONE',  ( 1.011048503911995944E-14, 8.155709871883507489, 0.000000000000000000 ) ) ;
#218 = AXIS2_PLACEMENT_3D ( 'NONE', #194, #323, #135 ) ;
#219 = EDGE_CURVE ( 'NONE', #372, #147, #120, .T. ) ;
#220 = AXIS2_PLACEMENT_3D ( 'NONE', #30, #260, #125 ) ;
#221 = CARTESIAN_POINT ( 'NONE',  ( 9.797174393178826052E-15, -60.00000000000000000, 0.000000000000000000 ) ) ;
#222 = PRODUCT_DEFINITION_SHAPE ( 'NONE', 'NONE',  #358 ) ;
#223 = EDGE_LOOP ( 'NONE', ( #305, #349, #207 ) ) ;
#224 = DIRECTION ( 'NONE',  ( 4.596983092540343816E-18, 1.000000000000000000, -0.000000000000000000 ) ) ;
#225 = ADVANCED_FACE ( 'NONE', ( #316 ), #321, .T. ) ;
#226 = ORIENTED_EDGE ( 'NONE', *, *, #255, .T. ) ;
#227 = CARTESIAN_POINT ( 'NONE',  ( 42.50000000000000711, 2817.965330118411202, 5.204748896376250107E-15 ) ) ;
#228 = CARTESIAN_POINT ( 'NONE',  ( -6.714944492579854587E-31, 3.786754110865212297, 0.000000000000000000 ) ) ;
#229 = TOROIDAL_SURFACE ( 'NONE', #178, 35.50000000000000000, 6.999999999999990230 ) ;
#230 = DIRECTION ( 'NONE',  ( -1.224646799147353207E-16, 5.629680630014033300E-34, 1.000000000000000000 ) ) ;
#231 = DIRECTION ( 'NONE',  ( -1.000000000000000000, 0.000000000000000000, 0.000000000000000000 ) ) ;
#232 = CARTESIAN_POINT ( 'NONE',  ( 5.266345843992641221E-15, 19.99999999999998934, 0.000000000000000000 ) ) ;
#233 = ADVANCED_FACE ( 'NONE', ( #285 ), #292, .F. ) ;
#234 = DIRECTION ( 'NONE',  ( 0.000000000000000000, 0.000000000000000000, 1.000000000000000000 ) ) ;
#235 = CARTESIAN_POINT ( 'NONE',  ( 9.691740965901473371E-16, 9.903292176290712234, 0.000000000000000000 ) ) ;
#236 = AXIS2_PLACEMENT_3D ( 'NONE', #164, #36, #193 ) ;
#237 = CARTESIAN_POINT ( 'NONE',  ( 0.000000000000000000, 0.000000000000000000, 0.000000000000000000 ) ) ;
#238 = DIRECTION ( 'NONE',  ( -1.000000000000000000, 0.000000000000000000, 0.000000000000000000 ) ) ;
#239 = VERTEX_POINT ( 'NONE', #286 ) ;
#240 = DATE_AND_TIME ( #276, #322 ) ;
#241 = ORIENTED_EDGE ( 'NONE', *, *, #60, .T. ) ;
#242 = ADVANCED_FACE ( 'NONE', ( #319, #123 ), #256, .T. ) ;
#243 = EDGE_LOOP ( 'NONE', ( #312, #119, #58, #363 ) ) ;
#244 = CIRCLE ( 'NONE', #66, 6.999999999999992006 ) ;
#245 = PERSON_AND_ORGANIZATION_ROLE ( 'design_supplier' ) ;
#246 = ORIENTED_EDGE ( 'NONE', *, *, #33, .F. ) ;
#247 = EDGE_CURVE ( 'NONE', #272, #275, #8, .T. ) ;
#248 = ADVANCED_BREP_SHAPE_REPRESENTATION ( '3D_M8012_DN80_17481145', ( #200, #1 ), #46 ) ;
#249 = EDGE_LOOP ( 'NONE', ( #184, #337 ) ) ;
#250 = AXIS2_PLACEMENT_3D ( 'NONE', #199, #203, #106 ) ;
#251 = ADVANCED_FACE ( 'NONE', ( #130 ), #343, .T. ) ;
#252 = DIRECTION ( 'NONE',  ( -1.000000000000000000, 0.000000000000000000, 0.000000000000000000 ) ) ;
#253 = CARTESIAN_POINT ( 'NONE',  ( 9.797174393178826052E-15, -60.00000000000000000, 0.000000000000000000 ) ) ;
#254 = AXIS2_PLACEMENT_3D ( 'NONE', #268, #109, #238 ) ;
#255 = EDGE_CURVE ( 'NONE', #364, #272, #95, .T. ) ;
#256 = PLANE ( 'NONE',  #201 ) ;
#257 = ORGANIZATION ( 'UNSPECIFIED', 'UNSPECIFIED', '' ) ;
#258 = DIRECTION ( 'NONE',  ( 0.000000000000000000, 0.000000000000000000, 1.000000000000000000 ) ) ;
#259 = CARTESIAN_POINT ( 'NONE',  ( 40.49999999999998579, 3.786754110865212297, 4.959819536546779022E-15 ) ) ;
#260 = DIRECTION ( 'NONE',  ( 4.596983092540343816E-18, 1.000000000000000000, -0.000000000000000000 ) ) ;
#261 = LINE ( 'NONE', #293, #380 ) ;
#262 = DIRECTION ( 'NONE',  ( 4.596983092540343816E-18, 1.000000000000000000, -0.000000000000000000 ) ) ;
#263 = CARTESIAN_POINT ( 'NONE',  ( 9.236488298952508525E-16, 0.000000000000000000, 0.000000000000000000 ) ) ;
#264 = CC_DESIGN_PERSON_AND_ORGANIZATION_ASSIGNMENT ( #393, #367, ( #358 ) ) ;
#265 = FACE_OUTER_BOUND ( 'NONE', #243, .T. ) ;
#266 = FACE_OUTER_BOUND ( 'NONE', #114, .T. ) ;
#267 = CARTESIAN_POINT ( 'NONE',  ( 42.49999999999998579, 3.786754110865153677, 5.204748896376249319E-15 ) ) ;
#268 = CARTESIAN_POINT ( 'NONE',  ( 1.387778780781445676E-14, 2817.965330118411202, 0.000000000000000000 ) ) ;
#269 = AXIS2_PLACEMENT_3D ( 'NONE', #3, #350, #356 ) ;
#270 = APPLICATION_PROTOCOL_DEFINITION ( 'international standard', 'config_control_design', 1994, #152 ) ;
#271 = EDGE_CURVE ( 'NONE', #409, #392, #159, .T. ) ;
#272 = VERTEX_POINT ( 'NONE', #99 ) ;
#273 = CC_DESIGN_APPROVAL ( #19, ( #300 ) ) ;
#274 = CALENDAR_DATE ( 2024, 3, 9 ) ;
#275 = VERTEX_POINT ( 'NONE', #348 ) ;
#276 = CALENDAR_DATE ( 2024, 3, 9 ) ;
#277 = ORIENTED_EDGE ( 'NONE', *, *, #374, .T. ) ;
#278 = AXIS2_PLACEMENT_3D ( 'NONE', #31, #258, #65 ) ;
#279 = ORIENTED_EDGE ( 'NONE', *, *, #131, .T. ) ;
#280 = ORIENTED_EDGE ( 'NONE', *, *, #27, .T. ) ;
#281 = APPROVAL_PERSON_ORGANIZATION ( #183, #382, #336 ) ;
#282 = CIRCLE ( 'NONE', #218, 79.99999999999998579 ) ;
#283 = AXIS2_PLACEMENT_3D ( 'NONE', #50, #234, #231 ) ;
#284 = CC_DESIGN_PERSON_AND_ORGANIZATION_ASSIGNMENT ( #53, #86, ( #300 ) ) ;
#285 = FACE_OUTER_BOUND ( 'NONE', #398, .T. ) ;
#286 = CARTESIAN_POINT ( 'NONE',  ( 42.49999999999999289, -1.953717814329645844E-16, 5.204748896376250107E-15 ) ) ;
#287 = CC_DESIGN_DATE_AND_TIME_ASSIGNMENT ( #142, #88, ( #92 ) ) ;
#288 = CARTESIAN_POINT ( 'NONE',  ( 9.691740965901473371E-16, 9.903292176290712234, 0.000000000000000000 ) ) ;
#289 = AXIS2_PLACEMENT_3D ( 'NONE', #288, #411, #379 ) ;
#290 = DIRECTION ( 'NONE',  ( -1.000000000000000000, 0.000000000000000000, 0.000000000000000000 ) ) ;
#291 = DIRECTION ( 'NONE',  ( 4.596983092540343816E-18, 1.000000000000000000, -0.000000000000000000 ) ) ;
#292 = SPHERICAL_SURFACE ( 'NONE', #43, 77.99999999999998579 ) ;
#293 = CARTESIAN_POINT ( 'NONE',  ( -40.49999999999997868, 2817.965330118411202, 0.000000000000000000 ) ) ;
#294 = CIRCLE ( 'NONE', #113, 40.49999999999998579 ) ;
#295 = EDGE_CURVE ( 'NONE', #239, #372, #71, .T. ) ;
#296 = CARTESIAN_POINT ( 'NONE',  ( -6.714944492579854587E-31, 3.786754110865212297, 0.000000000000000000 ) ) ;
#297 = CIRCLE ( 'NONE', #116, 79.99999999999998579 ) ;
#298 = DIRECTION ( 'NONE',  ( 1.000000000000000000, 0.000000000000000000, 1.224646799147352961E-16 ) ) ;
#299 = DIRECTION ( 'NONE',  ( 4.596983092540343816E-18, 1.000000000000000000, -0.000000000000000000 ) ) ;
#300 = PRODUCT_DEFINITION_FORMATION_WITH_SPECIFIED_SOURCE ( 'ANY', '', #345, .NOT_KNOWN. ) ;
#301 = CARTESIAN_POINT ( 'NONE',  ( 35.50000000000000000, 3.786754110865358403, 4.347496136973103281E-15 ) ) ;
#302 = DIRECTION ( 'NONE',  ( 4.596983092540343816E-18, 1.000000000000000000, -0.000000000000000000 ) ) ;
#303 = EDGE_CURVE ( 'NONE', #364, #275, #390, .T. ) ;
#304 = PERSON_AND_ORGANIZATION ( #35, #257 ) ;
#305 = ORIENTED_EDGE ( 'NONE', *, *, #271, .T. ) ;
#306 = CIRCLE ( 'NONE', #236, 40.49999999999999289 ) ;
#307 = CALENDAR_DATE ( 2024, 3, 9 ) ;
#308 = ORIENTED_EDGE ( 'NONE', *, *, #131, .F. ) ;
#309 = DATE_AND_TIME ( #274, #38 ) ;
#310 = ORIENTED_EDGE ( 'NONE', *, *, #33, .T. ) ;
#311 = CALENDAR_DATE ( 2024, 3, 9 ) ;
#312 = ORIENTED_EDGE ( 'NONE', *, *, #374, .F. ) ;
#313 = AXIS2_PLACEMENT_3D ( 'NONE', #376, #346, #155 ) ;
#314 = ORIENTED_EDGE ( 'NONE', *, *, #317, .F. ) ;
#315 = DIRECTION ( 'NONE',  ( 4.596983092540343816E-18, 1.000000000000000000, -0.000000000000000000 ) ) ;
#316 = FACE_OUTER_BOUND ( 'NONE', #16, .T. ) ;
#317 = EDGE_CURVE ( 'NONE', #54, #147, #78, .T. ) ;
#318 = CYLINDRICAL_SURFACE ( 'NONE', #406, 40.49999999999999289 ) ;
#319 = FACE_BOUND ( 'NONE', #249, .T. ) ;
#320 = CIRCLE ( 'NONE', #149, 40.49999999999998579 ) ;
#321 = SPHERICAL_SURFACE ( 'NONE', #278, 79.99999999999998579 ) ;
#322 = LOCAL_TIME ( 16, 14, 45.00000000000000000, #391 ) ;
#323 = DIRECTION ( 'NONE',  ( -0.000000000000000000, 0.000000000000000000, -1.000000000000000000 ) ) ;
#324 = APPROVAL_DATE_TIME ( #347, #29 ) ;
#325 = ADVANCED_FACE ( 'NONE', ( #103 ), #91, .F. ) ;
#326 = DIRECTION ( 'NONE',  ( -1.000000000000000000, 4.596983092540343816E-18, 0.000000000000000000 ) ) ;
#327 = CARTESIAN_POINT ( 'NONE',  ( 1.387778780781445676E-14, 2817.965330118411202, 0.000000000000000000 ) ) ;
#328 = DIRECTION ( 'NONE',  ( -1.000000000000000000, 4.596983092540343816E-18, 0.000000000000000000 ) ) ;
#329 = AXIS2_PLACEMENT_3D ( 'NONE', #263, #105, #357 ) ;
#330 = DIRECTION ( 'NONE',  ( -1.224646799147353207E-16, 5.629680630014033300E-34, 1.000000000000000000 ) ) ;
#331 = LINE ( 'NONE', #48, #361 ) ;
#332 = ORIENTED_EDGE ( 'NONE', *, *, #192, .T. ) ;
#333 = COORDINATED_UNIVERSAL_TIME_OFFSET ( 1, 0, .AHEAD. ) ;
#334 =( NAMED_UNIT ( * ) PLANE_ANGLE_UNIT ( ) SI_UNIT ( $, .RADIAN. ) );
#335 = CARTESIAN_POINT ( 'NONE',  ( 35.50000000000000000, 3.786754110865358403, 4.347496136973103281E-15 ) ) ;
#336 = APPROVAL_ROLE ( '' ) ;
#337 = ORIENTED_EDGE ( 'NONE', *, *, #122, .T. ) ;
#338 = ORIENTED_EDGE ( 'NONE', *, *, #271, .F. ) ;
#339 = APPROVAL_ROLE ( '' ) ;
#340 = ORIENTED_EDGE ( 'NONE', *, *, #341, .F. ) ;
#341 = EDGE_CURVE ( 'NONE', #111, #364, #191, .T. ) ;
#342 = DIRECTION ( 'NONE',  ( -1.000000000000000000, 0.000000000000000000, 0.000000000000000000 ) ) ;
#343 = SPHERICAL_SURFACE ( 'NONE', #124, 79.99999999999998579 ) ;
#344 = CC_DESIGN_APPROVAL ( #29, ( #92 ) ) ;
#345 = PRODUCT ( '3D_M8012_DN80_17481145', '3D_M8012_DN80_17481145', '', ( #175 ) ) ;
#346 = DIRECTION ( 'NONE',  ( 4.596983092540343816E-18, 1.000000000000000000, -0.000000000000000000 ) ) ;
#347 = DATE_AND_TIME ( #167, #143 ) ;
#348 = CARTESIAN_POINT ( 'NONE',  ( 5.379616557722296138E-15, 17.99999999999998934, 0.000000000000000000 ) ) ;
#349 = ORIENTED_EDGE ( 'NONE', *, *, #403, .T. ) ;
#350 = DIRECTION ( 'NONE',  ( -0.000000000000000000, 0.000000000000000000, -1.000000000000000000 ) ) ;
#351 = AXIS2_PLACEMENT_3D ( 'NONE', #97, #69, #290 ) ;
#352 = DIRECTION ( 'NONE',  ( -1.000000000000000000, 0.000000000000000000, 0.000000000000000000 ) ) ;
#353 = ADVANCED_FACE ( 'NONE', ( #265 ), #229, .T. ) ;
#354 = CARTESIAN_POINT ( 'NONE',  ( 38.90410958904109151, 9.903292176290712234, 4.984564112282975227E-15 ) ) ;
#355 = DIRECTION ( 'NONE',  ( 4.596983092540343816E-18, 1.000000000000000000, -0.000000000000000000 ) ) ;
#356 = DIRECTION ( 'NONE',  ( -1.000000000000000000, 0.000000000000000000, 0.000000000000000000 ) ) ;
#357 = DIRECTION ( 'NONE',  ( 1.000000000000000000, -4.596983092540344586E-18, 0.000000000000000000 ) ) ;
#358 = PRODUCT_DEFINITION ( 'UNKNOWN', '', #300, #399 ) ;
#359 = DIRECTION ( 'NONE',  ( 1.000000000000000000, 0.000000000000000000, 1.224646799147353207E-16 ) ) ;
#360 = CYLINDRICAL_SURFACE ( 'NONE', #146, 42.49999999999999289 ) ;
#361 = VECTOR ( 'NONE', #170, 1000.000000000000000 ) ;
#362 = APPLICATION_PROTOCOL_DEFINITION ( 'international standard', 'config_control_design', 1994, #174 ) ;
#363 = ORIENTED_EDGE ( 'NONE', *, *, #90, .F. ) ;
#364 = VERTEX_POINT ( 'NONE', #47 ) ;
#365 = AXIS2_PLACEMENT_3D ( 'NONE', #235, #12, #104 ) ;
#366 = ORIENTED_EDGE ( 'NONE', *, *, #186, .T. ) ;
#367 = PERSON_AND_ORGANIZATION_ROLE ( 'creator' ) ;
#368 = EDGE_LOOP ( 'NONE', ( #370, #144, #241, #57 ) ) ;
#369 = ADVANCED_FACE ( 'NONE', ( #44 ), #73, .F. ) ;
#370 = ORIENTED_EDGE ( 'NONE', *, *, #136, .F. ) ;
#371 = SECURITY_CLASSIFICATION_LEVEL ( 'unclassified' ) ;
#372 = VERTEX_POINT ( 'NONE', #267 ) ;
#373 = EDGE_LOOP ( 'NONE', ( #117, #211, #394 ) ) ;
#374 = EDGE_CURVE ( 'NONE', #372, #392, #244, .T. ) ;
#375 = AXIS2_PLACEMENT_3D ( 'NONE', #202, #262, #326 ) ;
#376 = CARTESIAN_POINT ( 'NONE',  ( 9.236488298952508525E-16, 0.000000000000000000, 0.000000000000000000 ) ) ;
#377 = AXIS2_PLACEMENT_3D ( 'NONE', #158, #127, #121 ) ;
#378 = DIRECTION ( 'NONE',  ( -1.000000000000000000, 0.000000000000000000, 0.000000000000000000 ) ) ;
#379 = DIRECTION ( 'NONE',  ( -1.000000000000000000, 0.000000000000000000, 0.000000000000000000 ) ) ;
#380 = VECTOR ( 'NONE', #299, 1000.000000000000000 ) ;
#381 = DIRECTION ( 'NONE',  ( 1.000000000000000000, -4.596983092540343816E-18, 0.000000000000000000 ) ) ;
#382 = APPROVAL ( #84, 'UNSPECIFIED' ) ;
#383 = ORIENTED_EDGE ( 'NONE', *, *, #90, .T. ) ;
#384 = FACE_OUTER_BOUND ( 'NONE', #368, .T. ) ;
#385 = CYLINDRICAL_SURFACE ( 'NONE', #410, 42.49999999999999289 ) ;
#386 = DIRECTION ( 'NONE',  ( -1.000000000000000000, 0.000000000000000000, 0.000000000000000000 ) ) ;
#387 = CARTESIAN_POINT ( 'NONE',  ( 0.000000000000000000, 3.786754110865358403, 0.000000000000000000 ) ) ;
#388 = CARTESIAN_POINT ( 'NONE',  ( 1.387778780781445676E-14, 2817.965330118411202, 0.000000000000000000 ) ) ;
#389 = CARTESIAN_POINT ( 'NONE',  ( -42.49999999999999289, 1.953717814329645844E-16, 0.000000000000000000 ) ) ;
#390 = CIRCLE ( 'NONE', #269, 77.99999999999998579 ) ;
#391 = COORDINATED_UNIVERSAL_TIME_OFFSET ( 1, 0, .AHEAD. ) ;
#392 = VERTEX_POINT ( 'NONE', #354 ) ;
#393 = PERSON_AND_ORGANIZATION ( #35, #257 ) ;
#394 = ORIENTED_EDGE ( 'NONE', *, *, #303, .F. ) ;
#395 = PRODUCT_RELATED_PRODUCT_CATEGORY ( 'detail', '', ( #345 ) ) ;
#396 = AXIS2_PLACEMENT_3D ( 'NONE', #335, #230, #128 ) ;
#397 = COORDINATED_UNIVERSAL_TIME_OFFSET ( 1, 0, .AHEAD. ) ;
#398 = EDGE_LOOP ( 'NONE', ( #62, #179, #89 ) ) ;
#399 = DESIGN_CONTEXT ( 'detailed design', #174, 'design' ) ;
#400 = CIRCLE ( 'NONE', #61, 42.49999999999998579 ) ;
#401 = VERTEX_POINT ( 'NONE', #13 ) ;
#402 = CC_DESIGN_SECURITY_CLASSIFICATION ( #92, ( #300 ) ) ;
#403 = EDGE_CURVE ( 'NONE', #392, #82, #297, .T. ) ;
#404 = EDGE_LOOP ( 'NONE', ( #206, #28, #280, #150 ) ) ;
#405 = TOROIDAL_SURFACE ( 'NONE', #63, 35.50000000000000000, 4.999999999999990230 ) ;
#406 = AXIS2_PLACEMENT_3D ( 'NONE', #188, #315, #408 ) ;
#407 = CARTESIAN_POINT ( 'NONE',  ( 9.797174393178826052E-15, -60.00000000000000000, 0.000000000000000000 ) ) ;
#408 = DIRECTION ( 'NONE',  ( -1.000000000000000000, 0.000000000000000000, 0.000000000000000000 ) ) ;
#409 = VERTEX_POINT ( 'NONE', #9 ) ;
#410 = AXIS2_PLACEMENT_3D ( 'NONE', #327, #42, #168 ) ;
#411 = DIRECTION ( 'NONE',  ( 4.596983092540343816E-18, 1.000000000000000000, -0.000000000000000000 ) ) ;
ENDSEC;
END-ISO-10303-21;
