ISO-10303-21;
HEADER;
FILE_DESCRIPTION (( 'STEP AP203' ),
    '1' );
FILE_NAME ('OT200-15-21_3x1_6_OSTP.step',
    '2020-12-16T02:09:32',
    ( '' ),
    ( '' ),
    'SwSTEP 2.0',
    'SolidWorks 2014',
    '' );
FILE_SCHEMA (( 'CONFIG_CONTROL_DESIGN' ));
ENDSEC;

DATA;
#1 = APPROVAL ( #95, 'UNSPECIFIED' ) ;
#2 = COORDINATED_UNIVERSAL_TIME_OFFSET ( 1, 0, .AHEAD. ) ;
#3 = CARTESIAN_POINT ( 'NONE',  ( -10.65000000000000200, 0.0000000000000000000, 0.0000000000000000000 ) ) ;
#4 = TOROIDAL_SURFACE ( 'NONE', #128, 27.50000000000000000, 9.049999999999998900 ) ;
#5 = DATE_TIME_ROLE ( 'classification_date' ) ;
#6 = CARTESIAN_POINT ( 'NONE',  ( 27.50000000000000000, 0.0000000000000000000, -1.108305353228354600E-015 ) ) ;
#7 = UNCERTAINTY_MEASURE_WITH_UNIT (LENGTH_MEASURE( 1.000000000000000100E-005 ), #125, 'distance_accuracy_value', 'NONE');
#8 = CALENDAR_DATE ( 2020, 16, 12 ) ;
#9 = FACE_OUTER_BOUND ( 'NONE', #22, .T. ) ;
#10 = APPLICATION_PROTOCOL_DEFINITION ( 'international standard', 'config_control_design', 1994, #164 ) ;
#11 =( NAMED_UNIT ( * ) PLANE_ANGLE_UNIT ( ) SI_UNIT ( $, .RADIAN. ) );
#12 = APPROVAL_PERSON_ORGANIZATION ( #114, #1, #186 ) ;
#13 = ORIENTED_EDGE ( 'NONE', *, *, #227, .T. ) ;
#14 = DESIGN_CONTEXT ( 'detailed design', #164, 'design' ) ;
#15 = ADVANCED_FACE ( 'NONE', ( #149 ), #4, .F. ) ;
#16 = CC_DESIGN_PERSON_AND_ORGANIZATION_ASSIGNMENT ( #219, #146, ( #62 ) ) ;
#17 = VERTEX_POINT ( 'NONE', #173 ) ;
#18 = VERTEX_POINT ( 'NONE', #63 ) ;
#19 = CARTESIAN_POINT ( 'NONE',  ( -9.049999999999998900, 0.0000000000000000000, 0.0000000000000000000 ) ) ;
#20 = EDGE_CURVE ( 'NONE', #43, #88, #160, .T. ) ;
#21 = CALENDAR_DATE ( 2020, 16, 12 ) ;
#22 = EDGE_LOOP ( 'NONE', ( #230, #115 ) ) ;
#23 = APPROVAL ( #224, 'UNSPECIFIED' ) ;
#24 = VERTEX_POINT ( 'NONE', #19 ) ;
#25 = CC_DESIGN_PERSON_AND_ORGANIZATION_ASSIGNMENT ( #249, #58, ( #74 ) ) ;
#26 = CALENDAR_DATE ( 2020, 16, 12 ) ;
#27 = DIRECTION ( 'NONE',  ( 1.000000000000000000, 6.123233995736766000E-017, 0.0000000000000000000 ) ) ;
#28 = PLANE ( 'NONE',  #94 ) ;
#29 = CC_DESIGN_SECURITY_CLASSIFICATION ( #62, ( #237 ) ) ;
#30 = PERSON_AND_ORGANIZATION ( #106, #242 ) ;
#31 =( NAMED_UNIT ( * ) SI_UNIT ( $, .STERADIAN. ) SOLID_ANGLE_UNIT ( ) );
#32 = FACE_OUTER_BOUND ( 'NONE', #127, .T. ) ;
#33 = ORIENTED_EDGE ( 'NONE', *, *, #201, .T. ) ;
#34 = APPROVAL_ROLE ( '' ) ;
#35 = CC_DESIGN_DATE_AND_TIME_ASSIGNMENT ( #159, #239, ( #132 ) ) ;
#36 = APPROVAL_DATE_TIME ( #177, #23 ) ;
#37 = CC_DESIGN_APPROVAL ( #23, ( #62 ) ) ;
#38 = APPROVAL_PERSON_ORGANIZATION ( #211, #196, #34 ) ;
#39 = ORIENTED_EDGE ( 'NONE', *, *, #51, .F. ) ;
#40 = DIRECTION ( 'NONE',  ( 1.000000000000000000, 0.0000000000000000000, 0.0000000000000000000 ) ) ;
#41 = AXIS2_PLACEMENT_3D ( 'NONE', #218, #107, #234 ) ;
#42 = ORIENTED_EDGE ( 'NONE', *, *, #162, .T. ) ;
#43 = VERTEX_POINT ( 'NONE', #44 ) ;
#44 = CARTESIAN_POINT ( 'NONE',  ( 27.49999999999999600, 16.85000000000000100, -1.304248841091931300E-015 ) ) ;
#45 = EDGE_LOOP ( 'NONE', ( #39, #97, #57, #68 ) ) ;
#46 = PRODUCT_RELATED_PRODUCT_CATEGORY ( 'detail', '', ( #74 ) ) ;
#47 = DIRECTION ( 'NONE',  ( 1.000000000000000000, 0.0000000000000000000, 0.0000000000000000000 ) ) ;
#48 = CIRCLE ( 'NONE', #101, 10.65000000000000000 ) ;
#49 = DIRECTION ( 'NONE',  ( 0.0000000000000000000, 0.0000000000000000000, 1.000000000000000000 ) ) ;
#50 = ADVANCED_FACE ( 'NONE', ( #32 ), #120, .T. ) ;
#51 = EDGE_CURVE ( 'NONE', #189, #24, #130, .T. ) ;
#52 = DIRECTION ( 'NONE',  ( 0.0000000000000000000, 0.0000000000000000000, 1.000000000000000000 ) ) ;
#53 = PLANE ( 'NONE',  #55 ) ;
#54 = DIRECTION ( 'NONE',  ( 0.0000000000000000000, 1.000000000000000000, 0.0000000000000000000 ) ) ;
#55 = AXIS2_PLACEMENT_3D ( 'NONE', #142, #236, #178 ) ;
#56 = DIRECTION ( 'NONE',  ( 1.000000000000000000, 0.0000000000000000000, 0.0000000000000000000 ) ) ;
#57 = ORIENTED_EDGE ( 'NONE', *, *, #245, .T. ) ;
#58 = PERSON_AND_ORGANIZATION_ROLE ( 'design_owner' ) ;
#59 = PERSON_AND_ORGANIZATION ( #106, #242 ) ;
#60 = FACE_BOUND ( 'NONE', #215, .T. ) ;
#61 = CARTESIAN_POINT ( 'NONE',  ( 27.50000000000000000, 0.0000000000000000000, 0.0000000000000000000 ) ) ;
#62 = SECURITY_CLASSIFICATION ( '', '', #75 ) ;
#63 = CARTESIAN_POINT ( 'NONE',  ( 9.049999999999998900, 0.0000000000000000000, -1.108305353228354600E-015 ) ) ;
#64 = COORDINATED_UNIVERSAL_TIME_OFFSET ( 1, 0, .AHEAD. ) ;
#65 = EDGE_CURVE ( 'NONE', #189, #140, #112, .T. ) ;
#66 = ORIENTED_EDGE ( 'NONE', *, *, #51, .T. ) ;
#67 = COORDINATED_UNIVERSAL_TIME_OFFSET ( 1, 0, .AHEAD. ) ;
#68 = ORIENTED_EDGE ( 'NONE', *, *, #155, .F. ) ;
#69 = AXIS2_PLACEMENT_3D ( 'NONE', #110, #108, #52 ) ;
#70 = DIRECTION ( 'NONE',  ( 0.0000000000000000000, 0.0000000000000000000, 1.000000000000000000 ) ) ;
#71 = DIRECTION ( 'NONE',  ( 0.0000000000000000000, -0.0000000000000000000, 1.000000000000000000 ) ) ;
#72 = ORIENTED_EDGE ( 'NONE', *, *, #245, .F. ) ;
#73 = CARTESIAN_POINT ( 'NONE',  ( 27.50000000000000000, 0.0000000000000000000, 0.0000000000000000000 ) ) ;
#74 = PRODUCT ( 'OT200-15-21_3x1_6_OSTP', 'OT200-15-21_3x1_6_OSTP', '', ( #98 ) ) ;
#75 = SECURITY_CLASSIFICATION_LEVEL ( 'unclassified' ) ;
#76 = CARTESIAN_POINT ( 'NONE',  ( 0.0000000000000000000, 0.0000000000000000000, 0.0000000000000000000 ) ) ;
#77 = LOCAL_TIME ( 3, 9, 32.00000000000000000, #214 ) ;
#78 = AXIS2_PLACEMENT_3D ( 'NONE', #253, #198, #235 ) ;
#79 = ORIENTED_EDGE ( 'NONE', *, *, #20, .T. ) ;
#80 = AXIS2_PLACEMENT_3D ( 'NONE', #82, #119, #40 ) ;
#81 = CALENDAR_DATE ( 2020, 16, 12 ) ;
#82 = CARTESIAN_POINT ( 'NONE',  ( 27.50000000000000000, 0.0000000000000000000, 0.0000000000000000000 ) ) ;
#83 = PRODUCT_DEFINITION_SHAPE ( 'NONE', 'NONE',  #132 ) ;
#84 = EDGE_CURVE ( 'NONE', #18, #24, #85, .T. ) ;
#85 = CIRCLE ( 'NONE', #124, 9.049999999999998900 ) ;
#86 = DIRECTION ( 'NONE',  ( 0.0000000000000000000, 1.000000000000000000, 0.0000000000000000000 ) ) ;
#87 = APPROVAL_DATE_TIME ( #129, #196 ) ;
#88 = VERTEX_POINT ( 'NONE', #229 ) ;
#89 = ADVANCED_FACE ( 'NONE', ( #96 ), #117, .T. ) ;
#90 = DIRECTION ( 'NONE',  ( 0.0000000000000000000, 0.0000000000000000000, 1.000000000000000000 ) ) ;
#91 = DIRECTION ( 'NONE',  ( 1.000000000000000000, 6.123233995736766000E-017, 0.0000000000000000000 ) ) ;
#92 = ORIENTED_EDGE ( 'NONE', *, *, #227, .F. ) ;
#93 = DIRECTION ( 'NONE',  ( 1.000000000000000000, 0.0000000000000000000, 0.0000000000000000000 ) ) ;
#94 = AXIS2_PLACEMENT_3D ( 'NONE', #161, #54, #71 ) ;
#95 = APPROVAL_STATUS ( 'not_yet_approved' ) ;
#96 = FACE_OUTER_BOUND ( 'NONE', #252, .T. ) ;
#97 = ORIENTED_EDGE ( 'NONE', *, *, #65, .T. ) ;
#98 = MECHANICAL_CONTEXT ( 'NONE', #126, 'mechanical' ) ;
#99 = CIRCLE ( 'NONE', #184, 18.45000000000000300 ) ;
#100 = CIRCLE ( 'NONE', #78, 10.65000000000000000 ) ;
#101 = AXIS2_PLACEMENT_3D ( 'NONE', #143, #91, #70 ) ;
#102 = AXIS2_PLACEMENT_3D ( 'NONE', #191, #172, #210 ) ;
#103 = VERTEX_POINT ( 'NONE', #3 ) ;
#104 = DIRECTION ( 'NONE',  ( 1.000000000000000000, 0.0000000000000000000, 0.0000000000000000000 ) ) ;
#105 = DIRECTION ( 'NONE',  ( 0.0000000000000000000, 0.0000000000000000000, 1.000000000000000000 ) ) ;
#106 = PERSON ( 'UNSPECIFIED', 'UNSPECIFIED', 'UNSPECIFIED', ('UNSPECIFIED'), ('UNSPECIFIED'), ('UNSPECIFIED') ) ;
#107 = DIRECTION ( 'NONE',  ( 0.0000000000000000000, 0.0000000000000000000, 1.000000000000000000 ) ) ;
#108 = DIRECTION ( 'NONE',  ( 0.0000000000000000000, 1.000000000000000000, 0.0000000000000000000 ) ) ;
#109 = CIRCLE ( 'NONE', #69, 9.049999999999998900 ) ;
#110 = CARTESIAN_POINT ( 'NONE',  ( 0.0000000000000000000, 0.0000000000000000000, 0.0000000000000000000 ) ) ;
#111 = AXIS2_PLACEMENT_3D ( 'NONE', #190, #151, #228 ) ;
#112 = CIRCLE ( 'NONE', #116, 9.049999999999998900 ) ;
#113 = APPROVAL_STATUS ( 'not_yet_approved' ) ;
#114 = PERSON_AND_ORGANIZATION ( #106, #242 ) ;
#115 = ORIENTED_EDGE ( 'NONE', *, *, #150, .F. ) ;
#116 = AXIS2_PLACEMENT_3D ( 'NONE', #244, #133, #152 ) ;
#117 = TOROIDAL_SURFACE ( 'NONE', #213, 27.50000000000000000, 10.65000000000000000 ) ;
#118 = CC_DESIGN_PERSON_AND_ORGANIZATION_ASSIGNMENT ( #181, #221, ( #132 ) ) ;
#119 = DIRECTION ( 'NONE',  ( 0.0000000000000000000, 0.0000000000000000000, 1.000000000000000000 ) ) ;
#120 = TOROIDAL_SURFACE ( 'NONE', #111, 27.50000000000000000, 10.65000000000000000 ) ;
#121 = ADVANCED_FACE ( 'NONE', ( #157, #9 ), #28, .F. ) ;
#122 = CARTESIAN_POINT ( 'NONE',  ( 27.49999999999999600, 36.54999999999999700, 0.0000000000000000000 ) ) ;
#123 = DIRECTION ( 'NONE',  ( 0.0000000000000000000, 1.000000000000000000, 0.0000000000000000000 ) ) ;
#124 = AXIS2_PLACEMENT_3D ( 'NONE', #248, #123, #175 ) ;
#125 =( LENGTH_UNIT ( ) NAMED_UNIT ( * ) SI_UNIT ( .MILLI., .METRE. ) );
#126 = APPLICATION_CONTEXT ( 'configuration controlled 3d designs of mechanical parts and assemblies' ) ;
#127 = EDGE_LOOP ( 'NONE', ( #182, #194, #153, #42 ) ) ;
#128 = AXIS2_PLACEMENT_3D ( 'NONE', #61, #246, #207 ) ;
#129 = DATE_AND_TIME ( #26, #136 ) ;
#130 = CIRCLE ( 'NONE', #80, 36.54999999999999700 ) ;
#131 = ORIENTED_EDGE ( 'NONE', *, *, #217, .F. ) ;
#132 = PRODUCT_DEFINITION ( 'UNKNOWN', '', #237, #14 ) ;
#133 = DIRECTION ( 'NONE',  ( 1.000000000000000000, 6.123233995736766000E-017, 0.0000000000000000000 ) ) ;
#134 = DATE_AND_TIME ( #21, #77 ) ;
#135 =( GEOMETRIC_REPRESENTATION_CONTEXT ( 3 ) GLOBAL_UNCERTAINTY_ASSIGNED_CONTEXT ( ( #7 ) ) GLOBAL_UNIT_ASSIGNED_CONTEXT ( ( #125, #11, #31 ) ) REPRESENTATION_CONTEXT ( 'NONE', 'WORKASPACE' ) );
#136 = LOCAL_TIME ( 3, 9, 32.00000000000000000, #64 ) ;
#137 = ORIENTED_EDGE ( 'NONE', *, *, #150, .T. ) ;
#138 = AXIS2_PLACEMENT_3D ( 'NONE', #233, #220, #179 ) ;
#139 = CARTESIAN_POINT ( 'NONE',  ( 27.50000000000000000, 27.50000000000000000, 0.0000000000000000000 ) ) ;
#140 = VERTEX_POINT ( 'NONE', #180 ) ;
#141 = ORIENTED_EDGE ( 'NONE', *, *, #84, .T. ) ;
#142 = CARTESIAN_POINT ( 'NONE',  ( 27.49999999999999600, 27.50000000000000000, 0.0000000000000000000 ) ) ;
#143 = CARTESIAN_POINT ( 'NONE',  ( 27.49999999999999600, 27.50000000000000000, 0.0000000000000000000 ) ) ;
#144 = LOCAL_TIME ( 3, 9, 32.00000000000000000, #2 ) ;
#145 = FACE_OUTER_BOUND ( 'NONE', #45, .T. ) ;
#146 = PERSON_AND_ORGANIZATION_ROLE ( 'classification_officer' ) ;
#147 = CC_DESIGN_PERSON_AND_ORGANIZATION_ASSIGNMENT ( #30, #185, ( #237 ) ) ;
#148 = DIRECTION ( 'NONE',  ( 0.0000000000000000000, 0.0000000000000000000, 1.000000000000000000 ) ) ;
#149 = FACE_OUTER_BOUND ( 'NONE', #197, .T. ) ;
#150 = EDGE_CURVE ( 'NONE', #103, #17, #209, .T. ) ;
#151 = DIRECTION ( 'NONE',  ( 0.0000000000000000000, 0.0000000000000000000, 1.000000000000000000 ) ) ;
#152 = DIRECTION ( 'NONE',  ( 0.0000000000000000000, 1.000000000000000000, 0.0000000000000000000 ) ) ;
#153 = ORIENTED_EDGE ( 'NONE', *, *, #217, .T. ) ;
#154 = CLOSED_SHELL ( 'NONE', ( #15, #89, #50, #195, #121, #199 ) ) ;
#155 = EDGE_CURVE ( 'NONE', #24, #18, #109, .T. ) ;
#156 = APPROVAL_PERSON_ORGANIZATION ( #59, #23, #166 ) ;
#157 = FACE_BOUND ( 'NONE', #206, .T. ) ;
#158 = ADVANCED_BREP_SHAPE_REPRESENTATION ( 'OT200-15-21_3x1_6_OSTP', ( #169, #208 ), #135 ) ;
#159 = DATE_AND_TIME ( #8, #232 ) ;
#160 = CIRCLE ( 'NONE', #102, 10.65000000000000000 ) ;
#161 = CARTESIAN_POINT ( 'NONE',  ( 0.0000000000000000000, 0.0000000000000000000, 0.0000000000000000000 ) ) ;
#162 = EDGE_CURVE ( 'NONE', #17, #103, #100, .T. ) ;
#163 = LOCAL_TIME ( 3, 9, 32.00000000000000000, #193 ) ;
#164 = APPLICATION_CONTEXT ( 'configuration controlled 3d designs of mechanical parts and assemblies' ) ;
#165 = ORIENTED_EDGE ( 'NONE', *, *, #65, .F. ) ;
#166 = APPROVAL_ROLE ( '' ) ;
#167 = AXIS2_PLACEMENT_3D ( 'NONE', #73, #49, #200 ) ;
#168 = PERSON_AND_ORGANIZATION ( #106, #242 ) ;
#169 = MANIFOLD_SOLID_BREP ( 'cut-body', #154 ) ;
#170 = CALENDAR_DATE ( 2020, 16, 12 ) ;
#171 = ORIENTED_EDGE ( 'NONE', *, *, #241, .T. ) ;
#172 = DIRECTION ( 'NONE',  ( 1.000000000000000000, 6.123233995736766000E-017, 0.0000000000000000000 ) ) ;
#173 = CARTESIAN_POINT ( 'NONE',  ( 10.65000000000000000, 0.0000000000000000000, -1.304248841091931300E-015 ) ) ;
#174 = AXIS2_PLACEMENT_3D ( 'NONE', #139, #27, #86 ) ;
#175 = DIRECTION ( 'NONE',  ( 0.0000000000000000000, 0.0000000000000000000, 1.000000000000000000 ) ) ;
#176 = CC_DESIGN_APPROVAL ( #1, ( #132 ) ) ;
#177 = DATE_AND_TIME ( #170, #163 ) ;
#178 = DIRECTION ( 'NONE',  ( 0.0000000000000000000, 0.0000000000000000000, 1.000000000000000000 ) ) ;
#179 = DIRECTION ( 'NONE',  ( 0.0000000000000000000, 0.0000000000000000000, 1.000000000000000000 ) ) ;
#180 = CARTESIAN_POINT ( 'NONE',  ( 27.50000000000000000, 18.45000000000000300, -1.108305353228354600E-015 ) ) ;
#181 = PERSON_AND_ORGANIZATION ( #106, #242 ) ;
#182 = ORIENTED_EDGE ( 'NONE', *, *, #241, .F. ) ;
#183 = APPLICATION_PROTOCOL_DEFINITION ( 'international standard', 'config_control_design', 1994, #126 ) ;
#184 = AXIS2_PLACEMENT_3D ( 'NONE', #6, #204, #56 ) ;
#185 = PERSON_AND_ORGANIZATION_ROLE ( 'creator' ) ;
#186 = APPROVAL_ROLE ( '' ) ;
#187 = AXIS2_PLACEMENT_3D ( 'NONE', #216, #90, #104 ) ;
#188 = APPROVAL_DATE_TIME ( #134, #1 ) ;
#189 = VERTEX_POINT ( 'NONE', #122 ) ;
#190 = CARTESIAN_POINT ( 'NONE',  ( 27.50000000000000000, 0.0000000000000000000, 0.0000000000000000000 ) ) ;
#191 = CARTESIAN_POINT ( 'NONE',  ( 27.49999999999999600, 27.50000000000000000, 0.0000000000000000000 ) ) ;
#192 = CIRCLE ( 'NONE', #174, 9.049999999999998900 ) ;
#193 = COORDINATED_UNIVERSAL_TIME_OFFSET ( 1, 0, .AHEAD. ) ;
#194 = ORIENTED_EDGE ( 'NONE', *, *, #20, .F. ) ;
#195 = ADVANCED_FACE ( 'NONE', ( #60, #250 ), #53, .T. ) ;
#196 = APPROVAL ( #113, 'UNSPECIFIED' ) ;
#197 = EDGE_LOOP ( 'NONE', ( #33, #66, #240, #72 ) ) ;
#198 = DIRECTION ( 'NONE',  ( 0.0000000000000000000, 1.000000000000000000, 0.0000000000000000000 ) ) ;
#199 = ADVANCED_FACE ( 'NONE', ( #145 ), #203, .F. ) ;
#200 = DIRECTION ( 'NONE',  ( 1.000000000000000000, 0.0000000000000000000, 0.0000000000000000000 ) ) ;
#201 = EDGE_CURVE ( 'NONE', #140, #189, #192, .T. ) ;
#202 = PERSON_AND_ORGANIZATION_ROLE ( 'design_supplier' ) ;
#203 = TOROIDAL_SURFACE ( 'NONE', #167, 27.50000000000000000, 9.049999999999998900 ) ;
#204 = DIRECTION ( 'NONE',  ( 0.0000000000000000000, 0.0000000000000000000, 1.000000000000000000 ) ) ;
#205 = DATE_AND_TIME ( #81, #144 ) ;
#206 = EDGE_LOOP ( 'NONE', ( #141, #238 ) ) ;
#207 = DIRECTION ( 'NONE',  ( 1.000000000000000000, 0.0000000000000000000, 0.0000000000000000000 ) ) ;
#208 = AXIS2_PLACEMENT_3D ( 'NONE', #76, #148, #93 ) ;
#209 = CIRCLE ( 'NONE', #138, 10.65000000000000000 ) ;
#210 = DIRECTION ( 'NONE',  ( 0.0000000000000000000, 0.0000000000000000000, 1.000000000000000000 ) ) ;
#211 = PERSON_AND_ORGANIZATION ( #106, #242 ) ;
#212 = CIRCLE ( 'NONE', #187, 16.85000000000000100 ) ;
#213 = AXIS2_PLACEMENT_3D ( 'NONE', #226, #105, #47 ) ;
#214 = COORDINATED_UNIVERSAL_TIME_OFFSET ( 1, 0, .AHEAD. ) ;
#215 = EDGE_LOOP ( 'NONE', ( #247, #165 ) ) ;
#216 = CARTESIAN_POINT ( 'NONE',  ( 27.50000000000000000, 0.0000000000000000000, -1.304248841091931300E-015 ) ) ;
#217 = EDGE_CURVE ( 'NONE', #43, #17, #212, .T. ) ;
#218 = CARTESIAN_POINT ( 'NONE',  ( 27.50000000000000000, 0.0000000000000000000, 0.0000000000000000000 ) ) ;
#219 = PERSON_AND_ORGANIZATION ( #106, #242 ) ;
#220 = DIRECTION ( 'NONE',  ( 0.0000000000000000000, 1.000000000000000000, 0.0000000000000000000 ) ) ;
#221 = PERSON_AND_ORGANIZATION_ROLE ( 'creator' ) ;
#222 = EDGE_LOOP ( 'NONE', ( #79, #13 ) ) ;
#223 = CC_DESIGN_PERSON_AND_ORGANIZATION_ASSIGNMENT ( #168, #202, ( #237 ) ) ;
#224 = APPROVAL_STATUS ( 'not_yet_approved' ) ;
#225 = CIRCLE ( 'NONE', #41, 38.15000000000000600 ) ;
#226 = CARTESIAN_POINT ( 'NONE',  ( 27.50000000000000000, 0.0000000000000000000, 0.0000000000000000000 ) ) ;
#227 = EDGE_CURVE ( 'NONE', #88, #43, #48, .T. ) ;
#228 = DIRECTION ( 'NONE',  ( 1.000000000000000000, 0.0000000000000000000, 0.0000000000000000000 ) ) ;
#229 = CARTESIAN_POINT ( 'NONE',  ( 27.49999999999999600, 38.15000000000000600, 0.0000000000000000000 ) ) ;
#230 = ORIENTED_EDGE ( 'NONE', *, *, #162, .F. ) ;
#231 = CC_DESIGN_DATE_AND_TIME_ASSIGNMENT ( #205, #5, ( #62 ) ) ;
#232 = LOCAL_TIME ( 3, 9, 32.00000000000000000, #67 ) ;
#233 = CARTESIAN_POINT ( 'NONE',  ( 0.0000000000000000000, 0.0000000000000000000, 0.0000000000000000000 ) ) ;
#234 = DIRECTION ( 'NONE',  ( 1.000000000000000000, 0.0000000000000000000, 0.0000000000000000000 ) ) ;
#235 = DIRECTION ( 'NONE',  ( 0.0000000000000000000, 0.0000000000000000000, 1.000000000000000000 ) ) ;
#236 = DIRECTION ( 'NONE',  ( 1.000000000000000000, 6.123233995736766000E-017, -0.0000000000000000000 ) ) ;
#237 = PRODUCT_DEFINITION_FORMATION_WITH_SPECIFIED_SOURCE ( 'ANY', '', #74, .NOT_KNOWN. ) ;
#238 = ORIENTED_EDGE ( 'NONE', *, *, #155, .T. ) ;
#239 = DATE_TIME_ROLE ( 'creation_date' ) ;
#240 = ORIENTED_EDGE ( 'NONE', *, *, #84, .F. ) ;
#241 = EDGE_CURVE ( 'NONE', #88, #103, #225, .T. ) ;
#242 = ORGANIZATION ( 'UNSPECIFIED', 'UNSPECIFIED', '' ) ;
#243 = SHAPE_DEFINITION_REPRESENTATION ( #83, #158 ) ;
#244 = CARTESIAN_POINT ( 'NONE',  ( 27.50000000000000000, 27.50000000000000000, 0.0000000000000000000 ) ) ;
#245 = EDGE_CURVE ( 'NONE', #140, #18, #99, .T. ) ;
#246 = DIRECTION ( 'NONE',  ( 0.0000000000000000000, 0.0000000000000000000, 1.000000000000000000 ) ) ;
#247 = ORIENTED_EDGE ( 'NONE', *, *, #201, .F. ) ;
#248 = CARTESIAN_POINT ( 'NONE',  ( 0.0000000000000000000, 0.0000000000000000000, 0.0000000000000000000 ) ) ;
#249 = PERSON_AND_ORGANIZATION ( #106, #242 ) ;
#250 = FACE_OUTER_BOUND ( 'NONE', #222, .T. ) ;
#251 = CC_DESIGN_APPROVAL ( #196, ( #237 ) ) ;
#252 = EDGE_LOOP ( 'NONE', ( #92, #171, #137, #131 ) ) ;
#253 = CARTESIAN_POINT ( 'NONE',  ( 0.0000000000000000000, 0.0000000000000000000, 0.0000000000000000000 ) ) ;
ENDSEC;
END-ISO-10303-21;
