ISO-10303-21;
HEADER;
FILE_DESCRIPTION (( 'STEP AP203' ),
    '1' );
FILE_NAME ('3D_R1655_44.5x2_17362175.STEP',
    '2024-08-05T08:49:45',
    ( '' ),
    ( '' ),
    'SwSTEP 2.0',
    'SolidWorks 2024',
    '' );
FILE_SCHEMA (( 'CONFIG_CONTROL_DESIGN' ));
ENDSEC;

DATA;
#1 = CARTESIAN_POINT ( 'NONE',  ( 0.000000000000000000, 0.000000000000000000, 0.000000000000000000 ) ) ;
#2 = CARTESIAN_POINT ( 'NONE',  ( -2.287468644921422922E-13, 0.000000000000000000, -77.75000000000001421 ) ) ;
#3 = PERSON_AND_ORGANIZATION_ROLE ( 'design_owner' ) ;
#4 = SECURITY_CLASSIFICATION ( '', '', #185 ) ;
#5 = PRODUCT_DEFINITION_SHAPE ( 'NONE', 'NONE',  #69 ) ;
#6 = AXIS2_PLACEMENT_3D ( 'NONE', #8, #242, #141 ) ;
#7 = DIRECTION ( 'NONE',  ( 0.000000000000000000, 0.000000000000000000, 1.000000000000000000 ) ) ;
#8 = CARTESIAN_POINT ( 'NONE',  ( -3.140184917367555284E-13, 0.000000000000000000, -100.0000000000000000 ) ) ;
#9 = FACE_OUTER_BOUND ( 'NONE', #49, .T. ) ;
#10 = COORDINATED_UNIVERSAL_TIME_OFFSET ( 1, 0, .AHEAD. ) ;
#11 = CC_DESIGN_PERSON_AND_ORGANIZATION_ASSIGNMENT ( #109, #88, ( #4 ) ) ;
#12 = APPROVAL_STATUS ( 'not_yet_approved' ) ;
#13 = CIRCLE ( 'NONE', #6, 20.24999999999998934 ) ;
#14 = ORIENTED_EDGE ( 'NONE', *, *, #61, .T. ) ;
#15 = ORIENTED_EDGE ( 'NONE', *, *, #61, .F. ) ;
#16 = ADVANCED_FACE ( 'NONE', ( #238 ), #158, .F. ) ;
#17 = ORIENTED_EDGE ( 'NONE', *, *, #98, .F. ) ;
#18 = DIRECTION ( 'NONE',  ( 3.140184917367554968E-15, 0.000000000000000000, 1.000000000000000000 ) ) ;
#19 = CC_DESIGN_PERSON_AND_ORGANIZATION_ASSIGNMENT ( #249, #84, ( #223 ) ) ;
#20 = DIRECTION ( 'NONE',  ( -1.000000000000000000, 0.000000000000000000, 3.140184917367554968E-15 ) ) ;
#21 = FACE_OUTER_BOUND ( 'NONE', #57, .T. ) ;
#22 = DIRECTION ( 'NONE',  ( 0.000000000000000000, 0.000000000000000000, 1.000000000000000000 ) ) ;
#23 = DIRECTION ( 'NONE',  ( 0.000000000000000000, 0.000000000000000000, 1.000000000000000000 ) ) ;
#24 = DIRECTION ( 'NONE',  ( -2.967189154025170812E-17, 0.000000000000000000, 1.000000000000000000 ) ) ;
#25 = ADVANCED_BREP_SHAPE_REPRESENTATION ( '3D_R1655_44.5x2_17362175', ( #142, #72 ), #248 ) ;
#26 = CC_DESIGN_DATE_AND_TIME_ASSIGNMENT ( #246, #51, ( #69 ) ) ;
#27 = PERSON_AND_ORGANIZATION_ROLE ( 'creator' ) ;
#28 = ORIENTED_EDGE ( 'NONE', *, *, #91, .F. ) ;
#29 = APPROVAL_ROLE ( '' ) ;
#30 = CC_DESIGN_PERSON_AND_ORGANIZATION_ASSIGNMENT ( #202, #3, ( #77 ) ) ;
#31 = CARTESIAN_POINT ( 'NONE',  ( -2.986159789035703670E-13, 0.000000000000000000, -100.0000000000000000 ) ) ;
#32 = AXIS2_PLACEMENT_3D ( 'NONE', #197, #104, #161 ) ;
#33 = ORIENTED_EDGE ( 'NONE', *, *, #81, .T. ) ;
#34 = ORIENTED_EDGE ( 'NONE', *, *, #162, .F. ) ;
#35 = ADVANCED_FACE ( 'NONE', ( #54 ), #42, .T. ) ;
#36 = DIRECTION ( 'NONE',  ( 3.140184917367554968E-15, 0.000000000000000000, 1.000000000000000000 ) ) ;
#37 = CARTESIAN_POINT ( 'NONE',  ( -3.140184917367555284E-13, 0.000000000000000000, -100.0000000000000000 ) ) ;
#38 = CIRCLE ( 'NONE', #63, 22.24999999999999289 ) ;
#39 = PLANE ( 'NONE',  #199 ) ;
#40 = AXIS2_PLACEMENT_3D ( 'NONE', #121, #166, #7 ) ;
#41 = FACE_BOUND ( 'NONE', #108, .T. ) ;
#42 = TOROIDAL_SURFACE ( 'NONE', #111, 100.0000000000000000, 22.24999999999999289 ) ;
#43 = APPROVAL ( #12, 'UNSPECIFIED' ) ;
#44 = DIRECTION ( 'NONE',  ( 0.000000000000000000, 0.000000000000000000, 1.000000000000000000 ) ) ;
#45 = LOCAL_TIME ( 10, 49, 45.00000000000000000, #48 ) ;
#46 = SHAPE_DEFINITION_REPRESENTATION ( #5, #25 ) ;
#47 = DATE_AND_TIME ( #152, #78 ) ;
#48 = COORDINATED_UNIVERSAL_TIME_OFFSET ( 1, 0, .AHEAD. ) ;
#49 = EDGE_LOOP ( 'NONE', ( #133, #15 ) ) ;
#50 = APPROVAL_DATE_TIME ( #47, #43 ) ;
#51 = DATE_TIME_ROLE ( 'creation_date' ) ;
#52 = VERTEX_POINT ( 'NONE', #239 ) ;
#53 = CARTESIAN_POINT ( 'NONE',  ( 0.000000000000000000, -2.724839128102859807E-15, 0.000000000000000000 ) ) ;
#54 = FACE_OUTER_BOUND ( 'NONE', #155, .T. ) ;
#55 = CC_DESIGN_APPROVAL ( #43, ( #69 ) ) ;
#56 = CIRCLE ( 'NONE', #219, 20.24999999999998934 ) ;
#57 = EDGE_LOOP ( 'NONE', ( #70, #194 ) ) ;
#58 = VERTEX_POINT ( 'NONE', #2 ) ;
#59 = CARTESIAN_POINT ( 'NONE',  ( 0.000000000000000000, 0.000000000000000000, 0.000000000000000000 ) ) ;
#60 = PERSON_AND_ORGANIZATION ( #106, #157 ) ;
#61 = EDGE_CURVE ( 'NONE', #212, #58, #96, .T. ) ;
#62 = CARTESIAN_POINT ( 'NONE',  ( 0.000000000000000000, 0.000000000000000000, 0.000000000000000000 ) ) ;
#63 = AXIS2_PLACEMENT_3D ( 'NONE', #178, #211, #71 ) ;
#64 = CC_DESIGN_PERSON_AND_ORGANIZATION_ASSIGNMENT ( #65, #105, ( #69 ) ) ;
#65 = PERSON_AND_ORGANIZATION ( #106, #157 ) ;
#66 = APPROVAL_STATUS ( 'not_yet_approved' ) ;
#67 = ORIENTED_EDGE ( 'NONE', *, *, #167, .F. ) ;
#68 = DATE_AND_TIME ( #150, #45 ) ;
#69 = PRODUCT_DEFINITION ( 'UNKNOWN', '', #223, #175 ) ;
#70 = ORIENTED_EDGE ( 'NONE', *, *, #91, .T. ) ;
#71 = DIRECTION ( 'NONE',  ( 1.000000000000000000, 0.000000000000000000, 2.967189154025168347E-17 ) ) ;
#72 = AXIS2_PLACEMENT_3D ( 'NONE', #62, #23, #183 ) ;
#73 = DIRECTION ( 'NONE',  ( 0.000000000000000000, 1.000000000000000000, 0.000000000000000000 ) ) ;
#74 = CARTESIAN_POINT ( 'NONE',  ( -100.0000000000000000, 0.000000000000000000, -1.836970198721033218E-14 ) ) ;
#75 = AXIS2_PLACEMENT_3D ( 'NONE', #74, #117, #176 ) ;
#76 = EDGE_CURVE ( 'NONE', #58, #212, #85, .T. ) ;
#77 = PRODUCT ( '3D_R1655_44.5x2_17362175', '3D_R1655_44.5x2_17362175', '', ( #164 ) ) ;
#78 = LOCAL_TIME ( 10, 49, 45.00000000000000000, #107 ) ;
#79 = CARTESIAN_POINT ( 'NONE',  ( -2.504297471600626045E-13, 0.000000000000000000, -79.75000000000001421 ) ) ;
#80 = CARTESIAN_POINT ( 'NONE',  ( -79.75000000000001421, 0.000000000000000000, -2.366333350335074314E-15 ) ) ;
#81 = EDGE_CURVE ( 'NONE', #58, #170, #120, .T. ) ;
#82 = CARTESIAN_POINT ( 'NONE',  ( -3.684850933149984418E-13, 0.000000000000000000, -122.2500000000000000 ) ) ;
#83 = CIRCLE ( 'NONE', #231, 120.2500000000000000 ) ;
#84 = PERSON_AND_ORGANIZATION_ROLE ( 'design_supplier' ) ;
#85 = CIRCLE ( 'NONE', #195, 22.24999999999999289 ) ;
#86 = DATE_AND_TIME ( #169, #240 ) ;
#87 = CC_DESIGN_DATE_AND_TIME_ASSIGNMENT ( #187, #227, ( #4 ) ) ;
#88 = PERSON_AND_ORGANIZATION_ROLE ( 'classification_officer' ) ;
#89 = APPROVAL_PERSON_ORGANIZATION ( #60, #43, #90 ) ;
#90 = APPROVAL_ROLE ( '' ) ;
#91 = EDGE_CURVE ( 'NONE', #170, #230, #38, .T. ) ;
#92 = APPROVAL_PERSON_ORGANIZATION ( #228, #245, #131 ) ;
#93 = DIRECTION ( 'NONE',  ( 0.000000000000000000, 1.000000000000000000, 0.000000000000000000 ) ) ;
#94 = ORIENTED_EDGE ( 'NONE', *, *, #146, .F. ) ;
#95 = DIRECTION ( 'NONE',  ( 0.000000000000000000, 1.000000000000000000, 0.000000000000000000 ) ) ;
#96 = CIRCLE ( 'NONE', #168, 22.24999999999999289 ) ;
#97 = FACE_OUTER_BOUND ( 'NONE', #190, .T. ) ;
#98 = EDGE_CURVE ( 'NONE', #110, #52, #83, .T. ) ;
#99 = CARTESIAN_POINT ( 'NONE',  ( -100.0000000000000000, 0.000000000000000000, -1.836970198721033218E-14 ) ) ;
#100 = DIRECTION ( 'NONE',  ( 1.000000000000000000, 0.000000000000000000, 2.967189154025170196E-17 ) ) ;
#101 = APPLICATION_PROTOCOL_DEFINITION ( 'international standard', 'config_control_design', 1994, #128 ) ;
#102 = AXIS2_PLACEMENT_3D ( 'NONE', #59, #139, #214 ) ;
#103 = PLANE ( 'NONE',  #32 ) ;
#104 = DIRECTION ( 'NONE',  ( -1.000000000000000000, 0.000000000000000000, 3.140184917367554968E-15 ) ) ;
#105 = PERSON_AND_ORGANIZATION_ROLE ( 'creator' ) ;
#106 = PERSON ( 'UNSPECIFIED', 'UNSPECIFIED', 'UNSPECIFIED', ('UNSPECIFIED'), ('UNSPECIFIED'), ('UNSPECIFIED') ) ;
#107 = COORDINATED_UNIVERSAL_TIME_OFFSET ( 1, 0, .AHEAD. ) ;
#108 = EDGE_LOOP ( 'NONE', ( #205, #247 ) ) ;
#109 = PERSON_AND_ORGANIZATION ( #106, #157 ) ;
#110 = VERTEX_POINT ( 'NONE', #159 ) ;
#111 = AXIS2_PLACEMENT_3D ( 'NONE', #160, #153, #138 ) ;
#112 = EDGE_CURVE ( 'NONE', #230, #170, #244, .T. ) ;
#113 = EDGE_LOOP ( 'NONE', ( #191, #250, #132, #119 ) ) ;
#114 = DIRECTION ( 'NONE',  ( 0.000000000000000000, 0.000000000000000000, 1.000000000000000000 ) ) ;
#115 = CIRCLE ( 'NONE', #236, 122.2500000000000000 ) ;
#116 = ORIENTED_EDGE ( 'NONE', *, *, #76, .T. ) ;
#117 = DIRECTION ( 'NONE',  ( -2.967189154025170812E-17, 0.000000000000000000, 1.000000000000000000 ) ) ;
#118 = ADVANCED_FACE ( 'NONE', ( #97 ), #147, .F. ) ;
#119 = ORIENTED_EDGE ( 'NONE', *, *, #174, .F. ) ;
#120 = CIRCLE ( 'NONE', #154, 77.75000000000001421 ) ;
#121 = CARTESIAN_POINT ( 'NONE',  ( 0.000000000000000000, 0.000000000000000000, 0.000000000000000000 ) ) ;
#122 = DIRECTION ( 'NONE',  ( -2.967189154025170812E-17, 0.000000000000000000, 1.000000000000000000 ) ) ;
#123 = TOROIDAL_SURFACE ( 'NONE', #40, 100.0000000000000000, 22.24999999999999289 ) ;
#124 = LOCAL_TIME ( 10, 49, 45.00000000000000000, #204 ) ;
#125 =( NAMED_UNIT ( * ) PLANE_ANGLE_UNIT ( ) SI_UNIT ( $, .RADIAN. ) );
#126 = APPROVAL_PERSON_ORGANIZATION ( #224, #232, #29 ) ;
#127 = CARTESIAN_POINT ( 'NONE',  ( 0.000000000000000000, 0.000000000000000000, 0.000000000000000000 ) ) ;
#128 = APPLICATION_CONTEXT ( 'configuration controlled 3d designs of mechanical parts and assemblies' ) ;
#129 = PERSON_AND_ORGANIZATION ( #106, #157 ) ;
#130 = APPROVAL_DATE_TIME ( #86, #232 ) ;
#131 = APPROVAL_ROLE ( '' ) ;
#132 = ORIENTED_EDGE ( 'NONE', *, *, #215, .T. ) ;
#133 = ORIENTED_EDGE ( 'NONE', *, *, #76, .F. ) ;
#134 = CC_DESIGN_APPROVAL ( #245, ( #223 ) ) ;
#135 = ORIENTED_EDGE ( 'NONE', *, *, #167, .T. ) ;
#136 = AXIS2_PLACEMENT_3D ( 'NONE', #140, #24, #182 ) ;
#137 = CARTESIAN_POINT ( 'NONE',  ( 0.000000000000000000, 0.000000000000000000, 0.000000000000000000 ) ) ;
#138 = DIRECTION ( 'NONE',  ( 0.000000000000000000, 0.000000000000000000, 1.000000000000000000 ) ) ;
#139 = DIRECTION ( 'NONE',  ( 0.000000000000000000, 1.000000000000000000, 0.000000000000000000 ) ) ;
#140 = CARTESIAN_POINT ( 'NONE',  ( -100.0000000000000000, 0.000000000000000000, -2.967189154025170812E-15 ) ) ;
#141 = DIRECTION ( 'NONE',  ( 3.140184917367554179E-15, 0.000000000000000000, 1.000000000000000000 ) ) ;
#142 = MANIFOLD_SOLID_BREP ( 'Wandung1', #206 ) ;
#143 = CARTESIAN_POINT ( 'NONE',  ( 0.000000000000000000, -2.479909768273389117E-15, 0.000000000000000000 ) ) ;
#144 =( LENGTH_UNIT ( ) NAMED_UNIT ( * ) SI_UNIT ( .MILLI., .METRE. ) );
#145 = FACE_OUTER_BOUND ( 'NONE', #151, .T. ) ;
#146 = EDGE_CURVE ( 'NONE', #237, #110, #56, .T. ) ;
#147 = TOROIDAL_SURFACE ( 'NONE', #102, 100.0000000000000000, 20.24999999999998934 ) ;
#148 = APPROVAL_STATUS ( 'not_yet_approved' ) ;
#149 = CIRCLE ( 'NONE', #136, 20.24999999999998934 ) ;
#150 = CALENDAR_DATE ( 2024, 5, 8 ) ;
#151 = EDGE_LOOP ( 'NONE', ( #116, #135, #28, #233 ) ) ;
#152 = CALENDAR_DATE ( 2024, 5, 8 ) ;
#153 = DIRECTION ( 'NONE',  ( 0.000000000000000000, 1.000000000000000000, 0.000000000000000000 ) ) ;
#154 = AXIS2_PLACEMENT_3D ( 'NONE', #53, #95, #253 ) ;
#155 = EDGE_LOOP ( 'NONE', ( #67, #14, #33, #203 ) ) ;
#156 = DIRECTION ( 'NONE',  ( 0.000000000000000000, 0.000000000000000000, 1.000000000000000000 ) ) ;
#157 = ORGANIZATION ( 'UNSPECIFIED', 'UNSPECIFIED', '' ) ;
#158 = TOROIDAL_SURFACE ( 'NONE', #165, 100.0000000000000000, 20.24999999999998934 ) ;
#159 = CARTESIAN_POINT ( 'NONE',  ( -3.776072363134484522E-13, 0.000000000000000000, -120.2500000000000000 ) ) ;
#160 = CARTESIAN_POINT ( 'NONE',  ( 0.000000000000000000, 0.000000000000000000, 0.000000000000000000 ) ) ;
#161 = DIRECTION ( 'NONE',  ( 3.140184917367554968E-15, 0.000000000000000000, 1.000000000000000000 ) ) ;
#162 = EDGE_CURVE ( 'NONE', #235, #52, #149, .T. ) ;
#163 = DIRECTION ( 'NONE',  ( 0.000000000000000000, 1.000000000000000000, 0.000000000000000000 ) ) ;
#164 = MECHANICAL_CONTEXT ( 'NONE', #128, 'mechanical' ) ;
#165 = AXIS2_PLACEMENT_3D ( 'NONE', #137, #93, #156 ) ;
#166 = DIRECTION ( 'NONE',  ( 0.000000000000000000, 1.000000000000000000, 0.000000000000000000 ) ) ;
#167 = EDGE_CURVE ( 'NONE', #212, #230, #115, .T. ) ;
#168 = AXIS2_PLACEMENT_3D ( 'NONE', #192, #20, #36 ) ;
#169 = CALENDAR_DATE ( 2024, 5, 8 ) ;
#170 = VERTEX_POINT ( 'NONE', #220 ) ;
#171 = LOCAL_TIME ( 10, 49, 45.00000000000000000, #10 ) ;
#172 = CALENDAR_DATE ( 2024, 5, 8 ) ;
#173 = DIRECTION ( 'NONE',  ( -1.000000000000000000, 0.000000000000000000, 3.140184917367554968E-15 ) ) ;
#174 = EDGE_CURVE ( 'NONE', #237, #235, #210, .T. ) ;
#175 = DESIGN_CONTEXT ( 'detailed design', #216, 'design' ) ;
#176 = DIRECTION ( 'NONE',  ( 1.000000000000000000, 0.000000000000000000, 2.967189154025168347E-17 ) ) ;
#177 = DIRECTION ( 'NONE',  ( -1.000000000000000000, 0.000000000000000000, 3.140184917367554968E-15 ) ) ;
#178 = CARTESIAN_POINT ( 'NONE',  ( -100.0000000000000000, 0.000000000000000000, -1.836970198721033218E-14 ) ) ;
#179 =( NAMED_UNIT ( * ) SI_UNIT ( $, .STERADIAN. ) SOLID_ANGLE_UNIT ( ) );
#180 = CARTESIAN_POINT ( 'NONE',  ( -122.2500000000000000, 0.000000000000000000, -1.902990157398093209E-14 ) ) ;
#181 = CIRCLE ( 'NONE', #189, 20.24999999999998934 ) ;
#182 = DIRECTION ( 'NONE',  ( 1.000000000000000000, 0.000000000000000000, 2.967189154025170196E-17 ) ) ;
#183 = DIRECTION ( 'NONE',  ( 1.000000000000000000, 0.000000000000000000, 0.000000000000000000 ) ) ;
#184 = PRODUCT_RELATED_PRODUCT_CATEGORY ( 'detail', '', ( #77 ) ) ;
#185 = SECURITY_CLASSIFICATION_LEVEL ( 'unclassified' ) ;
#186 = COORDINATED_UNIVERSAL_TIME_OFFSET ( 1, 0, .AHEAD. ) ;
#187 = DATE_AND_TIME ( #243, #171 ) ;
#188 = CC_DESIGN_SECURITY_CLASSIFICATION ( #4, ( #223 ) ) ;
#189 = AXIS2_PLACEMENT_3D ( 'NONE', #221, #200, #100 ) ;
#190 = EDGE_LOOP ( 'NONE', ( #17, #94, #234, #193 ) ) ;
#191 = ORIENTED_EDGE ( 'NONE', *, *, #201, .F. ) ;
#192 = CARTESIAN_POINT ( 'NONE',  ( -2.986159789035703670E-13, 0.000000000000000000, -100.0000000000000000 ) ) ;
#193 = ORIENTED_EDGE ( 'NONE', *, *, #162, .T. ) ;
#194 = ORIENTED_EDGE ( 'NONE', *, *, #112, .T. ) ;
#195 = AXIS2_PLACEMENT_3D ( 'NONE', #31, #177, #18 ) ;
#196 = ADVANCED_FACE ( 'NONE', ( #218, #21 ), #39, .T. ) ;
#197 = CARTESIAN_POINT ( 'NONE',  ( -2.986159789035703670E-13, 0.000000000000000000, -100.0000000000000000 ) ) ;
#198 = DIRECTION ( 'NONE',  ( 1.000000000000000000, 0.000000000000000000, 2.967189154025170812E-17 ) ) ;
#199 = AXIS2_PLACEMENT_3D ( 'NONE', #99, #122, #198 ) ;
#200 = DIRECTION ( 'NONE',  ( -2.967189154025170812E-17, 0.000000000000000000, 1.000000000000000000 ) ) ;
#201 = EDGE_CURVE ( 'NONE', #110, #237, #13, .T. ) ;
#202 = PERSON_AND_ORGANIZATION ( #106, #157 ) ;
#203 = ORIENTED_EDGE ( 'NONE', *, *, #112, .F. ) ;
#204 = COORDINATED_UNIVERSAL_TIME_OFFSET ( 1, 0, .AHEAD. ) ;
#205 = ORIENTED_EDGE ( 'NONE', *, *, #146, .T. ) ;
#206 = CLOSED_SHELL ( 'NONE', ( #16, #226, #35, #196, #207, #118 ) ) ;
#207 = ADVANCED_FACE ( 'NONE', ( #41, #9 ), #103, .F. ) ;
#208 = CC_DESIGN_APPROVAL ( #232, ( #4 ) ) ;
#209 = ORIENTED_EDGE ( 'NONE', *, *, #215, .F. ) ;
#210 = CIRCLE ( 'NONE', #225, 79.75000000000001421 ) ;
#211 = DIRECTION ( 'NONE',  ( -2.967189154025170812E-17, 0.000000000000000000, 1.000000000000000000 ) ) ;
#212 = VERTEX_POINT ( 'NONE', #82 ) ;
#213 = EDGE_LOOP ( 'NONE', ( #34, #209 ) ) ;
#214 = DIRECTION ( 'NONE',  ( 0.000000000000000000, 0.000000000000000000, 1.000000000000000000 ) ) ;
#215 = EDGE_CURVE ( 'NONE', #52, #235, #181, .T. ) ;
#216 = APPLICATION_CONTEXT ( 'configuration controlled 3d designs of mechanical parts and assemblies' ) ;
#217 = DIRECTION ( 'NONE',  ( 0.000000000000000000, 1.000000000000000000, 0.000000000000000000 ) ) ;
#218 = FACE_BOUND ( 'NONE', #213, .T. ) ;
#219 = AXIS2_PLACEMENT_3D ( 'NONE', #37, #173, #251 ) ;
#220 = CARTESIAN_POINT ( 'NONE',  ( -77.75000000000001421, 0.000000000000000000, -1.770950240043973226E-14 ) ) ;
#221 = CARTESIAN_POINT ( 'NONE',  ( -100.0000000000000000, 0.000000000000000000, -2.967189154025170812E-15 ) ) ;
#222 = APPLICATION_PROTOCOL_DEFINITION ( 'international standard', 'config_control_design', 1994, #216 ) ;
#223 = PRODUCT_DEFINITION_FORMATION_WITH_SPECIFIED_SOURCE ( 'ANY', '', #77, .NOT_KNOWN. ) ;
#224 = PERSON_AND_ORGANIZATION ( #106, #157 ) ;
#225 = AXIS2_PLACEMENT_3D ( 'NONE', #143, #163, #44 ) ;
#226 = ADVANCED_FACE ( 'NONE', ( #145 ), #123, .T. ) ;
#227 = DATE_TIME_ROLE ( 'classification_date' ) ;
#228 = PERSON_AND_ORGANIZATION ( #106, #157 ) ;
#229 = APPROVAL_DATE_TIME ( #68, #245 ) ;
#230 = VERTEX_POINT ( 'NONE', #180 ) ;
#231 = AXIS2_PLACEMENT_3D ( 'NONE', #1, #73, #114 ) ;
#232 = APPROVAL ( #66, 'UNSPECIFIED' ) ;
#233 = ORIENTED_EDGE ( 'NONE', *, *, #81, .F. ) ;
#234 = ORIENTED_EDGE ( 'NONE', *, *, #174, .T. ) ;
#235 = VERTEX_POINT ( 'NONE', #80 ) ;
#236 = AXIS2_PLACEMENT_3D ( 'NONE', #127, #217, #22 ) ;
#237 = VERTEX_POINT ( 'NONE', #79 ) ;
#238 = FACE_OUTER_BOUND ( 'NONE', #113, .T. ) ;
#239 = CARTESIAN_POINT ( 'NONE',  ( -120.2500000000000000, 0.000000000000000000, -3.568044957715267310E-15 ) ) ;
#240 = LOCAL_TIME ( 10, 49, 45.00000000000000000, #186 ) ;
#241 = CC_DESIGN_PERSON_AND_ORGANIZATION_ASSIGNMENT ( #129, #27, ( #223 ) ) ;
#242 = DIRECTION ( 'NONE',  ( -1.000000000000000000, 0.000000000000000000, 3.140184917367554968E-15 ) ) ;
#243 = CALENDAR_DATE ( 2024, 5, 8 ) ;
#244 = CIRCLE ( 'NONE', #75, 22.24999999999999289 ) ;
#245 = APPROVAL ( #148, 'UNSPECIFIED' ) ;
#246 = DATE_AND_TIME ( #172, #124 ) ;
#247 = ORIENTED_EDGE ( 'NONE', *, *, #201, .T. ) ;
#248 =( GEOMETRIC_REPRESENTATION_CONTEXT ( 3 ) GLOBAL_UNCERTAINTY_ASSIGNED_CONTEXT ( ( #252 ) ) GLOBAL_UNIT_ASSIGNED_CONTEXT ( ( #144, #125, #179 ) ) REPRESENTATION_CONTEXT ( 'NONE', 'WORKASPACE' ) );
#249 = PERSON_AND_ORGANIZATION ( #106, #157 ) ;
#250 = ORIENTED_EDGE ( 'NONE', *, *, #98, .T. ) ;
#251 = DIRECTION ( 'NONE',  ( 3.140184917367554179E-15, 0.000000000000000000, 1.000000000000000000 ) ) ;
#252 = UNCERTAINTY_MEASURE_WITH_UNIT (LENGTH_MEASURE( 1.000000000000000082E-05 ), #144, 'distance_accuracy_value', 'NONE');
#253 = DIRECTION ( 'NONE',  ( 0.000000000000000000, 0.000000000000000000, 1.000000000000000000 ) ) ;
ENDSEC;
END-ISO-10303-21;
