ISO-10303-21;
HEADER;
FILE_DESCRIPTION (( 'STEP AP203' ),
    '1' );
FILE_NAME ('11-0206-08_outokumpu.step',
    '2015-08-11T09:47:20',
    ( '' ),
    ( '' ),
    'SwSTEP 2.0',
    'SolidWorks 2008',
    '' );
FILE_SCHEMA (( 'CONFIG_CONTROL_DESIGN' ));
ENDSEC;

DATA;
#1 = SHAPE_DEFINITION_REPRESENTATION ( #2, #179 ) ;
#2 = PRODUCT_DEFINITION_SHAPE ( 'NONE', 'NONE',  #342 ) ;
#3 = PRODUCT_RELATED_PRODUCT_CATEGORY ( 'detail', '', ( #323 ) ) ;
#4 = CC_DESIGN_SECURITY_CLASSIFICATION ( #25, ( #151 ) ) ;
#5 = CC_DESIGN_APPROVAL ( #13, ( #25 ) ) ;
#6 = APPROVAL_DATE_TIME ( #7, #13 ) ;
#7 = DATE_AND_TIME ( #8, #9 ) ;
#8 = CALENDAR_DATE ( 2015, 11, 8 ) ;
#9 = LOCAL_TIME ( 11, 47, 20.00000000000000000, #10 ) ;
#10 = COORDINATED_UNIVERSAL_TIME_OFFSET ( 1, 0, .AHEAD. ) ;
#11 = APPROVAL_PERSON_ORGANIZATION ( #15, #13, #12 ) ;
#12 = APPROVAL_ROLE ( '' ) ;
#13 = APPROVAL ( #14, 'UNSPECIFIED' ) ;
#14 = APPROVAL_STATUS ( 'not_yet_approved' ) ;
#15 = PERSON_AND_ORGANIZATION ( #327, #328 ) ;
#16 = CC_DESIGN_DATE_AND_TIME_ASSIGNMENT ( #18, #17, ( #25 ) ) ;
#17 = DATE_TIME_ROLE ( 'classification_date' ) ;
#18 = DATE_AND_TIME ( #19, #20 ) ;
#19 = CALENDAR_DATE ( 2015, 11, 8 ) ;
#20 = LOCAL_TIME ( 11, 47, 20.00000000000000000, #21 ) ;
#21 = COORDINATED_UNIVERSAL_TIME_OFFSET ( 1, 0, .AHEAD. ) ;
#22 = CC_DESIGN_PERSON_AND_ORGANIZATION_ASSIGNMENT ( #24, #23, ( #25 ) ) ;
#23 = PERSON_AND_ORGANIZATION_ROLE ( 'classification_officer' ) ;
#24 = PERSON_AND_ORGANIZATION ( #327, #328 ) ;
#25 = SECURITY_CLASSIFICATION ( '', '', #26 ) ;
#26 = SECURITY_CLASSIFICATION_LEVEL ( 'unclassified' ) ;
#27 = CC_DESIGN_PERSON_AND_ORGANIZATION_ASSIGNMENT ( #29, #28, ( #151 ) ) ;
#28 = PERSON_AND_ORGANIZATION_ROLE ( 'design_supplier' ) ;
#29 = PERSON_AND_ORGANIZATION ( #327, #328 ) ;
#30 = CC_DESIGN_PERSON_AND_ORGANIZATION_ASSIGNMENT ( #32, #31, ( #151 ) ) ;
#31 = PERSON_AND_ORGANIZATION_ROLE ( 'creator' ) ;
#32 = PERSON_AND_ORGANIZATION ( #327, #328 ) ;
#33 = ADVANCED_FACE ( 'NONE', ( #182 ), #183, .T. ) ;
#34 = ORIENTED_EDGE ( 'NONE', *, *, #115, .F. ) ;
#35 = EDGE_CURVE ( 'NONE', #40, #56, #186, .T. ) ;
#36 = EDGE_LOOP ( 'NONE', ( #37, #38, #39, #34 ) ) ;
#37 = ORIENTED_EDGE ( 'NONE', *, *, #75, .F. ) ;
#38 = ORIENTED_EDGE ( 'NONE', *, *, #35, .T. ) ;
#39 = ORIENTED_EDGE ( 'NONE', *, *, #78, .T. ) ;
#40 = VERTEX_POINT ( 'NONE', #176 ) ;
#41 = ORIENTED_EDGE ( 'NONE', *, *, #115, .T. ) ;
#42 = ORIENTED_EDGE ( 'NONE', *, *, #67, .F. ) ;
#43 = ORIENTED_EDGE ( 'NONE', *, *, #60, .F. ) ;
#44 = ORIENTED_EDGE ( 'NONE', *, *, #127, .T. ) ;
#45 = ADVANCED_FACE ( 'NONE', ( #175 ), #143, .T. ) ;
#46 = ORIENTED_EDGE ( 'NONE', *, *, #73, .T. ) ;
#47 = EDGE_LOOP ( 'NONE', ( #43, #44, #51, #49 ) ) ;
#48 = CLOSED_SHELL ( 'NONE', ( #131, #59, #74, #98, #33, #102, #128, #117, #123, #45 ) ) ;
#49 = ORIENTED_EDGE ( 'NONE', *, *, #35, .F. ) ;
#50 = ORIENTED_EDGE ( 'NONE', *, *, #88, .F. ) ;
#51 = ORIENTED_EDGE ( 'NONE', *, *, #58, .T. ) ;
#52 = CC_DESIGN_DATE_AND_TIME_ASSIGNMENT ( #92, #53, ( #342 ) ) ;
#53 = DATE_TIME_ROLE ( 'creation_date' ) ;
#54 = ORIENTED_EDGE ( 'NONE', *, *, #55, .F. ) ;
#55 = EDGE_CURVE ( 'NONE', #56, #40, #159, .T. ) ;
#56 = VERTEX_POINT ( 'NONE', #165 ) ;
#57 = ORIENTED_EDGE ( 'NONE', *, *, #58, .F. ) ;
#58 = EDGE_CURVE ( 'NONE', #135, #56, #158, .T. ) ;
#59 = ADVANCED_FACE ( 'NONE', ( #164 ), #163, .T. ) ;
#60 = EDGE_CURVE ( 'NONE', #114, #40, #233, .T. ) ;
#61 = EDGE_LOOP ( 'NONE', ( #62, #66, #69, #72 ) ) ;
#62 = ORIENTED_EDGE ( 'NONE', *, *, #63, .F. ) ;
#63 = EDGE_CURVE ( 'NONE', #64, #65, #199, .T. ) ;
#64 = VERTEX_POINT ( 'NONE', #195 ) ;
#65 = VERTEX_POINT ( 'NONE', #237 ) ;
#66 = ORIENTED_EDGE ( 'NONE', *, *, #67, .T. ) ;
#67 = EDGE_CURVE ( 'NONE', #64, #68, #224, .T. ) ;
#68 = VERTEX_POINT ( 'NONE', #225 ) ;
#69 = ORIENTED_EDGE ( 'NONE', *, *, #70, .T. ) ;
#70 = EDGE_CURVE ( 'NONE', #68, #71, #212, .T. ) ;
#71 = VERTEX_POINT ( 'NONE', #213 ) ;
#72 = ORIENTED_EDGE ( 'NONE', *, *, #73, .F. ) ;
#73 = EDGE_CURVE ( 'NONE', #65, #71, #207, .T. ) ;
#74 = ADVANCED_FACE ( 'NONE', ( #234 ), #249, .F. ) ;
#75 = EDGE_CURVE ( 'NONE', #40, #71, #211, .T. ) ;
#76 = ORIENTED_EDGE ( 'NONE', *, *, #70, .F. ) ;
#77 = ORIENTED_EDGE ( 'NONE', *, *, #78, .F. ) ;
#78 = EDGE_CURVE ( 'NONE', #56, #68, #230, .T. ) ;
#79 = EDGE_LOOP ( 'NONE', ( #80, #113 ) ) ;
#80 = ORIENTED_EDGE ( 'NONE', *, *, #112, .F. ) ;
#81 = ORIENTED_EDGE ( 'NONE', *, *, #134, .T. ) ;
#82 = ORIENTED_EDGE ( 'NONE', *, *, #60, .T. ) ;
#83 = MANIFOLD_SOLID_BREP ( 'NONE', #48 ) ;
#84 = EDGE_CURVE ( 'NONE', #107, #106, #204, .T. ) ;
#85 = ORIENTED_EDGE ( 'NONE', *, *, #105, .T. ) ;
#86 = EDGE_LOOP ( 'NONE', ( #87, #116 ) ) ;
#87 = ORIENTED_EDGE ( 'NONE', *, *, #88, .T. ) ;
#88 = EDGE_CURVE ( 'NONE', #65, #64, #218, .T. ) ;
#89 = ORIENTED_EDGE ( 'NONE', *, *, #90, .T. ) ;
#90 = EDGE_CURVE ( 'NONE', #110, #111, #223, .T. ) ;
#91 = EDGE_LOOP ( 'NONE', ( #81, #82, #54, #57 ) ) ;
#92 = DATE_AND_TIME ( #93, #94 ) ;
#93 = CALENDAR_DATE ( 2015, 11, 8 ) ;
#94 = LOCAL_TIME ( 11, 47, 20.00000000000000000, #95 ) ;
#95 = COORDINATED_UNIVERSAL_TIME_OFFSET ( 1, 0, .AHEAD. ) ;
#96 = ORIENTED_EDGE ( 'NONE', *, *, #97, .F. ) ;
#97 = EDGE_CURVE ( 'NONE', #107, #111, #194, .T. ) ;
#98 = ADVANCED_FACE ( 'NONE', ( #190 ), #153, .T. ) ;
#99 = EDGE_LOOP ( 'NONE', ( #100, #101, #76, #77 ) ) ;
#100 = ORIENTED_EDGE ( 'NONE', *, *, #55, .T. ) ;
#101 = ORIENTED_EDGE ( 'NONE', *, *, #75, .T. ) ;
#102 = ADVANCED_FACE ( 'NONE', ( #257, #263 ), #261, .F. ) ;
#103 = EDGE_LOOP ( 'NONE', ( #104, #108, #89, #96 ) ) ;
#104 = ORIENTED_EDGE ( 'NONE', *, *, #105, .F. ) ;
#105 = EDGE_CURVE ( 'NONE', #106, #107, #260, .T. ) ;
#106 = VERTEX_POINT ( 'NONE', #255 ) ;
#107 = VERTEX_POINT ( 'NONE', #264 ) ;
#108 = ORIENTED_EDGE ( 'NONE', *, *, #109, .T. ) ;
#109 = EDGE_CURVE ( 'NONE', #106, #110, #269, .T. ) ;
#110 = VERTEX_POINT ( 'NONE', #259 ) ;
#111 = VERTEX_POINT ( 'NONE', #258 ) ;
#112 = EDGE_CURVE ( 'NONE', #111, #110, #272, .T. ) ;
#113 = ORIENTED_EDGE ( 'NONE', *, *, #90, .F. ) ;
#114 = VERTEX_POINT ( 'NONE', #280 ) ;
#115 = EDGE_CURVE ( 'NONE', #71, #68, #292, .T. ) ;
#116 = ORIENTED_EDGE ( 'NONE', *, *, #63, .T. ) ;
#117 = ADVANCED_FACE ( 'NONE', ( #302 ), #306, .F. ) ;
#118 = EDGE_LOOP ( 'NONE', ( #119, #120, #121, #122 ) ) ;
#119 = ORIENTED_EDGE ( 'NONE', *, *, #109, .F. ) ;
#120 = ORIENTED_EDGE ( 'NONE', *, *, #84, .F. ) ;
#121 = ORIENTED_EDGE ( 'NONE', *, *, #97, .T. ) ;
#122 = ORIENTED_EDGE ( 'NONE', *, *, #112, .T. ) ;
#123 = ADVANCED_FACE ( 'NONE', ( #277 ), #297, .T. ) ;
#124 = EDGE_LOOP ( 'NONE', ( #125, #126 ) ) ;
#125 = ORIENTED_EDGE ( 'NONE', *, *, #134, .F. ) ;
#126 = ORIENTED_EDGE ( 'NONE', *, *, #127, .F. ) ;
#127 = EDGE_CURVE ( 'NONE', #114, #135, #311, .T. ) ;
#128 = ADVANCED_FACE ( 'NONE', ( #312, #274 ), #301, .F. ) ;
#129 = EDGE_LOOP ( 'NONE', ( #130, #85 ) ) ;
#130 = ORIENTED_EDGE ( 'NONE', *, *, #84, .T. ) ;
#131 = ADVANCED_FACE ( 'NONE', ( #286 ), #300, .T. ) ;
#132 = EDGE_LOOP ( 'NONE', ( #42, #50, #46, #41 ) ) ;
#133 = AXIS2_PLACEMENT_3D ( 'NONE', #146, #152, #154 ) ;
#134 = EDGE_CURVE ( 'NONE', #135, #114, #317, .T. ) ;
#135 = VERTEX_POINT ( 'NONE', #318 ) ;
#136 = LOCAL_TIME ( 11, 47, 20.00000000000000000, #142 ) ;
#137 = APPROVAL_PERSON_ORGANIZATION ( #148, #150, #141 ) ;
#138 = APPROVAL_DATE_TIME ( #139, #150 ) ;
#139 = DATE_AND_TIME ( #140, #136 ) ;
#140 = CALENDAR_DATE ( 2015, 11, 8 ) ;
#141 = APPROVAL_ROLE ( '' ) ;
#142 = COORDINATED_UNIVERSAL_TIME_OFFSET ( 1, 0, .AHEAD. ) ;
#143 = CONICAL_SURFACE ( 'NONE', #133, 22.42249999999999900, 0.7853981633974528300 ) ;
#144 = DIRECTION ( 'NONE',  ( -1.000000000000000000, 0.0000000000000000000, 0.0000000000000000000 ) ) ;
#145 = DIRECTION ( 'NONE',  ( 0.0000000000000000000, 0.0000000000000000000, -1.000000000000000000 ) ) ;
#146 = CARTESIAN_POINT ( 'NONE',  ( 0.0000000000000000000, 0.0000000000000000000, -37.21698904607127600 ) ) ;
#147 = CC_DESIGN_APPROVAL ( #150, ( #151 ) ) ;
#148 = PERSON_AND_ORGANIZATION ( #327, #328 ) ;
#149 = APPROVAL_STATUS ( 'not_yet_approved' ) ;
#150 = APPROVAL ( #149, 'UNSPECIFIED' ) ;
#151 = PRODUCT_DEFINITION_FORMATION_WITH_SPECIFIED_SOURCE ( 'ANY', '', #323, .NOT_KNOWN. ) ;
#152 = DIRECTION ( 'NONE',  ( -0.0000000000000000000, -0.0000000000000000000, 1.000000000000000000 ) ) ;
#153 = CYLINDRICAL_SURFACE ( 'NONE', #189, 22.42249999999999900 ) ;
#154 = DIRECTION ( 'NONE',  ( 1.000000000000000000, 0.0000000000000000000, 0.0000000000000000000 ) ) ;
#155 = DIRECTION ( 'NONE',  ( 0.7071067811865506800, 0.0000000000000000000, 0.7071067811865443500 ) ) ;
#156 = VECTOR ( 'NONE', #155, 1000.000000000000000 ) ;
#157 = CARTESIAN_POINT ( 'NONE',  ( 22.42249999999999900, 0.0000000000000000000, -37.21698904607127600 ) ) ;
#158 = LINE ( 'NONE', #157, #156 ) ;
#159 = CIRCLE ( 'NONE', #169, 22.42249999999999900 ) ;
#160 = CARTESIAN_POINT ( 'NONE',  ( 0.0000000000000000000, 0.0000000000000000000, 2.164076523963066500E-017 ) ) ;
#161 = AXIS2_PLACEMENT_3D ( 'NONE', #160, #145, #144 ) ;
#162 = AXIS2_PLACEMENT_3D ( 'NONE', #174, #271, #270 ) ;
#163 = CONICAL_SURFACE ( 'NONE', #161, 21.63948904607143600, 0.7853981633974543900 ) ;
#164 = FACE_OUTER_BOUND ( 'NONE', #61, .T. ) ;
#165 = CARTESIAN_POINT ( 'NONE',  ( 22.42249999999999900, 0.0000000000000000000, -37.21698904607127600 ) ) ;
#166 = DIRECTION ( 'NONE',  ( 1.000000000000000000, 0.0000000000000000000, 0.0000000000000000000 ) ) ;
#167 = DIRECTION ( 'NONE',  ( -0.0000000000000000000, -0.0000000000000000000, 1.000000000000000000 ) ) ;
#168 = CARTESIAN_POINT ( 'NONE',  ( 0.0000000000000000000, 0.0000000000000000000, -37.21698904607127600 ) ) ;
#169 = AXIS2_PLACEMENT_3D ( 'NONE', #168, #167, #166 ) ;
#170 = DIRECTION ( 'NONE',  ( 1.000000000000000000, 0.0000000000000000000, 0.0000000000000000000 ) ) ;
#171 = AXIS2_PLACEMENT_3D ( 'NONE', #172, #184, #170 ) ;
#172 = CARTESIAN_POINT ( 'NONE',  ( 0.0000000000000000000, 0.0000000000000000000, -4.336808689942017700E-016 ) ) ;
#173 = DIRECTION ( 'NONE',  ( 1.000000000000000000, 0.0000000000000000000, 0.0000000000000000000 ) ) ;
#174 = CARTESIAN_POINT ( 'NONE',  ( 0.0000000000000000000, 2.694222958124171300E-015, -38.00000000000000000 ) ) ;
#175 = FACE_OUTER_BOUND ( 'NONE', #47, .T. ) ;
#176 = CARTESIAN_POINT ( 'NONE',  ( -22.42249999999999900, 2.745873596858225300E-015, -37.21698904607127600 ) ) ;
#177 = DIRECTION ( 'NONE',  ( 1.000000000000000000, 0.0000000000000000000, 0.0000000000000000000 ) ) ;
#178 = DIRECTION ( 'NONE',  ( -0.0000000000000000000, -0.0000000000000000000, 1.000000000000000000 ) ) ;
#179 = ADVANCED_BREP_SHAPE_REPRESENTATION ( '11-0206-08_outokumpu', ( #83, #325 ), #180 ) ;
#180 =( GEOMETRIC_REPRESENTATION_CONTEXT ( 3 ) GLOBAL_UNCERTAINTY_ASSIGNED_CONTEXT ( ( #303 ) ) GLOBAL_UNIT_ASSIGNED_CONTEXT ( ( #309, #308, #304 ) ) REPRESENTATION_CONTEXT ( 'NONE', 'WORKASPACE' ) );
#181 = CARTESIAN_POINT ( 'NONE',  ( 0.0000000000000000000, 0.0000000000000000000, -37.21698904607127600 ) ) ;
#182 = FACE_OUTER_BOUND ( 'NONE', #36, .T. ) ;
#183 = CYLINDRICAL_SURFACE ( 'NONE', #171, 22.42249999999999900 ) ;
#184 = DIRECTION ( 'NONE',  ( -0.0000000000000000000, -0.0000000000000000000, 1.000000000000000000 ) ) ;
#185 = AXIS2_PLACEMENT_3D ( 'NONE', #181, #178, #177 ) ;
#186 = CIRCLE ( 'NONE', #185, 22.42249999999999900 ) ;
#187 = DIRECTION ( 'NONE',  ( -0.0000000000000000000, -0.0000000000000000000, 1.000000000000000000 ) ) ;
#188 = CARTESIAN_POINT ( 'NONE',  ( 0.0000000000000000000, 0.0000000000000000000, -4.336808689942017700E-016 ) ) ;
#189 = AXIS2_PLACEMENT_3D ( 'NONE', #188, #187, #173 ) ;
#190 = FACE_OUTER_BOUND ( 'NONE', #99, .T. ) ;
#191 = DIRECTION ( 'NONE',  ( -0.0000000000000000000, 1.622018397388891000E-016, -1.000000000000000000 ) ) ;
#192 = VECTOR ( 'NONE', #191, 1000.000000000000000 ) ;
#193 = CARTESIAN_POINT ( 'NONE',  ( 0.0000000000000000000, 20.95000000000000600, -38.00000000000007800 ) ) ;
#194 = LINE ( 'NONE', #193, #192 ) ;
#195 = CARTESIAN_POINT ( 'NONE',  ( 21.63948904607143600, 2.697929587393553200E-015, 2.164076523963066500E-017 ) ) ;
#196 = DIRECTION ( 'NONE',  ( 1.000000000000000000, 0.0000000000000000000, 0.0000000000000000000 ) ) ;
#197 = DIRECTION ( 'NONE',  ( -0.0000000000000000000, -0.0000000000000000000, 1.000000000000000000 ) ) ;
#198 = AXIS2_PLACEMENT_3D ( 'NONE', #226, #197, #196 ) ;
#199 = CIRCLE ( 'NONE', #198, 21.63948904607143600 ) ;
#200 = DIRECTION ( 'NONE',  ( 0.0000000000000000000, 1.000000000000000000, 1.622018397388891000E-016 ) ) ;
#201 = DIRECTION ( 'NONE',  ( -0.0000000000000000000, 1.622018397388891000E-016, -1.000000000000000000 ) ) ;
#202 = CARTESIAN_POINT ( 'NONE',  ( 0.0000000000000000000, -3.469446951953615000E-015, 0.0000000000000000000 ) ) ;
#203 = AXIS2_PLACEMENT_3D ( 'NONE', #202, #201, #200 ) ;
#204 = CIRCLE ( 'NONE', #203, 20.94999999999999900 ) ;
#205 = DIRECTION ( 'NONE',  ( -0.7071067811865506800, 8.659274570719393600E-017, 0.7071067811865443500 ) ) ;
#206 = CARTESIAN_POINT ( 'NONE',  ( -21.63948904607143600, 0.0000000000000000000, 2.164076523963066500E-017 ) ) ;
#207 = LINE ( 'NONE', #206, #236 ) ;
#208 = DIRECTION ( 'NONE',  ( -0.0000000000000000000, -0.0000000000000000000, 1.000000000000000000 ) ) ;
#209 = VECTOR ( 'NONE', #208, 1000.000000000000000 ) ;
#210 = CARTESIAN_POINT ( 'NONE',  ( -22.42249999999999900, 2.745873596858225300E-015, -4.336808689942017700E-016 ) ) ;
#211 = LINE ( 'NONE', #210, #209 ) ;
#212 = CIRCLE ( 'NONE', #244, 22.42249999999999900 ) ;
#213 = CARTESIAN_POINT ( 'NONE',  ( -22.42249999999999900, 2.745873596858225300E-015, -0.7830109539285522400 ) ) ;
#214 = DIRECTION ( 'NONE',  ( 1.000000000000000000, 0.0000000000000000000, 0.0000000000000000000 ) ) ;
#215 = DIRECTION ( 'NONE',  ( -0.0000000000000000000, -0.0000000000000000000, 1.000000000000000000 ) ) ;
#216 = CARTESIAN_POINT ( 'NONE',  ( 0.0000000000000000000, 0.0000000000000000000, 2.164076523963066500E-017 ) ) ;
#217 = AXIS2_PLACEMENT_3D ( 'NONE', #216, #215, #214 ) ;
#218 = CIRCLE ( 'NONE', #217, 21.63948904607143600 ) ;
#219 = CARTESIAN_POINT ( 'NONE',  ( 0.0000000000000000000, 2.694222958124171300E-015, -38.00000000000000000 ) ) ;
#220 = DIRECTION ( 'NONE',  ( 0.0000000000000000000, 1.000000000000000000, 0.0000000000000000000 ) ) ;
#221 = DIRECTION ( 'NONE',  ( -0.0000000000000000000, 1.622018397388891000E-016, -1.000000000000000000 ) ) ;
#222 = AXIS2_PLACEMENT_3D ( 'NONE', #219, #221, #220 ) ;
#223 = CIRCLE ( 'NONE', #222, 20.95000000000000600 ) ;
#224 = LINE ( 'NONE', #240, #239 ) ;
#225 = CARTESIAN_POINT ( 'NONE',  ( 22.42249999999999900, 0.0000000000000000000, -0.7830109539285522400 ) ) ;
#226 = CARTESIAN_POINT ( 'NONE',  ( 0.0000000000000000000, 0.0000000000000000000, 2.164076523963066500E-017 ) ) ;
#227 = DIRECTION ( 'NONE',  ( -0.0000000000000000000, -0.0000000000000000000, 1.000000000000000000 ) ) ;
#228 = VECTOR ( 'NONE', #227, 1000.000000000000000 ) ;
#229 = CARTESIAN_POINT ( 'NONE',  ( 22.42249999999999900, 0.0000000000000000000, -4.336808689942017700E-016 ) ) ;
#230 = LINE ( 'NONE', #229, #228 ) ;
#231 = VECTOR ( 'NONE', #205, 1000.000000000000000 ) ;
#232 = CARTESIAN_POINT ( 'NONE',  ( -22.42249999999999900, 2.745873596858225300E-015, -37.21698904607127600 ) ) ;
#233 = LINE ( 'NONE', #232, #231 ) ;
#234 = FACE_OUTER_BOUND ( 'NONE', #103, .T. ) ;
#235 = DIRECTION ( 'NONE',  ( -0.7071067811865517900, 0.0000000000000000000, -0.7071067811865432400 ) ) ;
#236 = VECTOR ( 'NONE', #235, 1000.000000000000000 ) ;
#237 = CARTESIAN_POINT ( 'NONE',  ( -21.63948904607143600, 0.0000000000000000000, 2.164076523963066500E-017 ) ) ;
#238 = DIRECTION ( 'NONE',  ( 0.7071067811865517900, 8.659274570719408400E-017, -0.7071067811865432400 ) ) ;
#239 = VECTOR ( 'NONE', #238, 1000.000000000000000 ) ;
#240 = CARTESIAN_POINT ( 'NONE',  ( 21.63948904607143600, 2.649985577928881500E-015, 2.164076523963066500E-017 ) ) ;
#241 = DIRECTION ( 'NONE',  ( 1.000000000000000000, 0.0000000000000000000, 0.0000000000000000000 ) ) ;
#242 = DIRECTION ( 'NONE',  ( -0.0000000000000000000, -0.0000000000000000000, 1.000000000000000000 ) ) ;
#243 = CARTESIAN_POINT ( 'NONE',  ( 0.0000000000000000000, 0.0000000000000000000, -0.7830109539285522400 ) ) ;
#244 = AXIS2_PLACEMENT_3D ( 'NONE', #243, #242, #241 ) ;
#245 = DIRECTION ( 'NONE',  ( 0.0000000000000000000, 1.000000000000000000, 0.0000000000000000000 ) ) ;
#246 = DIRECTION ( 'NONE',  ( -0.0000000000000000000, 1.622018397388891000E-016, -1.000000000000000000 ) ) ;
#247 = CARTESIAN_POINT ( 'NONE',  ( 0.0000000000000000000, 2.694222958124183500E-015, -38.00000000000007800 ) ) ;
#248 = AXIS2_PLACEMENT_3D ( 'NONE', #247, #246, #245 ) ;
#249 = CYLINDRICAL_SURFACE ( 'NONE', #248, 20.95000000000000300 ) ;
#250 = DIRECTION ( 'NONE',  ( 1.000000000000000000, 0.0000000000000000000, 0.0000000000000000000 ) ) ;
#251 = DIRECTION ( 'NONE',  ( 0.0000000000000000000, -0.0000000000000000000, 1.000000000000000000 ) ) ;
#252 = CARTESIAN_POINT ( 'NONE',  ( 0.0000000000000000000, 22.42249999999999900, -38.00000000000000000 ) ) ;
#253 = DIRECTION ( 'NONE',  ( -0.0000000000000000000, 1.622018397388891000E-016, -1.000000000000000000 ) ) ;
#254 = CARTESIAN_POINT ( 'NONE',  ( 0.0000000000000000000, -3.469446951953615000E-015, 0.0000000000000000000 ) ) ;
#255 = CARTESIAN_POINT ( 'NONE',  ( 2.565550311257880900E-015, -20.95000000000000300, -3.398128542529726800E-015 ) ) ;
#256 = AXIS2_PLACEMENT_3D ( 'NONE', #254, #253, #265 ) ;
#257 = FACE_BOUND ( 'NONE', #79, .T. ) ;
#258 = CARTESIAN_POINT ( 'NONE',  ( 0.0000000000000000000, 20.95000000000001000, -38.00000000000000000 ) ) ;
#259 = CARTESIAN_POINT ( 'NONE',  ( 2.565550311257880900E-015, -20.95000000000000300, -38.00000000000000000 ) ) ;
#260 = CIRCLE ( 'NONE', #256, 20.94999999999999900 ) ;
#261 = PLANE ( 'NONE',  #262 ) ;
#262 = AXIS2_PLACEMENT_3D ( 'NONE', #252, #251, #250 ) ;
#263 = FACE_OUTER_BOUND ( 'NONE', #124, .T. ) ;
#264 = CARTESIAN_POINT ( 'NONE',  ( 0.0000000000000000000, 20.94999999999999600, 3.398128542529726800E-015 ) ) ;
#265 = DIRECTION ( 'NONE',  ( 0.0000000000000000000, 1.000000000000000000, 1.622018397388891000E-016 ) ) ;
#266 = DIRECTION ( 'NONE',  ( -0.0000000000000000000, 1.622018397388891000E-016, -1.000000000000000000 ) ) ;
#267 = VECTOR ( 'NONE', #266, 1000.000000000000000 ) ;
#268 = CARTESIAN_POINT ( 'NONE',  ( 2.565550311257880900E-015, -20.94999999999999900, -38.00000000000007800 ) ) ;
#269 = LINE ( 'NONE', #268, #267 ) ;
#270 = DIRECTION ( 'NONE',  ( 0.0000000000000000000, 1.000000000000000000, 0.0000000000000000000 ) ) ;
#271 = DIRECTION ( 'NONE',  ( -0.0000000000000000000, 1.622018397388891000E-016, -1.000000000000000000 ) ) ;
#272 = CIRCLE ( 'NONE', #162, 20.95000000000000600 ) ;
#273 = AXIS2_PLACEMENT_3D ( 'NONE', #285, #284, #283 ) ;
#274 = FACE_OUTER_BOUND ( 'NONE', #86, .T. ) ;
#275 = DIRECTION ( 'NONE',  ( 1.000000000000000000, 0.0000000000000000000, 0.0000000000000000000 ) ) ;
#276 = AXIS2_PLACEMENT_3D ( 'NONE', #310, #293, #275 ) ;
#277 = FACE_OUTER_BOUND ( 'NONE', #132, .T. ) ;
#278 = DIRECTION ( 'NONE',  ( 0.0000000000000000000, 1.000000000000000000, 0.0000000000000000000 ) ) ;
#279 = AXIS2_PLACEMENT_3D ( 'NONE', #305, #307, #278 ) ;
#280 = CARTESIAN_POINT ( 'NONE',  ( -21.63948904607126200, 2.697929587393542900E-015, -38.00000000000000700 ) ) ;
#281 = DIRECTION ( 'NONE',  ( 1.000000000000000000, 0.0000000000000000000, 0.0000000000000000000 ) ) ;
#282 = DIRECTION ( 'NONE',  ( -0.0000000000000000000, -0.0000000000000000000, 1.000000000000000000 ) ) ;
#283 = DIRECTION ( 'NONE',  ( -1.000000000000000000, 0.0000000000000000000, -0.0000000000000000000 ) ) ;
#284 = DIRECTION ( 'NONE',  ( 0.0000000000000000000, 0.0000000000000000000, -1.000000000000000000 ) ) ;
#285 = CARTESIAN_POINT ( 'NONE',  ( 0.0000000000000000000, 22.42249999999999900, -2.168404344971008900E-016 ) ) ;
#286 = FACE_OUTER_BOUND ( 'NONE', #91, .T. ) ;
#287 = CARTESIAN_POINT ( 'NONE',  ( 0.0000000000000000000, 0.0000000000000000000, 2.164076523963066500E-017 ) ) ;
#288 = DIRECTION ( 'NONE',  ( 1.000000000000000000, 0.0000000000000000000, 0.0000000000000000000 ) ) ;
#289 = DIRECTION ( 'NONE',  ( -0.0000000000000000000, -0.0000000000000000000, 1.000000000000000000 ) ) ;
#290 = CARTESIAN_POINT ( 'NONE',  ( 0.0000000000000000000, 0.0000000000000000000, -0.7830109539285522400 ) ) ;
#291 = AXIS2_PLACEMENT_3D ( 'NONE', #290, #289, #288 ) ;
#292 = CIRCLE ( 'NONE', #291, 22.42249999999999900 ) ;
#293 = DIRECTION ( 'NONE',  ( -0.0000000000000000000, -0.0000000000000000000, 1.000000000000000000 ) ) ;
#294 = DIRECTION ( 'NONE',  ( -1.000000000000000000, 0.0000000000000000000, 0.0000000000000000000 ) ) ;
#295 = DIRECTION ( 'NONE',  ( 0.0000000000000000000, 0.0000000000000000000, -1.000000000000000000 ) ) ;
#296 = AXIS2_PLACEMENT_3D ( 'NONE', #287, #295, #294 ) ;
#297 = CONICAL_SURFACE ( 'NONE', #296, 21.63948904607143600, 0.7853981633974543900 ) ;
#298 = CARTESIAN_POINT ( 'NONE',  ( 0.0000000000000000000, 0.0000000000000000000, -37.21698904607127600 ) ) ;
#299 = AXIS2_PLACEMENT_3D ( 'NONE', #298, #282, #281 ) ;
#300 = CONICAL_SURFACE ( 'NONE', #299, 22.42249999999999900, 0.7853981633974528300 ) ;
#301 = PLANE ( 'NONE',  #273 ) ;
#302 = FACE_OUTER_BOUND ( 'NONE', #118, .T. ) ;
#303 = UNCERTAINTY_MEASURE_WITH_UNIT (LENGTH_MEASURE( 1.000000000000000100E-005 ), #309, 'distance_accuracy_value', 'NONE');
#304 =( NAMED_UNIT ( * ) SI_UNIT ( $, .STERADIAN. ) SOLID_ANGLE_UNIT ( ) );
#305 = CARTESIAN_POINT ( 'NONE',  ( 0.0000000000000000000, 2.694222958124183500E-015, -38.00000000000007800 ) ) ;
#306 = CYLINDRICAL_SURFACE ( 'NONE', #279, 20.95000000000000300 ) ;
#307 = DIRECTION ( 'NONE',  ( -0.0000000000000000000, 1.622018397388891000E-016, -1.000000000000000000 ) ) ;
#308 =( NAMED_UNIT ( * ) PLANE_ANGLE_UNIT ( ) SI_UNIT ( $, .RADIAN. ) );
#309 =( LENGTH_UNIT ( ) NAMED_UNIT ( * ) SI_UNIT ( .MILLI., .METRE. ) );
#310 = CARTESIAN_POINT ( 'NONE',  ( 0.0000000000000000000, 0.0000000000000000000, -38.00000000000000700 ) ) ;
#311 = CIRCLE ( 'NONE', #276, 21.63948904607126200 ) ;
#312 = FACE_BOUND ( 'NONE', #129, .T. ) ;
#313 = DIRECTION ( 'NONE',  ( 1.000000000000000000, 0.0000000000000000000, 0.0000000000000000000 ) ) ;
#314 = DIRECTION ( 'NONE',  ( -0.0000000000000000000, -0.0000000000000000000, 1.000000000000000000 ) ) ;
#315 = CARTESIAN_POINT ( 'NONE',  ( 0.0000000000000000000, 0.0000000000000000000, -38.00000000000000700 ) ) ;
#316 = AXIS2_PLACEMENT_3D ( 'NONE', #315, #314, #313 ) ;
#317 = CIRCLE ( 'NONE', #316, 21.63948904607126200 ) ;
#318 = CARTESIAN_POINT ( 'NONE',  ( 21.63948904607126200, 0.0000000000000000000, -38.00000000000000700 ) ) ;
#319 = DIRECTION ( 'NONE',  ( 0.0000000000000000000, 0.0000000000000000000, 1.000000000000000000 ) ) ;
#320 = APPLICATION_PROTOCOL_DEFINITION ( 'international standard', 'config_control_design', 1994, #321 ) ;
#321 = APPLICATION_CONTEXT ( 'configuration controlled 3d designs of mechanical parts and assemblies' ) ;
#322 = DIRECTION ( 'NONE',  ( 1.000000000000000000, 0.0000000000000000000, 0.0000000000000000000 ) ) ;
#323 = PRODUCT ( '11-0206-08_outokumpu', '11-0206-08_outokumpu', '', ( #324 ) ) ;
#324 = MECHANICAL_CONTEXT ( 'NONE', #321, 'mechanical' ) ;
#325 = AXIS2_PLACEMENT_3D ( 'NONE', #326, #319, #322 ) ;
#326 = CARTESIAN_POINT ( 'NONE',  ( 0.0000000000000000000, 0.0000000000000000000, 0.0000000000000000000 ) ) ;
#327 = PERSON ( 'UNSPECIFIED', 'UNSPECIFIED', 'UNSPECIFIED', ('UNSPECIFIED'), ('UNSPECIFIED'), ('UNSPECIFIED') ) ;
#328 = ORGANIZATION ( 'UNSPECIFIED', 'UNSPECIFIED', '' ) ;
#329 = COORDINATED_UNIVERSAL_TIME_OFFSET ( 1, 0, .AHEAD. ) ;
#330 = CALENDAR_DATE ( 2015, 11, 8 ) ;
#331 = LOCAL_TIME ( 11, 47, 20.00000000000000000, #329 ) ;
#332 = APPROVAL_DATE_TIME ( #333, #339 ) ;
#333 = DATE_AND_TIME ( #330, #331 ) ;
#334 = PERSON_AND_ORGANIZATION_ROLE ( 'design_owner' ) ;
#335 = APPLICATION_CONTEXT ( 'configuration controlled 3d designs of mechanical parts and assemblies' ) ;
#336 = CC_DESIGN_PERSON_AND_ORGANIZATION_ASSIGNMENT ( #345, #334, ( #323 ) ) ;
#337 = APPROVAL_PERSON_ORGANIZATION ( #341, #339, #338 ) ;
#338 = APPROVAL_ROLE ( '' ) ;
#339 = APPROVAL ( #340, 'UNSPECIFIED' ) ;
#340 = APPROVAL_STATUS ( 'not_yet_approved' ) ;
#341 = PERSON_AND_ORGANIZATION ( #327, #328 ) ;
#342 = PRODUCT_DEFINITION ( 'UNKNOWN', '', #151, #343 ) ;
#343 = DESIGN_CONTEXT ( 'detailed design', #335, 'design' ) ;
#344 = APPLICATION_PROTOCOL_DEFINITION ( 'international standard', 'config_control_design', 1994, #335 ) ;
#345 = PERSON_AND_ORGANIZATION ( #327, #328 ) ;
#346 = CC_DESIGN_PERSON_AND_ORGANIZATION_ASSIGNMENT ( #349, #347, ( #342 ) ) ;
#347 = PERSON_AND_ORGANIZATION_ROLE ( 'creator' ) ;
#348 = CC_DESIGN_APPROVAL ( #339, ( #342 ) ) ;
#349 = PERSON_AND_ORGANIZATION ( #327, #328 ) ;
ENDSEC;
END-ISO-10303-21;
