ISO-10303-21;
HEADER;
FILE_DESCRIPTION (( 'STEP AP203' ),
    '1' );
FILE_NAME ('3D_P7215_35x 1-2_141231450.STEP',
    '2024-11-18T12:16:44',
    ( '' ),
    ( '' ),
    'SwSTEP 2.0',
    'SolidWorks 2023',
    '' );
FILE_SCHEMA (( 'CONFIG_CONTROL_DESIGN' ));
ENDSEC;

DATA;
#1 = CARTESIAN_POINT ( 'NONE',  ( 46.48091902202271797, 0.000000000000000000, 0.000000000000000000 ) ) ;
#2 = AXIS2_PLACEMENT_3D ( 'NONE', #180, #118, #305 ) ;
#3 = LINE ( 'NONE', #153, #340 ) ;
#4 = AXIS2_PLACEMENT_3D ( 'NONE', #407, #324, #350 ) ;
#5 = AXIS2_PLACEMENT_3D ( 'NONE', #323, #10, #105 ) ;
#6 = CARTESIAN_POINT ( 'NONE',  ( 14.50000000000000000, 1.000000000000000000, -5.249999999999999112 ) ) ;
#7 = ORIENTED_EDGE ( 'NONE', *, *, #170, .F. ) ;
#8 = DIRECTION ( 'NONE',  ( 0.000000000000000000, 0.000000000000000000, 1.000000000000000000 ) ) ;
#9 = ORIENTED_EDGE ( 'NONE', *, *, #210, .F. ) ;
#10 = DIRECTION ( 'NONE',  ( 1.000000000000000000, 0.000000000000000000, -0.000000000000000000 ) ) ;
#11 = CC_DESIGN_DATE_AND_TIME_ASSIGNMENT ( #138, #113, ( #364 ) ) ;
#12 = AXIS2_PLACEMENT_3D ( 'NONE', #204, #107, #40 ) ;
#13 = DIRECTION ( 'NONE',  ( 1.000000000000000000, -0.000000000000000000, -0.000000000000000000 ) ) ;
#14 = EDGE_CURVE ( 'NONE', #155, #192, #219, .T. ) ;
#15 = PERSON_AND_ORGANIZATION ( #234, #81 ) ;
#16 = LOCAL_TIME ( 13, 16, 44.00000000000000000, #83 ) ;
#17 = CARTESIAN_POINT ( 'NONE',  ( -2.000000000000001776, 2.143131898507868248E-15, 17.50000000000000000 ) ) ;
#18 = CARTESIAN_POINT ( 'NONE',  ( 14.50000000000000000, 1.000000000000000000, 0.000000000000000000 ) ) ;
#19 = CALENDAR_DATE ( 2024, 18, 11 ) ;
#20 = EDGE_LOOP ( 'NONE', ( #158, #9 ) ) ;
#21 = CARTESIAN_POINT ( 'NONE',  ( -2.000000000000001776, 0.000000000000000000, 0.000000000000000000 ) ) ;
#22 = DIRECTION ( 'NONE',  ( 0.000000000000000000, 0.000000000000000000, -1.000000000000000000 ) ) ;
#23 = EDGE_CURVE ( 'NONE', #134, #230, #227, .T. ) ;
#24 = FACE_OUTER_BOUND ( 'NONE', #222, .T. ) ;
#25 = AXIS2_PLACEMENT_3D ( 'NONE', #86, #127, #303 ) ;
#26 = CARTESIAN_POINT ( 'NONE',  ( -48.99999999999999289, 0.000000000000000000, -19.49999999999998934 ) ) ;
#27 = APPROVAL_PERSON_ORGANIZATION ( #78, #151, #176 ) ;
#28 = ORIENTED_EDGE ( 'NONE', *, *, #202, .T. ) ;
#29 = DIRECTION ( 'NONE',  ( 0.000000000000000000, 0.000000000000000000, 1.000000000000000000 ) ) ;
#30 = FACE_OUTER_BOUND ( 'NONE', #20, .T. ) ;
#31 = EDGE_LOOP ( 'NONE', ( #344, #337 ) ) ;
#32 = DIRECTION ( 'NONE',  ( 0.000000000000000000, 0.000000000000000000, 1.000000000000000000 ) ) ;
#33 = ADVANCED_FACE ( 'NONE', ( #367, #30 ), #62, .F. ) ;
#34 = UNCERTAINTY_MEASURE_WITH_UNIT (LENGTH_MEASURE( 1.000000000000000082E-05 ), #352, 'distance_accuracy_value', 'NONE');
#35 = EDGE_LOOP ( 'NONE', ( #39, #377, #400, #117 ) ) ;
#36 = DIRECTION ( 'NONE',  ( 1.000000000000000000, -0.000000000000000000, -0.000000000000000000 ) ) ;
#37 = ORIENTED_EDGE ( 'NONE', *, *, #185, .T. ) ;
#38 = CARTESIAN_POINT ( 'NONE',  ( 46.48091902202271797, 0.000000000000000000, -17.49999999999999645 ) ) ;
#39 = ORIENTED_EDGE ( 'NONE', *, *, #322, .F. ) ;
#40 = DIRECTION ( 'NONE',  ( 0.000000000000000000, 0.000000000000000000, 1.000000000000000000 ) ) ;
#41 = AXIS2_PLACEMENT_3D ( 'NONE', #338, #251, #220 ) ;
#42 = CYLINDRICAL_SURFACE ( 'NONE', #75, 19.49999999999998934 ) ;
#43 = PERSON_AND_ORGANIZATION ( #234, #81 ) ;
#44 = CC_DESIGN_PERSON_AND_ORGANIZATION_ASSIGNMENT ( #80, #298, ( #94 ) ) ;
#45 = CARTESIAN_POINT ( 'NONE',  ( -2.000000000000000000, 1.000000000000000666, 5.249999999999999112 ) ) ;
#46 = CIRCLE ( 'NONE', #178, 17.50000000000000000 ) ;
#47 = DATE_AND_TIME ( #333, #205 ) ;
#48 = AXIS2_PLACEMENT_3D ( 'NONE', #378, #409, #254 ) ;
#49 = DIRECTION ( 'NONE',  ( 0.000000000000000000, 0.000000000000000000, -1.000000000000000000 ) ) ;
#50 = CARTESIAN_POINT ( 'NONE',  ( -10.00000000000000000, 1.000000000000000000, 0.000000000000000000 ) ) ;
#51 = ADVANCED_FACE ( 'NONE', ( #24 ), #217, .F. ) ;
#52 = DIRECTION ( 'NONE',  ( -1.000000000000000000, 0.000000000000000000, 0.000000000000000000 ) ) ;
#53 = CARTESIAN_POINT ( 'NONE',  ( -48.99999999999999289, 2.388061258337337361E-15, 19.49999999999998934 ) ) ;
#54 = EDGE_CURVE ( 'NONE', #291, #66, #65, .T. ) ;
#55 = DIRECTION ( 'NONE',  ( 1.000000000000000000, -0.000000000000000000, -0.000000000000000000 ) ) ;
#56 = ORIENTED_EDGE ( 'NONE', *, *, #125, .T. ) ;
#57 = CLOSED_SHELL ( 'NONE', ( #85, #70, #362, #405, #249, #379, #100, #51, #247, #184, #194, #33 ) ) ;
#58 = FACE_OUTER_BOUND ( 'NONE', #183, .T. ) ;
#59 = EDGE_LOOP ( 'NONE', ( #321, #383 ) ) ;
#60 = ORIENTED_EDGE ( 'NONE', *, *, #111, .F. ) ;
#61 = CARTESIAN_POINT ( 'NONE',  ( -48.99999999999999289, 2.143131898507867065E-15, 17.49999999999999289 ) ) ;
#62 = PLANE ( 'NONE',  #373 ) ;
#63 = ORIENTED_EDGE ( 'NONE', *, *, #111, .T. ) ;
#64 = DIRECTION ( 'NONE',  ( 0.000000000000000000, 0.000000000000000000, -1.000000000000000000 ) ) ;
#65 = CIRCLE ( 'NONE', #25, 19.49999999999998934 ) ;
#66 = VERTEX_POINT ( 'NONE', #53 ) ;
#67 = DIRECTION ( 'NONE',  ( 0.000000000000000000, 0.000000000000000000, 1.000000000000000000 ) ) ;
#68 = AXIS2_PLACEMENT_3D ( 'NONE', #200, #13, #327 ) ;
#69 = MANIFOLD_SOLID_BREP ( 'Aufsatz-Linear austragen3', #57 ) ;
#70 = ADVANCED_FACE ( 'NONE', ( #215 ), #335, .F. ) ;
#71 = ORIENTED_EDGE ( 'NONE', *, *, #177, .F. ) ;
#72 = ORIENTED_EDGE ( 'NONE', *, *, #295, .F. ) ;
#73 = CARTESIAN_POINT ( 'NONE',  ( 46.48091902202271797, 0.000000000000000000, -19.49999999999998934 ) ) ;
#74 =( NAMED_UNIT ( * ) PLANE_ANGLE_UNIT ( ) SI_UNIT ( $, .RADIAN. ) );
#75 = AXIS2_PLACEMENT_3D ( 'NONE', #297, #236, #167 ) ;
#76 = DIRECTION ( 'NONE',  ( 0.000000000000000000, 0.000000000000000000, 1.000000000000000000 ) ) ;
#77 = PERSON_AND_ORGANIZATION ( #234, #81 ) ;
#78 = PERSON_AND_ORGANIZATION ( #234, #81 ) ;
#79 = COORDINATED_UNIVERSAL_TIME_OFFSET ( 1, 0, .AHEAD. ) ;
#80 = PERSON_AND_ORGANIZATION ( #234, #81 ) ;
#81 = ORGANIZATION ( 'UNSPECIFIED', 'UNSPECIFIED', '' ) ;
#82 = EDGE_CURVE ( 'NONE', #230, #132, #331, .T. ) ;
#83 = COORDINATED_UNIVERSAL_TIME_OFFSET ( 1, 0, .AHEAD. ) ;
#84 = DIRECTION ( 'NONE',  ( 1.000000000000000000, -0.000000000000000000, -0.000000000000000000 ) ) ;
#85 = ADVANCED_FACE ( 'NONE', ( #406 ), #216, .T. ) ;
#86 = CARTESIAN_POINT ( 'NONE',  ( -48.99999999999999289, 0.000000000000000000, 0.000000000000000000 ) ) ;
#87 = AXIS2_PLACEMENT_3D ( 'NONE', #218, #129, #343 ) ;
#88 = EDGE_LOOP ( 'NONE', ( #102, #56 ) ) ;
#89 = DIRECTION ( 'NONE',  ( -1.000000000000000000, 0.000000000000000000, 0.000000000000000000 ) ) ;
#90 = ORIENTED_EDGE ( 'NONE', *, *, #273, .T. ) ;
#91 = DIRECTION ( 'NONE',  ( -1.000000000000000000, 0.000000000000000000, 0.000000000000000000 ) ) ;
#92 = DIRECTION ( 'NONE',  ( -1.000000000000000000, 0.000000000000000000, 0.000000000000000000 ) ) ;
#93 = DIRECTION ( 'NONE',  ( 1.000000000000000000, -0.000000000000000000, -0.000000000000000000 ) ) ;
#94 = PRODUCT_DEFINITION_FORMATION_WITH_SPECIFIED_SOURCE ( 'ANY', '', #332, .NOT_KNOWN. ) ;
#95 = ORIENTED_EDGE ( 'NONE', *, *, #23, .T. ) ;
#96 = ORIENTED_EDGE ( 'NONE', *, *, #109, .T. ) ;
#97 = CARTESIAN_POINT ( 'NONE',  ( 0.000000000000000000, 2.388061258337337361E-15, 19.49999999999998934 ) ) ;
#98 = VERTEX_POINT ( 'NONE', #146 ) ;
#99 = CARTESIAN_POINT ( 'NONE',  ( 14.50000000000000000, 1.000000000000000000, 0.000000000000000000 ) ) ;
#100 = ADVANCED_FACE ( 'NONE', ( #267, #142 ), #399, .T. ) ;
#101 = APPLICATION_CONTEXT ( 'configuration controlled 3d designs of mechanical parts and assemblies' ) ;
#102 = ORIENTED_EDGE ( 'NONE', *, *, #82, .T. ) ;
#103 = FACE_OUTER_BOUND ( 'NONE', #319, .T. ) ;
#104 = ORIENTED_EDGE ( 'NONE', *, *, #253, .F. ) ;
#105 = DIRECTION ( 'NONE',  ( -0.000000000000000000, 0.000000000000000000, -1.000000000000000000 ) ) ;
#106 = FACE_OUTER_BOUND ( 'NONE', #250, .T. ) ;
#107 = DIRECTION ( 'NONE',  ( -1.000000000000000000, 0.000000000000000000, 0.000000000000000000 ) ) ;
#108 = AXIS2_PLACEMENT_3D ( 'NONE', #99, #89, #29 ) ;
#109 = EDGE_CURVE ( 'NONE', #347, #128, #120, .T. ) ;
#110 = PERSON_AND_ORGANIZATION_ROLE ( 'creator' ) ;
#111 = EDGE_CURVE ( 'NONE', #145, #372, #46, .T. ) ;
#112 = EDGE_CURVE ( 'NONE', #271, #98, #147, .T. ) ;
#113 = DATE_TIME_ROLE ( 'creation_date' ) ;
#114 = APPROVAL_ROLE ( '' ) ;
#115 = EDGE_CURVE ( 'NONE', #372, #145, #385, .T. ) ;
#116 = CARTESIAN_POINT ( 'NONE',  ( -2.000000000000001776, 0.000000000000000000, 0.000000000000000000 ) ) ;
#117 = ORIENTED_EDGE ( 'NONE', *, *, #304, .T. ) ;
#118 = DIRECTION ( 'NONE',  ( 1.000000000000000000, -0.000000000000000000, -0.000000000000000000 ) ) ;
#119 = CC_DESIGN_PERSON_AND_ORGANIZATION_ASSIGNMENT ( #393, #358, ( #364 ) ) ;
#120 = CIRCLE ( 'NONE', #404, 19.49999999999998934 ) ;
#121 = ORIENTED_EDGE ( 'NONE', *, *, #295, .T. ) ;
#122 = ORIENTED_EDGE ( 'NONE', *, *, #115, .F. ) ;
#123 = DIRECTION ( 'NONE',  ( 0.000000000000000000, 0.000000000000000000, -1.000000000000000000 ) ) ;
#124 = ORIENTED_EDGE ( 'NONE', *, *, #112, .F. ) ;
#125 = EDGE_CURVE ( 'NONE', #132, #230, #211, .T. ) ;
#126 = PLANE ( 'NONE',  #48 ) ;
#127 = DIRECTION ( 'NONE',  ( 1.000000000000000000, -0.000000000000000000, -0.000000000000000000 ) ) ;
#128 = VERTEX_POINT ( 'NONE', #97 ) ;
#129 = DIRECTION ( 'NONE',  ( 1.000000000000000000, -0.000000000000000000, -0.000000000000000000 ) ) ;
#130 = VECTOR ( 'NONE', #279, 1000.000000000000000 ) ;
#131 = CARTESIAN_POINT ( 'NONE',  ( 0.000000000000000000, 1.000000000000000888, -6.250000000000000000 ) ) ;
#132 = VERTEX_POINT ( 'NONE', #260 ) ;
#133 = DIRECTION ( 'NONE',  ( 1.000000000000000000, -0.000000000000000000, -0.000000000000000000 ) ) ;
#134 = VERTEX_POINT ( 'NONE', #315 ) ;
#135 = CIRCLE ( 'NONE', #223, 17.49999999999999289 ) ;
#136 = LINE ( 'NONE', #171, #360 ) ;
#137 = DIRECTION ( 'NONE',  ( -1.000000000000000000, 0.000000000000000000, 0.000000000000000000 ) ) ;
#138 = DATE_AND_TIME ( #175, #241 ) ;
#139 = PRODUCT_DEFINITION_SHAPE ( 'NONE', 'NONE',  #364 ) ;
#140 = DIRECTION ( 'NONE',  ( 0.000000000000000000, 0.000000000000000000, 1.000000000000000000 ) ) ;
#141 = DATE_TIME_ROLE ( 'classification_date' ) ;
#142 = FACE_OUTER_BOUND ( 'NONE', #376, .T. ) ;
#143 = CC_DESIGN_APPROVAL ( #389, ( #94 ) ) ;
#144 = ORIENTED_EDGE ( 'NONE', *, *, #14, .F. ) ;
#145 = VERTEX_POINT ( 'NONE', #190 ) ;
#146 = CARTESIAN_POINT ( 'NONE',  ( -48.99999999999999289, 0.000000000000000000, -17.49999999999999289 ) ) ;
#147 = CIRCLE ( 'NONE', #2, 17.49999999999999289 ) ;
#148 = CARTESIAN_POINT ( 'NONE',  ( 14.50000000000000000, 1.000000000000000000, 0.000000000000000000 ) ) ;
#149 =( GEOMETRIC_REPRESENTATION_CONTEXT ( 3 ) GLOBAL_UNCERTAINTY_ASSIGNED_CONTEXT ( ( #34 ) ) GLOBAL_UNIT_ASSIGNED_CONTEXT ( ( #352, #74, #263 ) ) REPRESENTATION_CONTEXT ( 'NONE', 'WORKASPACE' ) );
#150 = LINE ( 'NONE', #193, #130 ) ;
#151 = APPROVAL ( #208, 'UNSPECIFIED' ) ;
#152 = EDGE_LOOP ( 'NONE', ( #71, #339, #349, #104 ) ) ;
#153 = CARTESIAN_POINT ( 'NONE',  ( 46.48091902202271797, 2.143131898507867459E-15, 17.49999999999999645 ) ) ;
#154 = DIRECTION ( 'NONE',  ( 0.000000000000000000, 0.000000000000000000, 1.000000000000000000 ) ) ;
#155 = VERTEX_POINT ( 'NONE', #371 ) ;
#156 = FACE_OUTER_BOUND ( 'NONE', #152, .T. ) ;
#157 = CIRCLE ( 'NONE', #213, 5.249999999999999112 ) ;
#158 = ORIENTED_EDGE ( 'NONE', *, *, #325, .F. ) ;
#159 = AXIS2_PLACEMENT_3D ( 'NONE', #299, #235, #264 ) ;
#160 = CARTESIAN_POINT ( 'NONE',  ( 14.50000000000000000, 1.000000000000000888, -6.250000000000000000 ) ) ;
#161 = ORIENTED_EDGE ( 'NONE', *, *, #226, .F. ) ;
#162 = FACE_OUTER_BOUND ( 'NONE', #35, .T. ) ;
#163 = ORIENTED_EDGE ( 'NONE', *, *, #170, .T. ) ;
#164 = CARTESIAN_POINT ( 'NONE',  ( -48.99999999999999289, 0.000000000000000000, 0.000000000000000000 ) ) ;
#165 = CIRCLE ( 'NONE', #214, 6.250000000000000000 ) ;
#166 = CC_DESIGN_PERSON_AND_ORGANIZATION_ASSIGNMENT ( #77, #110, ( #94 ) ) ;
#167 = DIRECTION ( 'NONE',  ( 0.000000000000000000, 0.000000000000000000, -1.000000000000000000 ) ) ;
#168 = APPLICATION_PROTOCOL_DEFINITION ( 'international standard', 'config_control_design', 1994, #201 ) ;
#169 = APPROVAL_ROLE ( '' ) ;
#170 = EDGE_CURVE ( 'NONE', #134, #311, #359, .T. ) ;
#171 = CARTESIAN_POINT ( 'NONE',  ( 14.50000000000000000, 1.000000000000000888, -6.250000000000000000 ) ) ;
#172 = AXIS2_PLACEMENT_3D ( 'NONE', #18, #277, #140 ) ;
#173 = LOCAL_TIME ( 13, 16, 44.00000000000000000, #244 ) ;
#174 = PERSON_AND_ORGANIZATION ( #234, #81 ) ;
#175 = CALENDAR_DATE ( 2024, 18, 11 ) ;
#176 = APPROVAL_ROLE ( '' ) ;
#177 = EDGE_CURVE ( 'NONE', #66, #128, #341, .T. ) ;
#178 = AXIS2_PLACEMENT_3D ( 'NONE', #116, #84, #49 ) ;
#179 = CC_DESIGN_PERSON_AND_ORGANIZATION_ASSIGNMENT ( #15, #238, ( #332 ) ) ;
#180 = CARTESIAN_POINT ( 'NONE',  ( -48.99999999999999289, 0.000000000000000000, 0.000000000000000000 ) ) ;
#181 = ORIENTED_EDGE ( 'NONE', *, *, #202, .F. ) ;
#182 = DIRECTION ( 'NONE',  ( 0.000000000000000000, 0.000000000000000000, -1.000000000000000000 ) ) ;
#183 = EDGE_LOOP ( 'NONE', ( #72, #233, #95, #380 ) ) ;
#184 = ADVANCED_FACE ( 'NONE', ( #58 ), #186, .F. ) ;
#185 = EDGE_CURVE ( 'NONE', #271, #372, #3, .T. ) ;
#186 = CYLINDRICAL_SURFACE ( 'NONE', #268, 5.249999999999999112 ) ;
#187 = CIRCLE ( 'NONE', #87, 19.49999999999998934 ) ;
#188 = VERTEX_POINT ( 'NONE', #160 ) ;
#189 = AXIS2_PLACEMENT_3D ( 'NONE', #355, #76, #206 ) ;
#190 = CARTESIAN_POINT ( 'NONE',  ( -2.000000000000001776, 0.000000000000000000, -17.50000000000000000 ) ) ;
#191 = DIRECTION ( 'NONE',  ( 1.000000000000000000, -0.000000000000000000, -0.000000000000000000 ) ) ;
#192 = VERTEX_POINT ( 'NONE', #288 ) ;
#193 = CARTESIAN_POINT ( 'NONE',  ( -10.00000000000000000, 1.000000000000000666, 5.249999999999999112 ) ) ;
#194 = ADVANCED_FACE ( 'NONE', ( #162 ), #312, .T. ) ;
#195 = ORIENTED_EDGE ( 'NONE', *, *, #54, .F. ) ;
#196 = DIRECTION ( 'NONE',  ( -1.000000000000000000, 0.000000000000000000, 0.000000000000000000 ) ) ;
#197 = ORIENTED_EDGE ( 'NONE', *, *, #23, .F. ) ;
#198 = CARTESIAN_POINT ( 'NONE',  ( 0.000000000000000000, 1.000000000000000000, 0.000000000000000000 ) ) ;
#199 = EDGE_LOOP ( 'NONE', ( #124, #37, #284, #181 ) ) ;
#200 = CARTESIAN_POINT ( 'NONE',  ( -48.99999999999999289, 0.000000000000000000, 0.000000000000000000 ) ) ;
#201 = APPLICATION_CONTEXT ( 'configuration controlled 3d designs of mechanical parts and assemblies' ) ;
#202 = EDGE_CURVE ( 'NONE', #98, #145, #320, .T. ) ;
#203 = AXIS2_PLACEMENT_3D ( 'NONE', #148, #403, #278 ) ;
#204 = CARTESIAN_POINT ( 'NONE',  ( 14.50000000000000000, 1.000000000000000000, 0.000000000000000000 ) ) ;
#205 = LOCAL_TIME ( 13, 16, 44.00000000000000000, #212 ) ;
#206 = DIRECTION ( 'NONE',  ( 1.000000000000000000, 0.000000000000000000, 0.000000000000000000 ) ) ;
#207 = COORDINATED_UNIVERSAL_TIME_OFFSET ( 1, 0, .AHEAD. ) ;
#208 = APPROVAL_STATUS ( 'not_yet_approved' ) ;
#209 = CALENDAR_DATE ( 2024, 18, 11 ) ;
#210 = EDGE_CURVE ( 'NONE', #188, #155, #286, .T. ) ;
#211 = CIRCLE ( 'NONE', #41, 5.249999999999999112 ) ;
#212 = COORDINATED_UNIVERSAL_TIME_OFFSET ( 1, 0, .AHEAD. ) ;
#213 = AXIS2_PLACEMENT_3D ( 'NONE', #348, #196, #67 ) ;
#214 = AXIS2_PLACEMENT_3D ( 'NONE', #198, #310, #123 ) ;
#215 = FACE_OUTER_BOUND ( 'NONE', #248, .T. ) ;
#216 = CYLINDRICAL_SURFACE ( 'NONE', #172, 6.250000000000000000 ) ;
#217 = CYLINDRICAL_SURFACE ( 'NONE', #276, 17.49999999999999645 ) ;
#218 = CARTESIAN_POINT ( 'NONE',  ( 0.000000000000000000, 0.000000000000000000, 0.000000000000000000 ) ) ;
#219 = LINE ( 'NONE', #256, #221 ) ;
#220 = DIRECTION ( 'NONE',  ( 0.000000000000000000, 0.000000000000000000, 1.000000000000000000 ) ) ;
#221 = VECTOR ( 'NONE', #92, 1000.000000000000000 ) ;
#222 = EDGE_LOOP ( 'NONE', ( #287, #289, #28, #63 ) ) ;
#223 = AXIS2_PLACEMENT_3D ( 'NONE', #164, #292, #294 ) ;
#224 = DESIGN_CONTEXT ( 'detailed design', #101, 'design' ) ;
#225 = DIRECTION ( 'NONE',  ( 0.000000000000000000, 0.000000000000000000, -1.000000000000000000 ) ) ;
#226 = EDGE_CURVE ( 'NONE', #311, #134, #157, .T. ) ;
#227 = LINE ( 'NONE', #307, #245 ) ;
#228 = EDGE_LOOP ( 'NONE', ( #195, #259 ) ) ;
#229 = DIRECTION ( 'NONE',  ( 1.000000000000000000, -0.000000000000000000, -0.000000000000000000 ) ) ;
#230 = VERTEX_POINT ( 'NONE', #6 ) ;
#231 = CIRCLE ( 'NONE', #68, 19.49999999999998934 ) ;
#232 = PLANE ( 'NONE',  #5 ) ;
#233 = ORIENTED_EDGE ( 'NONE', *, *, #226, .T. ) ;
#234 = PERSON ( 'UNSPECIFIED', 'UNSPECIFIED', 'UNSPECIFIED', ('UNSPECIFIED'), ('UNSPECIFIED'), ('UNSPECIFIED') ) ;
#235 = DIRECTION ( 'NONE',  ( 1.000000000000000000, -0.000000000000000000, -0.000000000000000000 ) ) ;
#236 = DIRECTION ( 'NONE',  ( 1.000000000000000000, -0.000000000000000000, -0.000000000000000000 ) ) ;
#237 = AXIS2_PLACEMENT_3D ( 'NONE', #381, #290, #32 ) ;
#238 = PERSON_AND_ORGANIZATION_ROLE ( 'design_owner' ) ;
#239 = APPROVAL_DATE_TIME ( #394, #389 ) ;
#240 = VECTOR ( 'NONE', #133, 1000.000000000000000 ) ;
#241 = LOCAL_TIME ( 13, 16, 44.00000000000000000, #79 ) ;
#242 = ADVANCED_BREP_SHAPE_REPRESENTATION ( '3D_P7215_35x 1-2_141231450', ( #69, #189 ), #149 ) ;
#243 = CARTESIAN_POINT ( 'NONE',  ( 14.50000000000000000, 1.000000000000000000, 0.000000000000000000 ) ) ;
#244 = COORDINATED_UNIVERSAL_TIME_OFFSET ( 1, 0, .AHEAD. ) ;
#245 = VECTOR ( 'NONE', #191, 1000.000000000000000 ) ;
#246 = DIRECTION ( 'NONE',  ( 1.000000000000000000, -0.000000000000000000, -0.000000000000000000 ) ) ;
#247 = ADVANCED_FACE ( 'NONE', ( #281, #317 ), #126, .T. ) ;
#248 = EDGE_LOOP ( 'NONE', ( #163, #121, #314, #197 ) ) ;
#249 = ADVANCED_FACE ( 'NONE', ( #156 ), #374, .T. ) ;
#250 = EDGE_LOOP ( 'NONE', ( #370, #408, #316, #280 ) ) ;
#251 = DIRECTION ( 'NONE',  ( -1.000000000000000000, 0.000000000000000000, 0.000000000000000000 ) ) ;
#252 = ORIENTED_EDGE ( 'NONE', *, *, #322, .T. ) ;
#253 = EDGE_CURVE ( 'NONE', #128, #347, #187, .T. ) ;
#254 = DIRECTION ( 'NONE',  ( 0.000000000000000000, 0.000000000000000000, 1.000000000000000000 ) ) ;
#255 = VECTOR ( 'NONE', #55, 1000.000000000000000 ) ;
#256 = CARTESIAN_POINT ( 'NONE',  ( 14.50000000000000000, 1.000000000000000000, 6.250000000000000000 ) ) ;
#257 = ORIENTED_EDGE ( 'NONE', *, *, #325, .T. ) ;
#258 = CARTESIAN_POINT ( 'NONE',  ( -10.00000000000000000, 1.000000000000000000, 0.000000000000000000 ) ) ;
#259 = ORIENTED_EDGE ( 'NONE', *, *, #346, .F. ) ;
#260 = CARTESIAN_POINT ( 'NONE',  ( 14.50000000000000000, 1.000000000000000666, 5.249999999999999112 ) ) ;
#261 = VERTEX_POINT ( 'NONE', #131 ) ;
#262 = DIRECTION ( 'NONE',  ( 1.000000000000000000, -0.000000000000000000, -0.000000000000000000 ) ) ;
#263 =( NAMED_UNIT ( * ) SI_UNIT ( $, .STERADIAN. ) SOLID_ANGLE_UNIT ( ) );
#264 = DIRECTION ( 'NONE',  ( 0.000000000000000000, 0.000000000000000000, -1.000000000000000000 ) ) ;
#265 = PERSON_AND_ORGANIZATION_ROLE ( 'classification_officer' ) ;
#266 = APPROVAL_DATE_TIME ( #401, #151 ) ;
#267 = FACE_BOUND ( 'NONE', #387, .T. ) ;
#268 = AXIS2_PLACEMENT_3D ( 'NONE', #258, #36, #64 ) ;
#269 = CARTESIAN_POINT ( 'NONE',  ( 0.000000000000000000, 0.000000000000000000, 0.000000000000000000 ) ) ;
#270 = VECTOR ( 'NONE', #262, 1000.000000000000000 ) ;
#271 = VERTEX_POINT ( 'NONE', #61 ) ;
#272 = CALENDAR_DATE ( 2024, 18, 11 ) ;
#273 = EDGE_CURVE ( 'NONE', #261, #192, #165, .T. ) ;
#274 = DIRECTION ( 'NONE',  ( 0.000000000000000000, 0.000000000000000000, -1.000000000000000000 ) ) ;
#275 = ORIENTED_EDGE ( 'NONE', *, *, #253, .T. ) ;
#276 = AXIS2_PLACEMENT_3D ( 'NONE', #1, #282, #365 ) ;
#277 = DIRECTION ( 'NONE',  ( -1.000000000000000000, 0.000000000000000000, 0.000000000000000000 ) ) ;
#278 = DIRECTION ( 'NONE',  ( 0.000000000000000000, 0.000000000000000000, 1.000000000000000000 ) ) ;
#279 = DIRECTION ( 'NONE',  ( 1.000000000000000000, -0.000000000000000000, -0.000000000000000000 ) ) ;
#280 = ORIENTED_EDGE ( 'NONE', *, *, #382, .F. ) ;
#281 = FACE_BOUND ( 'NONE', #31, .T. ) ;
#282 = DIRECTION ( 'NONE',  ( 1.000000000000000000, -0.000000000000000000, -0.000000000000000000 ) ) ;
#283 = CC_DESIGN_DATE_AND_TIME_ASSIGNMENT ( #328, #141, ( #301 ) ) ;
#284 = ORIENTED_EDGE ( 'NONE', *, *, #115, .T. ) ;
#285 = CARTESIAN_POINT ( 'NONE',  ( -2.000000000000000000, 1.000000000000000000, 0.000000000000000000 ) ) ;
#286 = CIRCLE ( 'NONE', #108, 6.250000000000000000 ) ;
#287 = ORIENTED_EDGE ( 'NONE', *, *, #185, .F. ) ;
#288 = CARTESIAN_POINT ( 'NONE',  ( 0.000000000000000000, 1.000000000000000000, 6.250000000000000000 ) ) ;
#289 = ORIENTED_EDGE ( 'NONE', *, *, #357, .F. ) ;
#290 = DIRECTION ( 'NONE',  ( -1.000000000000000000, 0.000000000000000000, 0.000000000000000000 ) ) ;
#291 = VERTEX_POINT ( 'NONE', #26 ) ;
#292 = DIRECTION ( 'NONE',  ( 1.000000000000000000, -0.000000000000000000, -0.000000000000000000 ) ) ;
#293 = AXIS2_PLACEMENT_3D ( 'NONE', #336, #52, #361 ) ;
#294 = DIRECTION ( 'NONE',  ( 0.000000000000000000, 0.000000000000000000, -1.000000000000000000 ) ) ;
#295 = EDGE_CURVE ( 'NONE', #311, #132, #150, .T. ) ;
#296 = APPROVAL ( #395, 'UNSPECIFIED' ) ;
#297 = CARTESIAN_POINT ( 'NONE',  ( 46.48091902202271797, 0.000000000000000000, 0.000000000000000000 ) ) ;
#298 = PERSON_AND_ORGANIZATION_ROLE ( 'design_supplier' ) ;
#299 = CARTESIAN_POINT ( 'NONE',  ( 46.48091902202271797, 0.000000000000000000, 0.000000000000000000 ) ) ;
#300 = CIRCLE ( 'NONE', #4, 6.250000000000000000 ) ;
#301 = SECURITY_CLASSIFICATION ( '', '', #330 ) ;
#302 = APPROVAL_STATUS ( 'not_yet_approved' ) ;
#303 = DIRECTION ( 'NONE',  ( 0.000000000000000000, 0.000000000000000000, -1.000000000000000000 ) ) ;
#304 = EDGE_CURVE ( 'NONE', #192, #261, #300, .T. ) ;
#305 = DIRECTION ( 'NONE',  ( 0.000000000000000000, 0.000000000000000000, -1.000000000000000000 ) ) ;
#306 = DIRECTION ( 'NONE',  ( 1.000000000000000000, -0.000000000000000000, -0.000000000000000000 ) ) ;
#307 = CARTESIAN_POINT ( 'NONE',  ( -10.00000000000000000, 1.000000000000000000, -5.249999999999999112 ) ) ;
#308 = PERSON_AND_ORGANIZATION ( #234, #81 ) ;
#309 = AXIS2_PLACEMENT_3D ( 'NONE', #50, #306, #22 ) ;
#310 = DIRECTION ( 'NONE',  ( 1.000000000000000000, -0.000000000000000000, -0.000000000000000000 ) ) ;
#311 = VERTEX_POINT ( 'NONE', #45 ) ;
#312 = CYLINDRICAL_SURFACE ( 'NONE', #237, 6.250000000000000000 ) ;
#313 = DIRECTION ( 'NONE',  ( -1.000000000000000000, 0.000000000000000000, 0.000000000000000000 ) ) ;
#314 = ORIENTED_EDGE ( 'NONE', *, *, #82, .F. ) ;
#315 = CARTESIAN_POINT ( 'NONE',  ( -2.000000000000000000, 1.000000000000000000, -5.249999999999999112 ) ) ;
#316 = ORIENTED_EDGE ( 'NONE', *, *, #109, .F. ) ;
#317 = FACE_OUTER_BOUND ( 'NONE', #228, .T. ) ;
#318 = CC_DESIGN_APPROVAL ( #151, ( #364 ) ) ;
#319 = EDGE_LOOP ( 'NONE', ( #96, #275 ) ) ;
#320 = LINE ( 'NONE', #38, #255 ) ;
#321 = ORIENTED_EDGE ( 'NONE', *, *, #304, .F. ) ;
#322 = EDGE_CURVE ( 'NONE', #188, #261, #136, .T. ) ;
#323 = CARTESIAN_POINT ( 'NONE',  ( 0.000000000000000000, 19.49999999999998934, 0.000000000000000000 ) ) ;
#324 = DIRECTION ( 'NONE',  ( 1.000000000000000000, -0.000000000000000000, -0.000000000000000000 ) ) ;
#325 = EDGE_CURVE ( 'NONE', #155, #188, #397, .T. ) ;
#326 = APPROVAL_PERSON_ORGANIZATION ( #308, #389, #169 ) ;
#327 = DIRECTION ( 'NONE',  ( 0.000000000000000000, 0.000000000000000000, -1.000000000000000000 ) ) ;
#328 = DATE_AND_TIME ( #19, #392 ) ;
#329 = FACE_OUTER_BOUND ( 'NONE', #199, .T. ) ;
#330 = SECURITY_CLASSIFICATION_LEVEL ( 'unclassified' ) ;
#331 = CIRCLE ( 'NONE', #203, 5.249999999999999112 ) ;
#332 = PRODUCT ( '3D_P7215_35x 1-2_141231450', '3D_P7215_35x 1-2_141231450', '', ( #391 ) ) ;
#333 = CALENDAR_DATE ( 2024, 18, 11 ) ;
#334 = AXIS2_PLACEMENT_3D ( 'NONE', #285, #91, #8 ) ;
#335 = CYLINDRICAL_SURFACE ( 'NONE', #309, 5.249999999999999112 ) ;
#336 = CARTESIAN_POINT ( 'NONE',  ( -2.000000000000000888, 17.50000000000000000, 0.000000000000000000 ) ) ;
#337 = ORIENTED_EDGE ( 'NONE', *, *, #112, .T. ) ;
#338 = CARTESIAN_POINT ( 'NONE',  ( 14.50000000000000000, 1.000000000000000000, 0.000000000000000000 ) ) ;
#339 = ORIENTED_EDGE ( 'NONE', *, *, #346, .T. ) ;
#340 = VECTOR ( 'NONE', #229, 1000.000000000000000 ) ;
#341 = LINE ( 'NONE', #345, #240 ) ;
#342 = EDGE_LOOP ( 'NONE', ( #257, #252, #90, #144 ) ) ;
#343 = DIRECTION ( 'NONE',  ( 0.000000000000000000, 0.000000000000000000, -1.000000000000000000 ) ) ;
#344 = ORIENTED_EDGE ( 'NONE', *, *, #357, .T. ) ;
#345 = CARTESIAN_POINT ( 'NONE',  ( 46.48091902202271797, 2.388061258337337361E-15, 19.49999999999998934 ) ) ;
#346 = EDGE_CURVE ( 'NONE', #66, #291, #231, .T. ) ;
#347 = VERTEX_POINT ( 'NONE', #390 ) ;
#348 = CARTESIAN_POINT ( 'NONE',  ( -2.000000000000000000, 1.000000000000000000, 0.000000000000000000 ) ) ;
#349 = ORIENTED_EDGE ( 'NONE', *, *, #382, .T. ) ;
#350 = DIRECTION ( 'NONE',  ( 0.000000000000000000, 0.000000000000000000, -1.000000000000000000 ) ) ;
#351 = LINE ( 'NONE', #73, #270 ) ;
#352 =( LENGTH_UNIT ( ) NAMED_UNIT ( * ) SI_UNIT ( .MILLI., .METRE. ) );
#353 = CC_DESIGN_PERSON_AND_ORGANIZATION_ASSIGNMENT ( #174, #265, ( #301 ) ) ;
#354 = AXIS2_PLACEMENT_3D ( 'NONE', #368, #93, #225 ) ;
#355 = CARTESIAN_POINT ( 'NONE',  ( 0.000000000000000000, 0.000000000000000000, 0.000000000000000000 ) ) ;
#356 = APPLICATION_PROTOCOL_DEFINITION ( 'international standard', 'config_control_design', 1994, #101 ) ;
#357 = EDGE_CURVE ( 'NONE', #98, #271, #135, .T. ) ;
#358 = PERSON_AND_ORGANIZATION_ROLE ( 'creator' ) ;
#359 = CIRCLE ( 'NONE', #334, 5.249999999999999112 ) ;
#360 = VECTOR ( 'NONE', #137, 1000.000000000000000 ) ;
#361 = DIRECTION ( 'NONE',  ( 0.000000000000000000, 0.000000000000000000, 1.000000000000000000 ) ) ;
#362 = ADVANCED_FACE ( 'NONE', ( #329 ), #388, .F. ) ;
#363 = DIRECTION ( 'NONE',  ( 1.000000000000000000, -0.000000000000000000, -0.000000000000000000 ) ) ;
#364 = PRODUCT_DEFINITION ( 'UNKNOWN', '', #94, #224 ) ;
#365 = DIRECTION ( 'NONE',  ( 0.000000000000000000, 0.000000000000000000, -1.000000000000000000 ) ) ;
#366 = APPROVAL_PERSON_ORGANIZATION ( #43, #296, #114 ) ;
#367 = FACE_BOUND ( 'NONE', #88, .T. ) ;
#368 = CARTESIAN_POINT ( 'NONE',  ( 46.48091902202271797, 0.000000000000000000, 0.000000000000000000 ) ) ;
#369 = APPROVAL_DATE_TIME ( #47, #296 ) ;
#370 = ORIENTED_EDGE ( 'NONE', *, *, #54, .T. ) ;
#371 = CARTESIAN_POINT ( 'NONE',  ( 14.50000000000000000, 1.000000000000000000, 6.250000000000000000 ) ) ;
#372 = VERTEX_POINT ( 'NONE', #17 ) ;
#373 = AXIS2_PLACEMENT_3D ( 'NONE', #243, #313, #154 ) ;
#374 = CYLINDRICAL_SURFACE ( 'NONE', #354, 19.49999999999998934 ) ;
#375 = CC_DESIGN_SECURITY_CLASSIFICATION ( #301, ( #94 ) ) ;
#376 = EDGE_LOOP ( 'NONE', ( #60, #122 ) ) ;
#377 = ORIENTED_EDGE ( 'NONE', *, *, #210, .T. ) ;
#378 = CARTESIAN_POINT ( 'NONE',  ( -49.00000000000000000, 17.49999999999999289, 0.000000000000000000 ) ) ;
#379 = ADVANCED_FACE ( 'NONE', ( #384, #103 ), #232, .T. ) ;
#380 = ORIENTED_EDGE ( 'NONE', *, *, #125, .F. ) ;
#381 = CARTESIAN_POINT ( 'NONE',  ( 14.50000000000000000, 1.000000000000000000, 0.000000000000000000 ) ) ;
#382 = EDGE_CURVE ( 'NONE', #291, #347, #351, .T. ) ;
#383 = ORIENTED_EDGE ( 'NONE', *, *, #273, .F. ) ;
#384 = FACE_BOUND ( 'NONE', #59, .T. ) ;
#385 = CIRCLE ( 'NONE', #396, 17.50000000000000000 ) ;
#386 = CC_DESIGN_APPROVAL ( #296, ( #301 ) ) ;
#387 = EDGE_LOOP ( 'NONE', ( #7, #161 ) ) ;
#388 = CYLINDRICAL_SURFACE ( 'NONE', #159, 17.49999999999999645 ) ;
#389 = APPROVAL ( #302, 'UNSPECIFIED' ) ;
#390 = CARTESIAN_POINT ( 'NONE',  ( 0.000000000000000000, 0.000000000000000000, -19.49999999999998934 ) ) ;
#391 = MECHANICAL_CONTEXT ( 'NONE', #201, 'mechanical' ) ;
#392 = LOCAL_TIME ( 13, 16, 44.00000000000000000, #207 ) ;
#393 = PERSON_AND_ORGANIZATION ( #234, #81 ) ;
#394 = DATE_AND_TIME ( #209, #16 ) ;
#395 = APPROVAL_STATUS ( 'not_yet_approved' ) ;
#396 = AXIS2_PLACEMENT_3D ( 'NONE', #21, #246, #182 ) ;
#397 = CIRCLE ( 'NONE', #12, 6.250000000000000000 ) ;
#398 = PRODUCT_RELATED_PRODUCT_CATEGORY ( 'detail', '', ( #332 ) ) ;
#399 = PLANE ( 'NONE',  #293 ) ;
#400 = ORIENTED_EDGE ( 'NONE', *, *, #14, .T. ) ;
#401 = DATE_AND_TIME ( #272, #173 ) ;
#402 = SHAPE_DEFINITION_REPRESENTATION ( #139, #242 ) ;
#403 = DIRECTION ( 'NONE',  ( -1.000000000000000000, 0.000000000000000000, 0.000000000000000000 ) ) ;
#404 = AXIS2_PLACEMENT_3D ( 'NONE', #269, #363, #274 ) ;
#405 = ADVANCED_FACE ( 'NONE', ( #106 ), #42, .T. ) ;
#406 = FACE_OUTER_BOUND ( 'NONE', #342, .T. ) ;
#407 = CARTESIAN_POINT ( 'NONE',  ( 0.000000000000000000, 1.000000000000000000, 0.000000000000000000 ) ) ;
#408 = ORIENTED_EDGE ( 'NONE', *, *, #177, .T. ) ;
#409 = DIRECTION ( 'NONE',  ( -1.000000000000000000, 0.000000000000000000, 0.000000000000000000 ) ) ;
ENDSEC;
END-ISO-10303-21;
