ISO-10303-21;
HEADER;
FILE_DESCRIPTION (( 'STEP AP203' ),
    '1' );
FILE_NAME ('3D_P7215_54 x 1-2_141231480.STEP',
    '2024-11-18T12:18:17',
    ( '' ),
    ( '' ),
    'SwSTEP 2.0',
    'SolidWorks 2023',
    '' );
FILE_SCHEMA (( 'CONFIG_CONTROL_DESIGN' ));
ENDSEC;

DATA;
#1 = EDGE_CURVE ( 'NONE', #285, #138, #2, .T. ) ;
#2 = CIRCLE ( 'NONE', #46, 5.249999999999999112 ) ;
#3 = DIRECTION ( 'NONE',  ( -1.000000000000000000, 0.000000000000000000, 0.000000000000000000 ) ) ;
#4 = CARTESIAN_POINT ( 'NONE',  ( 46.48091902202271797, 0.000000000000000000, -28.99999999999998934 ) ) ;
#5 = ORIENTED_EDGE ( 'NONE', *, *, #1, .F. ) ;
#6 = CIRCLE ( 'NONE', #344, 28.99999999999998934 ) ;
#7 = VERTEX_POINT ( 'NONE', #14 ) ;
#8 = EDGE_CURVE ( 'NONE', #300, #169, #321, .T. ) ;
#9 = ORIENTED_EDGE ( 'NONE', *, *, #87, .T. ) ;
#10 = PERSON_AND_ORGANIZATION ( #320, #352 ) ;
#11 = ORIENTED_EDGE ( 'NONE', *, *, #99, .T. ) ;
#12 = DIRECTION ( 'NONE',  ( 1.000000000000000000, -0.000000000000000000, -0.000000000000000000 ) ) ;
#13 = EDGE_CURVE ( 'NONE', #268, #7, #330, .T. ) ;
#14 = CARTESIAN_POINT ( 'NONE',  ( 0.000000000000000000, 11.15000000000000036, 6.250000000000000000 ) ) ;
#15 = CC_DESIGN_APPROVAL ( #252, ( #363 ) ) ;
#16 = ORIENTED_EDGE ( 'NONE', *, *, #119, .T. ) ;
#17 = CYLINDRICAL_SURFACE ( 'NONE', #338, 5.249999999999999112 ) ;
#18 = LINE ( 'NONE', #150, #287 ) ;
#19 = CIRCLE ( 'NONE', #72, 28.99999999999998934 ) ;
#20 = DIRECTION ( 'NONE',  ( 0.000000000000000000, 0.000000000000000000, -1.000000000000000000 ) ) ;
#21 = APPROVAL_STATUS ( 'not_yet_approved' ) ;
#22 = CARTESIAN_POINT ( 'NONE',  ( 14.50000000000000000, 11.15000000000000036, -6.250000000000000000 ) ) ;
#23 = CC_DESIGN_PERSON_AND_ORGANIZATION_ASSIGNMENT ( #105, #390, ( #363 ) ) ;
#24 = DIRECTION ( 'NONE',  ( 1.000000000000000000, -0.000000000000000000, -0.000000000000000000 ) ) ;
#25 = CIRCLE ( 'NONE', #331, 27.00000000000000355 ) ;
#26 = CARTESIAN_POINT ( 'NONE',  ( 14.50000000000000000, 11.15000000000000036, -5.249999999999999112 ) ) ;
#27 = ORIENTED_EDGE ( 'NONE', *, *, #74, .F. ) ;
#28 = DIRECTION ( 'NONE',  ( 0.000000000000000000, 0.000000000000000000, -1.000000000000000000 ) ) ;
#29 = DIRECTION ( 'NONE',  ( 0.000000000000000000, 0.000000000000000000, 1.000000000000000000 ) ) ;
#30 = ORIENTED_EDGE ( 'NONE', *, *, #250, .F. ) ;
#31 = CARTESIAN_POINT ( 'NONE',  ( -62.00000000000000711, 3.551475717527323241E-15, 28.99999999999998934 ) ) ;
#32 = DIRECTION ( 'NONE',  ( 1.000000000000000000, -0.000000000000000000, -0.000000000000000000 ) ) ;
#33 = FACE_OUTER_BOUND ( 'NONE', #234, .T. ) ;
#34 = EDGE_CURVE ( 'NONE', #327, #103, #170, .T. ) ;
#35 = ORIENTED_EDGE ( 'NONE', *, *, #366, .F. ) ;
#36 = APPLICATION_PROTOCOL_DEFINITION ( 'international standard', 'config_control_design', 1994, #226 ) ;
#37 = AXIS2_PLACEMENT_3D ( 'NONE', #56, #52, #20 ) ;
#38 = AXIS2_PLACEMENT_3D ( 'NONE', #127, #254, #328 ) ;
#39 = VERTEX_POINT ( 'NONE', #304 ) ;
#40 = ADVANCED_FACE ( 'NONE', ( #401 ), #122, .F. ) ;
#41 = LOCAL_TIME ( 13, 18, 17.00000000000000000, #203 ) ;
#42 = DIRECTION ( 'NONE',  ( 0.000000000000000000, 0.000000000000000000, 1.000000000000000000 ) ) ;
#43 = ORIENTED_EDGE ( 'NONE', *, *, #260, .F. ) ;
#44 = ADVANCED_FACE ( 'NONE', ( #275 ), #272, .F. ) ;
#45 = ORIENTED_EDGE ( 'NONE', *, *, #316, .F. ) ;
#46 = AXIS2_PLACEMENT_3D ( 'NONE', #200, #178, #299 ) ;
#47 = ORIENTED_EDGE ( 'NONE', *, *, #322, .T. ) ;
#48 = VECTOR ( 'NONE', #379, 1000.000000000000000 ) ;
#49 = CALENDAR_DATE ( 2024, 18, 11 ) ;
#50 = DIRECTION ( 'NONE',  ( -1.000000000000000000, 0.000000000000000000, 0.000000000000000000 ) ) ;
#51 = DIRECTION ( 'NONE',  ( 1.000000000000000000, -0.000000000000000000, -0.000000000000000000 ) ) ;
#52 = DIRECTION ( 'NONE',  ( 1.000000000000000000, -0.000000000000000000, -0.000000000000000000 ) ) ;
#53 = AXIS2_PLACEMENT_3D ( 'NONE', #236, #360, #73 ) ;
#54 = CARTESIAN_POINT ( 'NONE',  ( -10.00000000000000000, 11.15000000000000036, 0.000000000000000000 ) ) ;
#55 = APPROVAL_PERSON_ORGANIZATION ( #359, #161, #353 ) ;
#56 = CARTESIAN_POINT ( 'NONE',  ( 0.000000000000000000, 11.15000000000000036, 0.000000000000000000 ) ) ;
#57 = FACE_BOUND ( 'NONE', #112, .T. ) ;
#58 = EDGE_LOOP ( 'NONE', ( #76, #312 ) ) ;
#59 = CC_DESIGN_PERSON_AND_ORGANIZATION_ASSIGNMENT ( #262, #361, ( #377 ) ) ;
#60 = AXIS2_PLACEMENT_3D ( 'NONE', #159, #282, #62 ) ;
#61 = DIRECTION ( 'NONE',  ( 0.000000000000000000, 0.000000000000000000, 1.000000000000000000 ) ) ;
#62 = DIRECTION ( 'NONE',  ( 0.000000000000000000, 0.000000000000000000, -1.000000000000000000 ) ) ;
#63 = EDGE_LOOP ( 'NONE', ( #43, #231, #16, #283 ) ) ;
#64 = CARTESIAN_POINT ( 'NONE',  ( -2.000000000000000000, 11.15000000000000036, 5.249999999999999112 ) ) ;
#65 = AXIS2_PLACEMENT_3D ( 'NONE', #132, #95, #61 ) ;
#66 = CARTESIAN_POINT ( 'NONE',  ( 0.000000000000000000, 11.15000000000000036, -6.250000000000000000 ) ) ;
#67 = APPROVAL_DATE_TIME ( #102, #161 ) ;
#68 = CARTESIAN_POINT ( 'NONE',  ( 0.000000000000000000, 11.15000000000000036, 0.000000000000000000 ) ) ;
#69 = CARTESIAN_POINT ( 'NONE',  ( 0.000000000000000000, 0.000000000000000000, 0.000000000000000000 ) ) ;
#70 = ORIENTED_EDGE ( 'NONE', *, *, #267, .F. ) ;
#71 = APPROVAL_STATUS ( 'not_yet_approved' ) ;
#72 = AXIS2_PLACEMENT_3D ( 'NONE', #155, #51, #183 ) ;
#73 = DIRECTION ( 'NONE',  ( 0.000000000000000000, 0.000000000000000000, 1.000000000000000000 ) ) ;
#74 = EDGE_CURVE ( 'NONE', #7, #268, #221, .T. ) ;
#75 = APPROVAL_PERSON_ORGANIZATION ( #301, #380, #271 ) ;
#76 = ORIENTED_EDGE ( 'NONE', *, *, #354, .T. ) ;
#77 = APPROVAL_ROLE ( '' ) ;
#78 = ORIENTED_EDGE ( 'NONE', *, *, #133, .F. ) ;
#79 = FACE_OUTER_BOUND ( 'NONE', #111, .T. ) ;
#80 = AXIS2_PLACEMENT_3D ( 'NONE', #219, #345, #187 ) ;
#81 = DATE_TIME_ROLE ( 'classification_date' ) ;
#82 = ADVANCED_FACE ( 'NONE', ( #307 ), #397, .T. ) ;
#83 = CARTESIAN_POINT ( 'NONE',  ( 46.48091902202271797, 0.000000000000000000, 0.000000000000000000 ) ) ;
#84 = CYLINDRICAL_SURFACE ( 'NONE', #368, 26.99999999999999645 ) ;
#85 = ADVANCED_FACE ( 'NONE', ( #79 ), #333, .T. ) ;
#86 = CARTESIAN_POINT ( 'NONE',  ( -2.000000000000001776, 3.306546357697854128E-15, 27.00000000000000355 ) ) ;
#87 = EDGE_CURVE ( 'NONE', #300, #39, #19, .T. ) ;
#88 = APPROVAL_DATE_TIME ( #115, #380 ) ;
#89 = DIRECTION ( 'NONE',  ( -1.000000000000000000, 0.000000000000000000, 0.000000000000000000 ) ) ;
#90 = ADVANCED_FACE ( 'NONE', ( #303 ), #17, .F. ) ;
#91 = CARTESIAN_POINT ( 'NONE',  ( 0.000000000000000000, 0.000000000000000000, 0.000000000000000000 ) ) ;
#92 = DIRECTION ( 'NONE',  ( -1.000000000000000000, 0.000000000000000000, 0.000000000000000000 ) ) ;
#93 = EDGE_LOOP ( 'NONE', ( #225, #342 ) ) ;
#94 = AXIS2_PLACEMENT_3D ( 'NONE', #54, #370, #369 ) ;
#95 = DIRECTION ( 'NONE',  ( -1.000000000000000000, 0.000000000000000000, 0.000000000000000000 ) ) ;
#96 = DIRECTION ( 'NONE',  ( 1.000000000000000000, 0.000000000000000000, -0.000000000000000000 ) ) ;
#97 = EDGE_LOOP ( 'NONE', ( #35, #30 ) ) ;
#98 = FACE_OUTER_BOUND ( 'NONE', #263, .T. ) ;
#99 = EDGE_CURVE ( 'NONE', #348, #285, #18, .T. ) ;
#100 = VECTOR ( 'NONE', #365, 1000.000000000000000 ) ;
#101 = AXIS2_PLACEMENT_3D ( 'NONE', #220, #3, #315 ) ;
#102 = DATE_AND_TIME ( #297, #41 ) ;
#103 = VERTEX_POINT ( 'NONE', #274 ) ;
#104 = CC_DESIGN_APPROVAL ( #380, ( #232 ) ) ;
#105 = PERSON_AND_ORGANIZATION ( #320, #352 ) ;
#106 = CC_DESIGN_PERSON_AND_ORGANIZATION_ASSIGNMENT ( #199, #110, ( #264 ) ) ;
#107 = ORIENTED_EDGE ( 'NONE', *, *, #74, .T. ) ;
#108 = COORDINATED_UNIVERSAL_TIME_OFFSET ( 1, 0, .AHEAD. ) ;
#109 = EDGE_LOOP ( 'NONE', ( #27, #329 ) ) ;
#110 = PERSON_AND_ORGANIZATION_ROLE ( 'design_supplier' ) ;
#111 = EDGE_LOOP ( 'NONE', ( #296, #9, #357, #409 ) ) ;
#112 = EDGE_LOOP ( 'NONE', ( #362, #134 ) ) ;
#113 = DATE_AND_TIME ( #49, #139 ) ;
#114 = CARTESIAN_POINT ( 'NONE',  ( -10.00000000000000000, 11.15000000000000036, 0.000000000000000000 ) ) ;
#115 = DATE_AND_TIME ( #305, #281 ) ;
#116 = DIRECTION ( 'NONE',  ( 1.000000000000000000, -0.000000000000000000, -0.000000000000000000 ) ) ;
#117 = AXIS2_PLACEMENT_3D ( 'NONE', #162, #284, #341 ) ;
#118 = LINE ( 'NONE', #185, #164 ) ;
#119 = EDGE_CURVE ( 'NONE', #355, #350, #118, .T. ) ;
#120 = DIRECTION ( 'NONE',  ( -1.000000000000000000, 0.000000000000000000, 0.000000000000000000 ) ) ;
#121 = SHAPE_DEFINITION_REPRESENTATION ( #215, #358 ) ;
#122 = CYLINDRICAL_SURFACE ( 'NONE', #94, 5.249999999999999112 ) ;
#123 = VECTOR ( 'NONE', #50, 1000.000000000000000 ) ;
#124 = CARTESIAN_POINT ( 'NONE',  ( -2.000000000000000000, 11.15000000000000036, -5.249999999999999112 ) ) ;
#125 = AXIS2_PLACEMENT_3D ( 'NONE', #69, #323, #291 ) ;
#126 = FACE_OUTER_BOUND ( 'NONE', #58, .T. ) ;
#127 = CARTESIAN_POINT ( 'NONE',  ( -2.000000000000001776, 0.000000000000000000, 0.000000000000000000 ) ) ;
#128 = ORIENTED_EDGE ( 'NONE', *, *, #177, .F. ) ;
#129 = CARTESIAN_POINT ( 'NONE',  ( -62.00000000000000711, 0.000000000000000000, 0.000000000000000000 ) ) ;
#130 = ORIENTED_EDGE ( 'NONE', *, *, #152, .F. ) ;
#131 = CC_DESIGN_SECURITY_CLASSIFICATION ( #232, ( #264 ) ) ;
#132 = CARTESIAN_POINT ( 'NONE',  ( 14.50000000000000000, 11.15000000000000036, 0.000000000000000000 ) ) ;
#133 = EDGE_CURVE ( 'NONE', #298, #138, #218, .T. ) ;
#134 = ORIENTED_EDGE ( 'NONE', *, *, #165, .T. ) ;
#135 = DATE_AND_TIME ( #266, #239 ) ;
#136 = VECTOR ( 'NONE', #253, 1000.000000000000000 ) ;
#137 = CC_DESIGN_PERSON_AND_ORGANIZATION_ASSIGNMENT ( #205, #319, ( #232 ) ) ;
#138 = VERTEX_POINT ( 'NONE', #373 ) ;
#139 = LOCAL_TIME ( 13, 18, 17.00000000000000000, #213 ) ;
#140 =( LENGTH_UNIT ( ) NAMED_UNIT ( * ) SI_UNIT ( .MILLI., .METRE. ) );
#141 = ORIENTED_EDGE ( 'NONE', *, *, #99, .F. ) ;
#142 = DATE_AND_TIME ( #235, #224 ) ;
#143 = EDGE_LOOP ( 'NONE', ( #45, #147, #188, #318 ) ) ;
#144 = CARTESIAN_POINT ( 'NONE',  ( -62.00000000000000000, 26.99999999999998934, 0.000000000000000000 ) ) ;
#145 = AXIS2_PLACEMENT_3D ( 'NONE', #325, #12, #208 ) ;
#146 = ORIENTED_EDGE ( 'NONE', *, *, #194, .F. ) ;
#147 = ORIENTED_EDGE ( 'NONE', *, *, #260, .T. ) ;
#148 = ADVANCED_FACE ( 'NONE', ( #306 ), #84, .F. ) ;
#149 = LINE ( 'NONE', #22, #387 ) ;
#150 = CARTESIAN_POINT ( 'NONE',  ( -10.00000000000000000, 11.15000000000000036, -5.249999999999999112 ) ) ;
#151 = UNCERTAINTY_MEASURE_WITH_UNIT (LENGTH_MEASURE( 1.000000000000000082E-05 ), #140, 'distance_accuracy_value', 'NONE');
#152 = EDGE_CURVE ( 'NONE', #103, #7, #247, .T. ) ;
#153 = CARTESIAN_POINT ( 'NONE',  ( 14.50000000000000000, 11.15000000000000036, 6.250000000000000000 ) ) ;
#154 = DIRECTION ( 'NONE',  ( 0.000000000000000000, 0.000000000000000000, -1.000000000000000000 ) ) ;
#155 = CARTESIAN_POINT ( 'NONE',  ( -62.00000000000000711, 0.000000000000000000, 0.000000000000000000 ) ) ;
#156 = AXIS2_PLACEMENT_3D ( 'NONE', #157, #96, #349 ) ;
#157 = CARTESIAN_POINT ( 'NONE',  ( 0.000000000000000000, 28.99999999999998934, 0.000000000000000000 ) ) ;
#158 = ADVANCED_FACE ( 'NONE', ( #336 ), #184, .T. ) ;
#159 = CARTESIAN_POINT ( 'NONE',  ( 0.000000000000000000, 0.000000000000000000, 0.000000000000000000 ) ) ;
#160 = APPLICATION_CONTEXT ( 'configuration controlled 3d designs of mechanical parts and assemblies' ) ;
#161 = APPROVAL ( #71, 'UNSPECIFIED' ) ;
#162 = CARTESIAN_POINT ( 'NONE',  ( -2.000000000000000000, 11.15000000000000036, 0.000000000000000000 ) ) ;
#163 = ORIENTED_EDGE ( 'NONE', *, *, #343, .F. ) ;
#164 = VECTOR ( 'NONE', #340, 1000.000000000000000 ) ;
#165 = EDGE_CURVE ( 'NONE', #138, #285, #179, .T. ) ;
#166 = CARTESIAN_POINT ( 'NONE',  ( -2.000000000000001776, 0.000000000000000000, 0.000000000000000000 ) ) ;
#167 = APPROVAL_STATUS ( 'not_yet_approved' ) ;
#168 = PRODUCT_RELATED_PRODUCT_CATEGORY ( 'detail', '', ( #377 ) ) ;
#169 = VERTEX_POINT ( 'NONE', #302 ) ;
#170 = CIRCLE ( 'NONE', #53, 6.250000000000000000 ) ;
#171 = AXIS2_PLACEMENT_3D ( 'NONE', #256, #92, #375 ) ;
#172 = COORDINATED_UNIVERSAL_TIME_OFFSET ( 1, 0, .AHEAD. ) ;
#173 = ORIENTED_EDGE ( 'NONE', *, *, #382, .T. ) ;
#174 = MECHANICAL_CONTEXT ( 'NONE', #160, 'mechanical' ) ;
#175 = VERTEX_POINT ( 'NONE', #86 ) ;
#176 = PLANE ( 'NONE',  #197 ) ;
#177 = EDGE_CURVE ( 'NONE', #327, #268, #149, .T. ) ;
#178 = DIRECTION ( 'NONE',  ( -1.000000000000000000, 0.000000000000000000, 0.000000000000000000 ) ) ;
#179 = CIRCLE ( 'NONE', #230, 5.249999999999999112 ) ;
#180 = ORIENTED_EDGE ( 'NONE', *, *, #34, .F. ) ;
#181 = CC_DESIGN_APPROVAL ( #161, ( #264 ) ) ;
#182 = CARTESIAN_POINT ( 'NONE',  ( 14.50000000000000000, 11.15000000000000036, 0.000000000000000000 ) ) ;
#183 = DIRECTION ( 'NONE',  ( 0.000000000000000000, 0.000000000000000000, -1.000000000000000000 ) ) ;
#184 = CYLINDRICAL_SURFACE ( 'NONE', #309, 6.250000000000000000 ) ;
#185 = CARTESIAN_POINT ( 'NONE',  ( 46.48091902202271797, 0.000000000000000000, -26.99999999999999645 ) ) ;
#186 = CARTESIAN_POINT ( 'NONE',  ( 46.48091902202271797, 0.000000000000000000, 0.000000000000000000 ) ) ;
#187 = DIRECTION ( 'NONE',  ( 0.000000000000000000, 0.000000000000000000, 1.000000000000000000 ) ) ;
#188 = ORIENTED_EDGE ( 'NONE', *, *, #250, .T. ) ;
#189 = CIRCLE ( 'NONE', #80, 6.250000000000000000 ) ;
#190 = CARTESIAN_POINT ( 'NONE',  ( 14.50000000000000000, 11.15000000000000036, -6.250000000000000000 ) ) ;
#191 = ADVANCED_FACE ( 'NONE', ( #192 ), #381, .T. ) ;
#192 = FACE_OUTER_BOUND ( 'NONE', #393, .T. ) ;
#193 = ORIENTED_EDGE ( 'NONE', *, *, #177, .T. ) ;
#194 = EDGE_CURVE ( 'NONE', #39, #300, #210, .T. ) ;
#195 = CARTESIAN_POINT ( 'NONE',  ( 0.000000000000000000, 0.000000000000000000, -28.99999999999998934 ) ) ;
#196 = ORIENTED_EDGE ( 'NONE', *, *, #354, .F. ) ;
#197 = AXIS2_PLACEMENT_3D ( 'NONE', #144, #388, #42 ) ;
#198 = LINE ( 'NONE', #227, #48 ) ;
#199 = PERSON_AND_ORGANIZATION ( #320, #352 ) ;
#200 = CARTESIAN_POINT ( 'NONE',  ( 14.50000000000000000, 11.15000000000000036, 0.000000000000000000 ) ) ;
#201 =( NAMED_UNIT ( * ) PLANE_ANGLE_UNIT ( ) SI_UNIT ( $, .RADIAN. ) );
#202 = ORIENTED_EDGE ( 'NONE', *, *, #267, .T. ) ;
#203 = COORDINATED_UNIVERSAL_TIME_OFFSET ( 1, 0, .AHEAD. ) ;
#204 = ORIENTED_EDGE ( 'NONE', *, *, #194, .T. ) ;
#205 = PERSON_AND_ORGANIZATION ( #320, #352 ) ;
#206 = ORIENTED_EDGE ( 'NONE', *, *, #152, .T. ) ;
#207 = ADVANCED_FACE ( 'NONE', ( #57, #98 ), #407, .F. ) ;
#208 = DIRECTION ( 'NONE',  ( 0.000000000000000000, 0.000000000000000000, -1.000000000000000000 ) ) ;
#209 = ORIENTED_EDGE ( 'NONE', *, *, #34, .T. ) ;
#210 = CIRCLE ( 'NONE', #372, 28.99999999999998934 ) ;
#211 = DIRECTION ( 'NONE',  ( 1.000000000000000000, -0.000000000000000000, -0.000000000000000000 ) ) ;
#212 = DIRECTION ( 'NONE',  ( 0.000000000000000000, 0.000000000000000000, -1.000000000000000000 ) ) ;
#213 = COORDINATED_UNIVERSAL_TIME_OFFSET ( 1, 0, .AHEAD. ) ;
#214 = DIRECTION ( 'NONE',  ( 1.000000000000000000, -0.000000000000000000, -0.000000000000000000 ) ) ;
#215 = PRODUCT_DEFINITION_SHAPE ( 'NONE', 'NONE',  #363 ) ;
#216 = CARTESIAN_POINT ( 'NONE',  ( 46.48091902202271797, 0.000000000000000000, 0.000000000000000000 ) ) ;
#217 =( GEOMETRIC_REPRESENTATION_CONTEXT ( 3 ) GLOBAL_UNCERTAINTY_ASSIGNED_CONTEXT ( ( #151 ) ) GLOBAL_UNIT_ASSIGNED_CONTEXT ( ( #140, #201, #289 ) ) REPRESENTATION_CONTEXT ( 'NONE', 'WORKASPACE' ) );
#218 = LINE ( 'NONE', #246, #394 ) ;
#219 = CARTESIAN_POINT ( 'NONE',  ( 14.50000000000000000, 11.15000000000000036, 0.000000000000000000 ) ) ;
#220 = CARTESIAN_POINT ( 'NONE',  ( -2.000000000000000000, 11.15000000000000036, 0.000000000000000000 ) ) ;
#221 = CIRCLE ( 'NONE', #37, 6.250000000000000000 ) ;
#222 = AXIS2_PLACEMENT_3D ( 'NONE', #317, #32, #279 ) ;
#223 = CARTESIAN_POINT ( 'NONE',  ( 14.50000000000000000, 11.15000000000000036, 0.000000000000000000 ) ) ;
#224 = LOCAL_TIME ( 13, 18, 17.00000000000000000, #108 ) ;
#225 = ORIENTED_EDGE ( 'NONE', *, *, #322, .F. ) ;
#226 = APPLICATION_CONTEXT ( 'configuration controlled 3d designs of mechanical parts and assemblies' ) ;
#227 = CARTESIAN_POINT ( 'NONE',  ( 46.48091902202271797, 3.306546357697853339E-15, 26.99999999999999645 ) ) ;
#228 = ORIENTED_EDGE ( 'NONE', *, *, #133, .T. ) ;
#229 = DIRECTION ( 'NONE',  ( 0.000000000000000000, 0.000000000000000000, -1.000000000000000000 ) ) ;
#230 = AXIS2_PLACEMENT_3D ( 'NONE', #332, #120, #371 ) ;
#231 = ORIENTED_EDGE ( 'NONE', *, *, #382, .F. ) ;
#232 = SECURITY_CLASSIFICATION ( '', '', #237 ) ;
#233 = CARTESIAN_POINT ( 'NONE',  ( -62.00000000000000711, 3.306546357697852944E-15, 26.99999999999998934 ) ) ;
#234 = EDGE_LOOP ( 'NONE', ( #146, #376 ) ) ;
#235 = CALENDAR_DATE ( 2024, 18, 11 ) ;
#236 = CARTESIAN_POINT ( 'NONE',  ( 14.50000000000000000, 11.15000000000000036, 0.000000000000000000 ) ) ;
#237 = SECURITY_CLASSIFICATION_LEVEL ( 'unclassified' ) ;
#238 = VERTEX_POINT ( 'NONE', #195 ) ;
#239 = LOCAL_TIME ( 13, 18, 17.00000000000000000, #172 ) ;
#240 = APPLICATION_PROTOCOL_DEFINITION ( 'international standard', 'config_control_design', 1994, #160 ) ;
#241 = EDGE_LOOP ( 'NONE', ( #173, #383 ) ) ;
#242 = CC_DESIGN_PERSON_AND_ORGANIZATION_ASSIGNMENT ( #10, #392, ( #264 ) ) ;
#243 = DIRECTION ( 'NONE',  ( 1.000000000000000000, -0.000000000000000000, -0.000000000000000000 ) ) ;
#244 = AXIS2_PLACEMENT_3D ( 'NONE', #223, #347, #29 ) ;
#245 = DIRECTION ( 'NONE',  ( 0.000000000000000000, 0.000000000000000000, -1.000000000000000000 ) ) ;
#246 = CARTESIAN_POINT ( 'NONE',  ( -10.00000000000000000, 11.15000000000000036, 5.249999999999999112 ) ) ;
#247 = LINE ( 'NONE', #153, #123 ) ;
#248 = CIRCLE ( 'NONE', #117, 5.249999999999999112 ) ;
#249 = DIRECTION ( 'NONE',  ( 0.000000000000000000, 0.000000000000000000, -1.000000000000000000 ) ) ;
#250 = EDGE_CURVE ( 'NONE', #175, #350, #25, .T. ) ;
#251 = CARTESIAN_POINT ( 'NONE',  ( -2.000000000000001776, 0.000000000000000000, -27.00000000000000355 ) ) ;
#252 = APPROVAL ( #167, 'UNSPECIFIED' ) ;
#253 = DIRECTION ( 'NONE',  ( 1.000000000000000000, -0.000000000000000000, -0.000000000000000000 ) ) ;
#254 = DIRECTION ( 'NONE',  ( 1.000000000000000000, -0.000000000000000000, -0.000000000000000000 ) ) ;
#255 = AXIS2_PLACEMENT_3D ( 'NONE', #216, #398, #154 ) ;
#256 = CARTESIAN_POINT ( 'NONE',  ( -2.000000000000000888, 27.00000000000000355, 0.000000000000000000 ) ) ;
#257 = ORIENTED_EDGE ( 'NONE', *, *, #13, .T. ) ;
#258 = FACE_OUTER_BOUND ( 'NONE', #97, .T. ) ;
#259 = EDGE_LOOP ( 'NONE', ( #78, #269, #11, #391 ) ) ;
#260 = EDGE_CURVE ( 'NONE', #389, #175, #198, .T. ) ;
#261 = CIRCLE ( 'NONE', #222, 26.99999999999998934 ) ;
#262 = PERSON_AND_ORGANIZATION ( #320, #352 ) ;
#263 = EDGE_LOOP ( 'NONE', ( #70, #180 ) ) ;
#264 = PRODUCT_DEFINITION_FORMATION_WITH_SPECIFIED_SOURCE ( 'ANY', '', #377, .NOT_KNOWN. ) ;
#265 = EDGE_LOOP ( 'NONE', ( #47, #228, #5, #141 ) ) ;
#266 = CALENDAR_DATE ( 2024, 18, 11 ) ;
#267 = EDGE_CURVE ( 'NONE', #103, #327, #189, .T. ) ;
#268 = VERTEX_POINT ( 'NONE', #66 ) ;
#269 = ORIENTED_EDGE ( 'NONE', *, *, #308, .T. ) ;
#270 = DIRECTION ( 'NONE',  ( 0.000000000000000000, 0.000000000000000000, -1.000000000000000000 ) ) ;
#271 = APPROVAL_ROLE ( '' ) ;
#272 = CYLINDRICAL_SURFACE ( 'NONE', #399, 26.99999999999999645 ) ;
#273 = CIRCLE ( 'NONE', #145, 26.99999999999998934 ) ;
#274 = CARTESIAN_POINT ( 'NONE',  ( 14.50000000000000000, 11.15000000000000036, 6.250000000000000000 ) ) ;
#275 = FACE_OUTER_BOUND ( 'NONE', #63, .T. ) ;
#276 = EDGE_CURVE ( 'NONE', #169, #238, #278, .T. ) ;
#277 = DIRECTION ( 'NONE',  ( 0.000000000000000000, 0.000000000000000000, -1.000000000000000000 ) ) ;
#278 = CIRCLE ( 'NONE', #60, 28.99999999999998934 ) ;
#279 = DIRECTION ( 'NONE',  ( 0.000000000000000000, 0.000000000000000000, -1.000000000000000000 ) ) ;
#280 = ADVANCED_FACE ( 'NONE', ( #314, #258 ), #310, .T. ) ;
#281 = LOCAL_TIME ( 13, 18, 17.00000000000000000, #335 ) ;
#282 = DIRECTION ( 'NONE',  ( 1.000000000000000000, -0.000000000000000000, -0.000000000000000000 ) ) ;
#283 = ORIENTED_EDGE ( 'NONE', *, *, #366, .T. ) ;
#284 = DIRECTION ( 'NONE',  ( -1.000000000000000000, 0.000000000000000000, 0.000000000000000000 ) ) ;
#285 = VERTEX_POINT ( 'NONE', #26 ) ;
#286 = FACE_BOUND ( 'NONE', #109, .T. ) ;
#287 = VECTOR ( 'NONE', #339, 1000.000000000000000 ) ;
#288 = LINE ( 'NONE', #4, #136 ) ;
#289 =( NAMED_UNIT ( * ) SI_UNIT ( $, .STERADIAN. ) SOLID_ANGLE_UNIT ( ) );
#290 = EDGE_LOOP ( 'NONE', ( #204, #326, #196, #163 ) ) ;
#291 = DIRECTION ( 'NONE',  ( 1.000000000000000000, 0.000000000000000000, 0.000000000000000000 ) ) ;
#292 = EDGE_LOOP ( 'NONE', ( #202, #193, #257, #130 ) ) ;
#293 = AXIS2_PLACEMENT_3D ( 'NONE', #68, #324, #270 ) ;
#294 = CIRCLE ( 'NONE', #101, 5.249999999999999112 ) ;
#295 = APPROVAL_DATE_TIME ( #135, #252 ) ;
#296 = ORIENTED_EDGE ( 'NONE', *, *, #8, .F. ) ;
#297 = CALENDAR_DATE ( 2024, 18, 11 ) ;
#298 = VERTEX_POINT ( 'NONE', #64 ) ;
#299 = DIRECTION ( 'NONE',  ( 0.000000000000000000, 0.000000000000000000, 1.000000000000000000 ) ) ;
#300 = VERTEX_POINT ( 'NONE', #31 ) ;
#301 = PERSON_AND_ORGANIZATION ( #320, #352 ) ;
#302 = CARTESIAN_POINT ( 'NONE',  ( 0.000000000000000000, 3.551475717527323241E-15, 28.99999999999998934 ) ) ;
#303 = FACE_OUTER_BOUND ( 'NONE', #265, .T. ) ;
#304 = CARTESIAN_POINT ( 'NONE',  ( -62.00000000000000711, 0.000000000000000000, -28.99999999999998934 ) ) ;
#305 = CALENDAR_DATE ( 2024, 18, 11 ) ;
#306 = FACE_OUTER_BOUND ( 'NONE', #143, .T. ) ;
#307 = FACE_OUTER_BOUND ( 'NONE', #290, .T. ) ;
#308 = EDGE_CURVE ( 'NONE', #298, #348, #294, .T. ) ;
#309 = AXIS2_PLACEMENT_3D ( 'NONE', #182, #89, #403 ) ;
#310 = PLANE ( 'NONE',  #171 ) ;
#311 = MANIFOLD_SOLID_BREP ( 'Aufsatz-Linear austragen3', #405 ) ;
#312 = ORIENTED_EDGE ( 'NONE', *, *, #276, .T. ) ;
#313 = DIRECTION ( 'NONE',  ( 1.000000000000000000, -0.000000000000000000, -0.000000000000000000 ) ) ;
#314 = FACE_BOUND ( 'NONE', #93, .T. ) ;
#315 = DIRECTION ( 'NONE',  ( 0.000000000000000000, 0.000000000000000000, 1.000000000000000000 ) ) ;
#316 = EDGE_CURVE ( 'NONE', #389, #355, #261, .T. ) ;
#317 = CARTESIAN_POINT ( 'NONE',  ( -62.00000000000000711, 0.000000000000000000, 0.000000000000000000 ) ) ;
#318 = ORIENTED_EDGE ( 'NONE', *, *, #119, .F. ) ;
#319 = PERSON_AND_ORGANIZATION_ROLE ( 'classification_officer' ) ;
#320 = PERSON ( 'UNSPECIFIED', 'UNSPECIFIED', 'UNSPECIFIED', ('UNSPECIFIED'), ('UNSPECIFIED'), ('UNSPECIFIED') ) ;
#321 = LINE ( 'NONE', #396, #100 ) ;
#322 = EDGE_CURVE ( 'NONE', #348, #298, #248, .T. ) ;
#323 = DIRECTION ( 'NONE',  ( 0.000000000000000000, 0.000000000000000000, 1.000000000000000000 ) ) ;
#324 = DIRECTION ( 'NONE',  ( 1.000000000000000000, -0.000000000000000000, -0.000000000000000000 ) ) ;
#325 = CARTESIAN_POINT ( 'NONE',  ( -62.00000000000000711, 0.000000000000000000, 0.000000000000000000 ) ) ;
#326 = ORIENTED_EDGE ( 'NONE', *, *, #8, .T. ) ;
#327 = VERTEX_POINT ( 'NONE', #190 ) ;
#328 = DIRECTION ( 'NONE',  ( 0.000000000000000000, 0.000000000000000000, -1.000000000000000000 ) ) ;
#329 = ORIENTED_EDGE ( 'NONE', *, *, #13, .F. ) ;
#330 = CIRCLE ( 'NONE', #293, 6.250000000000000000 ) ;
#331 = AXIS2_PLACEMENT_3D ( 'NONE', #166, #374, #229 ) ;
#332 = CARTESIAN_POINT ( 'NONE',  ( 14.50000000000000000, 11.15000000000000036, 0.000000000000000000 ) ) ;
#333 = CYLINDRICAL_SURFACE ( 'NONE', #255, 28.99999999999998934 ) ;
#334 = CC_DESIGN_DATE_AND_TIME_ASSIGNMENT ( #113, #81, ( #232 ) ) ;
#335 = COORDINATED_UNIVERSAL_TIME_OFFSET ( 1, 0, .AHEAD. ) ;
#336 = FACE_OUTER_BOUND ( 'NONE', #292, .T. ) ;
#337 = ADVANCED_FACE ( 'NONE', ( #286, #126 ), #406, .T. ) ;
#338 = AXIS2_PLACEMENT_3D ( 'NONE', #114, #243, #277 ) ;
#339 = DIRECTION ( 'NONE',  ( 1.000000000000000000, -0.000000000000000000, -0.000000000000000000 ) ) ;
#340 = DIRECTION ( 'NONE',  ( 1.000000000000000000, -0.000000000000000000, -0.000000000000000000 ) ) ;
#341 = DIRECTION ( 'NONE',  ( 0.000000000000000000, 0.000000000000000000, 1.000000000000000000 ) ) ;
#342 = ORIENTED_EDGE ( 'NONE', *, *, #308, .F. ) ;
#343 = EDGE_CURVE ( 'NONE', #39, #238, #288, .T. ) ;
#344 = AXIS2_PLACEMENT_3D ( 'NONE', #91, #313, #28 ) ;
#345 = DIRECTION ( 'NONE',  ( -1.000000000000000000, 0.000000000000000000, 0.000000000000000000 ) ) ;
#346 = APPROVAL_PERSON_ORGANIZATION ( #364, #252, #77 ) ;
#347 = DIRECTION ( 'NONE',  ( -1.000000000000000000, 0.000000000000000000, 0.000000000000000000 ) ) ;
#348 = VERTEX_POINT ( 'NONE', #124 ) ;
#349 = DIRECTION ( 'NONE',  ( -0.000000000000000000, 0.000000000000000000, -1.000000000000000000 ) ) ;
#350 = VERTEX_POINT ( 'NONE', #251 ) ;
#351 = DIRECTION ( 'NONE',  ( 1.000000000000000000, -0.000000000000000000, -0.000000000000000000 ) ) ;
#352 = ORGANIZATION ( 'UNSPECIFIED', 'UNSPECIFIED', '' ) ;
#353 = APPROVAL_ROLE ( '' ) ;
#354 = EDGE_CURVE ( 'NONE', #238, #169, #6, .T. ) ;
#355 = VERTEX_POINT ( 'NONE', #408 ) ;
#356 = FACE_BOUND ( 'NONE', #241, .T. ) ;
#357 = ORIENTED_EDGE ( 'NONE', *, *, #343, .T. ) ;
#358 = ADVANCED_BREP_SHAPE_REPRESENTATION ( '3D_P7215_54 x 1-2_141231480', ( #311, #125 ), #217 ) ;
#359 = PERSON_AND_ORGANIZATION ( #320, #352 ) ;
#360 = DIRECTION ( 'NONE',  ( -1.000000000000000000, 0.000000000000000000, 0.000000000000000000 ) ) ;
#361 = PERSON_AND_ORGANIZATION_ROLE ( 'design_owner' ) ;
#362 = ORIENTED_EDGE ( 'NONE', *, *, #1, .T. ) ;
#363 = PRODUCT_DEFINITION ( 'UNKNOWN', '', #264, #402 ) ;
#364 = PERSON_AND_ORGANIZATION ( #320, #352 ) ;
#365 = DIRECTION ( 'NONE',  ( 1.000000000000000000, -0.000000000000000000, -0.000000000000000000 ) ) ;
#366 = EDGE_CURVE ( 'NONE', #350, #175, #400, .T. ) ;
#367 = CARTESIAN_POINT ( 'NONE',  ( 46.48091902202271797, 0.000000000000000000, 0.000000000000000000 ) ) ;
#368 = AXIS2_PLACEMENT_3D ( 'NONE', #186, #214, #249 ) ;
#369 = DIRECTION ( 'NONE',  ( 0.000000000000000000, 0.000000000000000000, -1.000000000000000000 ) ) ;
#370 = DIRECTION ( 'NONE',  ( 1.000000000000000000, -0.000000000000000000, -0.000000000000000000 ) ) ;
#371 = DIRECTION ( 'NONE',  ( 0.000000000000000000, 0.000000000000000000, 1.000000000000000000 ) ) ;
#372 = AXIS2_PLACEMENT_3D ( 'NONE', #129, #351, #384 ) ;
#373 = CARTESIAN_POINT ( 'NONE',  ( 14.50000000000000000, 11.15000000000000036, 5.249999999999999112 ) ) ;
#374 = DIRECTION ( 'NONE',  ( 1.000000000000000000, -0.000000000000000000, -0.000000000000000000 ) ) ;
#375 = DIRECTION ( 'NONE',  ( 0.000000000000000000, 0.000000000000000000, 1.000000000000000000 ) ) ;
#376 = ORIENTED_EDGE ( 'NONE', *, *, #87, .F. ) ;
#377 = PRODUCT ( '3D_P7215_54 x 1-2_141231480', '3D_P7215_54 x 1-2_141231480', '', ( #174 ) ) ;
#378 = AXIS2_PLACEMENT_3D ( 'NONE', #367, #116, #245 ) ;
#379 = DIRECTION ( 'NONE',  ( 1.000000000000000000, -0.000000000000000000, -0.000000000000000000 ) ) ;
#380 = APPROVAL ( #21, 'UNSPECIFIED' ) ;
#381 = CYLINDRICAL_SURFACE ( 'NONE', #244, 6.250000000000000000 ) ;
#382 = EDGE_CURVE ( 'NONE', #355, #389, #273, .T. ) ;
#383 = ORIENTED_EDGE ( 'NONE', *, *, #316, .T. ) ;
#384 = DIRECTION ( 'NONE',  ( 0.000000000000000000, 0.000000000000000000, -1.000000000000000000 ) ) ;
#385 = CC_DESIGN_DATE_AND_TIME_ASSIGNMENT ( #142, #386, ( #363 ) ) ;
#386 = DATE_TIME_ROLE ( 'creation_date' ) ;
#387 = VECTOR ( 'NONE', #404, 1000.000000000000000 ) ;
#388 = DIRECTION ( 'NONE',  ( -1.000000000000000000, 0.000000000000000000, 0.000000000000000000 ) ) ;
#389 = VERTEX_POINT ( 'NONE', #233 ) ;
#390 = PERSON_AND_ORGANIZATION_ROLE ( 'creator' ) ;
#391 = ORIENTED_EDGE ( 'NONE', *, *, #165, .F. ) ;
#392 = PERSON_AND_ORGANIZATION_ROLE ( 'creator' ) ;
#393 = EDGE_LOOP ( 'NONE', ( #128, #209, #206, #107 ) ) ;
#394 = VECTOR ( 'NONE', #211, 1000.000000000000000 ) ;
#395 = ADVANCED_FACE ( 'NONE', ( #356, #33 ), #176, .T. ) ;
#396 = CARTESIAN_POINT ( 'NONE',  ( 46.48091902202271797, 3.551475717527323241E-15, 28.99999999999998934 ) ) ;
#397 = CYLINDRICAL_SURFACE ( 'NONE', #378, 28.99999999999998934 ) ;
#398 = DIRECTION ( 'NONE',  ( 1.000000000000000000, -0.000000000000000000, -0.000000000000000000 ) ) ;
#399 = AXIS2_PLACEMENT_3D ( 'NONE', #83, #24, #212 ) ;
#400 = CIRCLE ( 'NONE', #38, 27.00000000000000355 ) ;
#401 = FACE_OUTER_BOUND ( 'NONE', #259, .T. ) ;
#402 = DESIGN_CONTEXT ( 'detailed design', #226, 'design' ) ;
#403 = DIRECTION ( 'NONE',  ( 0.000000000000000000, 0.000000000000000000, 1.000000000000000000 ) ) ;
#404 = DIRECTION ( 'NONE',  ( -1.000000000000000000, 0.000000000000000000, 0.000000000000000000 ) ) ;
#405 = CLOSED_SHELL ( 'NONE', ( #158, #90, #148, #82, #85, #337, #280, #44, #395, #40, #191, #207 ) ) ;
#406 = PLANE ( 'NONE',  #156 ) ;
#407 = PLANE ( 'NONE',  #65 ) ;
#408 = CARTESIAN_POINT ( 'NONE',  ( -62.00000000000000711, 0.000000000000000000, -26.99999999999998934 ) ) ;
#409 = ORIENTED_EDGE ( 'NONE', *, *, #276, .F. ) ;
ENDSEC;
END-ISO-10303-21;
